  0
SECTION
  2
HEADER
  9
$ACADVER
  1
AC1015
  9
$ACADMAINTVER
 70
     6
  9
$DWGCODEPAGE
  3
ANSI_932
  9
$INSBASE
 10
0.0
 20
0.0
 30
0.0
  9
$EXTMIN
 10
14.500235
 20
48.97031
 30
1.000000E+20
  9
$EXTMAX
 10
181.156901
 20
222.153882
 30
-1.000000E+20
  9
$LIMMIN
 10
14.500235
 20
48.97031
  9
$LIMMAX
 10
181.156901
 20
222.153882
  9
$ORTHOMODE
 70
     0
  9
$REGENMODE
 70
     1
  9
$FILLMODE
 70
     1
  9
$QTEXTMODE
 70
     0
  9
$MIRRTEXT
 70
     1
  9
$LTSCALE
 40
1.0
  9
$ATTMODE
 70
     1
  9
$TEXTSIZE
 40
0.2
  9
$TRACEWID
 40
0.05
  9
$TEXTSTYLE
  7
Standard
  9
$CLAYER
  8
0
  9
$CELTYPE
  6
Continuous
  9
$CECOLOR
 62
   256
  9
$CELTSCALE
 40
1.0
  9
$DISPSILH
 70
     0
  9
$DIMSCALE
 40
1.0
  9
$DIMASZ
 40
0.18
  9
$DIMEXO
 40
0.0625
  9
$DIMDLI
 40
0.38
  9
$DIMRND
 40
0.0
  9
$DIMDLE
 40
0.0
  9
$DIMEXE
 40
0.18
  9
$DIMTP
 40
0.0
  9
$DIMTM
 40
0.0
  9
$DIMTXT
 40
0.18
  9
$DIMCEN
 40
0.09
  9
$DIMTSZ
 40
0.0
  9
$DIMTOL
 70
     0
  9
$DIMLIM
 70
     0
  9
$DIMTIH
 70
     1
  9
$DIMTOH
 70
     1
  9
$DIMSE1
 70
     0
  9
$DIMSE2
 70
     0
  9
$DIMTAD
 70
     0
  9
$DIMZIN
 70
     0
  9
$DIMBLK
  1

  9
$DIMASO
 70
     1
  9
$DIMSHO
 70
     1
  9
$DIMPOST
  1

  9
$DIMAPOST
  1

  9
$DIMALT
 70
     0
  9
$DIMALTD
 70
     2
  9
$DIMALTF
 40
25.4
  9
$DIMLFAC
 40
1.0
  9
$DIMTOFL
 70
     0
  9
$DIMTVP
 40
0.0
  9
$DIMTIX
 70
     0
  9
$DIMSOXD
 70
     0
  9
$DIMSAH
 70
     0
  9
$DIMBLK1
  1

  9
$DIMBLK2
  1

  9
$DIMSTYLE
  2
Standard
  9
$DIMCLRD
 70
     0
  9
$DIMCLRE
 70
     0
  9
$DIMCLRT
 70
     0
  9
$DIMTFAC
 40
1.0
  9
$DIMGAP
 40
0.09
  9
$DIMJUST
 70
     0
  9
$DIMSD1
 70
     0
  9
$DIMSD2
 70
     0
  9
$DIMTOLJ
 70
     1
  9
$DIMTZIN
 70
     0
  9
$DIMALTZ
 70
     0
  9
$DIMALTTZ
 70
     0
  9
$DIMUPT
 70
     0
  9
$DIMDEC
 70
     4
  9
$DIMTDEC
 70
     4
  9
$DIMALTU
 70
     2
  9
$DIMALTTD
 70
     2
  9
$DIMTXSTY
  7
Standard
  9
$DIMAUNIT
 70
     0
  9
$DIMADEC
 70
     0
  9
$DIMALTRND
 40
0.0
  9
$DIMAZIN
 70
     0
  9
$DIMDSEP
 70
     0
  9
$DIMATFIT
 70
     3
  9
$DIMFRAC
 70
     0
  9
$DIMLDRBLK
  1

  9
$DIMLUNIT
 70
     2
  9
$DIMLWD
 70
     0
  9
$DIMLWE
 70
     0
  9
$DIMTMOVE
 70
     0
  9
$LUNITS
 70
     2
  9
$LUPREC
 70
     4
  9
$SKETCHINC
 40
0.1
  9
$FILLETRAD
 40
0.0
  9
$AUNITS
 70
     0
  9
$AUPREC
 70
     0
  9
$MENU
  1
acad
  9
$ELEVATION
 40
0.0
  9
$PELEVATION
 40
0.0
  9
$THICKNESS
 40
0.0
  9
$LIMCHECK
 70
     0
  9
$CHAMFERA
 40
0.0
  9
$CHAMFERB
 40
0.0
  9
$CHAMFERC
 40
0.0
  9
$CHAMFERD
 40
0.0
  9
$SKPOLY
 70
     0
  9
$TDCREATE
 40
0.000000000
  9
$TDUCREATE
 40
0.000000000
  9
$TDUPDATE
 40
0.000000000
  9
$TDUUPDATE
 40
0.000000000
  9
$TDINDWG
 40
0.0000000000
  9
$TDUSRTIMER
 40
0.0000000000
  9
$USRTIMER
 70
     1
  9
$ANGBASE
 50
0.0
  9
$ANGDIR
 70
     0
  9
$PDMODE
 70
     0
  9
$PDSIZE
 40
0.0
  9
$PLINEWID
 40
0.0
  9
$SPLFRAME
 70
     0
  9
$SPLINETYPE
 70
     6
  9
$SPLINESEGS
 70
     8
  9
$HANDSEED
  5
1D2
  9
$SURFTAB1
 70
     6
  9
$SURFTAB2
 70
     6
  9
$SURFTYPE
 70
     6
  9
$SURFU
 70
     6
  9
$SURFV
 70
     6
  9
$UCSBASE
  2

  9
$UCSNAME
  2

  9
$UCSORG
 10
0.0
 20
0.0
 30
0.0
  9
$UCSXDIR
 10
1.0
 20
0.0
 30
0.0
  9
$UCSYDIR
 10
0.0
 20
1.0
 30
0.0
  9
$UCSORTHOREF
  2

  9
$UCSORTHOVIEW
 70
     0
  9
$UCSORGTOP
 10
0.0
 20
0.0
 30
0.0
  9
$UCSORGBOTTOM
 10
0.0
 20
0.0
 30
0.0
  9
$UCSORGLEFT
 10
0.0
 20
0.0
 30
0.0
  9
$UCSORGRIGHT
 10
0.0
 20
0.0
 30
0.0
  9
$UCSORGFRONT
 10
0.0
 20
0.0
 30
0.0
  9
$UCSORGBACK
 10
0.0
 20
0.0
 30
0.0
  9
$PUCSBASE
  2

  9
$PUCSNAME
  2

  9
$PUCSORG
 10
0.0
 20
0.0
 30
0.0
  9
$PUCSXDIR
 10
1.0
 20
0.0
 30
0.0
  9
$PUCSYDIR
 10
0.0
 20
1.0
 30
0.0
  9
$PUCSORTHOREF
  2

  9
$PUCSORTHOVIEW
 70
     0
  9
$PUCSORGTOP
 10
0.0
 20
0.0
 30
0.0
  9
$PUCSORGBOTTOM
 10
0.0
 20
0.0
 30
0.0
  9
$PUCSORGLEFT
 10
0.0
 20
0.0
 30
0.0
  9
$PUCSORGRIGHT
 10
0.0
 20
0.0
 30
0.0
  9
$PUCSORGFRONT
 10
0.0
 20
0.0
 30
0.0
  9
$PUCSORGBACK
 10
0.0
 20
0.0
 30
0.0
  9
$USERI1
 70
     0
  9
$USERI2
 70
     0
  9
$USERI3
 70
     0
  9
$USERI4
 70
     0
  9
$USERI5
 70
     0
  9
$USERR1
 40
0.0
  9
$USERR2
 40
0.0
  9
$USERR3
 40
0.0
  9
$USERR4
 40
0.0
  9
$USERR5
 40
0.0
  9
$WORLDVIEW
 70
     1
  9
$SHADEDGE
 70
     3
  9
$SHADEDIF
 70
    70
  9
$TILEMODE
 70
     1
  9
$MAXACTVP
 70
    16
  9
$PINSBASE
 10
0.0
 20
0.0
 30
0.0
  9
$PLIMCHECK
 70
     0
  9
$PEXTMIN
 10
1.000000E+20
 20
1.000000E+20
 30
1.000000E+20
  9
$PEXTMAX
 10
-1.000000E+20
 20
-1.000000E+20
 30
-1.000000E+20
  9
$PLIMMIN
 10
0.0
 20
0.0
  9
$PLIMMAX
 10
12.0
 20
9.0
  9
$UNITMODE
 70
     0
  9
$VISRETAIN
 70
     0
  9
$PLINEGEN
 70
     1
  9
$PSLTSCALE
 70
     0
  9
$TREEDEPTH
 70
  3020
  9
$CMLSTYLE
  2
Standard
  9
$CMLJUST
 70
     0
  9
$CMLSCALE
 40
1.0
  9
$PROXYGRAPHICS
 70
     0
  9
$MEASUREMENT
 70
     1
  9
$CELWEIGHT
370
     0
  9
$ENDCAPS
280
     0
  9
$JOINSTYLE
280
     0
  9
$LWDISPLAY
290
     0
  9
$INSUNITS
 70
     0
  9
$HYPERLINKBASE
  1

  9
$STYLESHEET
  1

  9
$XEDIT
290
     1
  9
$CEPSNTYPE
380
     0
  9
$PSTYLEMODE
290
     1
  9
$FINGERPRINTGUID
  2

  9
$VERSIONGUID
  2

  9
$EXTNAMES
290
     1
  9
$PSVPSCALE
 40
0.0
  0
ENDSEC
  0
SECTION
  2
CLASSES
  0
CLASS
  1
LWPOLYLINE
  2
AcDbPolyline
  3
AutoCAD 2000
 90
    32768
280
     0
281
     1
  0
CLASS
  1
IMAGE
  2
AcDbRasterImage
  3
ISM
 90
    32895
280
     0
281
     1
  0
CLASS
  1
OLE2FRAME
  2
AcDbOle2Frame
  3
AutoCAD 2000
 90
    32768
280
     0
281
     1
  0
CLASS
  1
HATCH
  2
AcDbHatch
  3
AutoCAD 2000
 90
        0
280
     0
281
     1
  0
CLASS
  1
DICTIONARYVAR
  2
AcDbDictionaryVar
  3
AutoCAD 2000
 90
    32768
280
     0
281
     0
  0
CLASS
  1
RASTERVARIABLES
  2
AcDbRasterVariables
  3
ISM
 90
    32768
280
     0
281
     0
  0
CLASS
  1
IMAGEDEF
  2
AcDbRasterImageDef
  3
ISM
 90
    32768
280
     0
281
     0
  0
CLASS
  1
IMAGEDEF_REACTOR
  2
AcDbRasterImageDefReactor
  3
ISM
 90
    32769
280
     0
281
     0
  0
CLASS
  1
IDBUFFER
  2
AcDbIdBuffer
  3
AutoCAD 2000
 90
    32768
280
     0
281
     0
  0
CLASS
  1
SPATIAL_FILTER
  2
AcDbSpatialFilter
  3
AutoCAD 2000
 90
    32768
280
     0
281
     0
  0
CLASS
  1
XRECORD
  2
AcDbXrecord
  3
AutoCAD 2000
 90
    32768
280
     0
281
     0
  0
CLASS
  1
SORTENTSTABLE
  2
AcDbSortentsTable
  3
AutoCAD 2000
 90
    32768
280
     0
281
     0
  0
CLASS
  1
LAYER_INDEX
  2
AcDbLayerIndex
  3
AutoCAD 2000
 90
    32768
280
     0
281
     0
  0
CLASS
  1
SPATIAL_INDEX
  2
AcDbSpatialIndex
  3
AutoCAD 2000
 90
    32768
280
     0
281
     0
  0
CLASS
  1
OBJECT_PTR
  2
CAseDLPNTableRecord
  3
"ASE-LPNTableRecord"
 90
    32769
280
     0
281
     0
  0
CLASS
  1
LAYOUT
  2
AcDbLayout
  3
AutoCAD 2000
 90
        0
280
     0
281
     0
  0
CLASS
  1
PLOTSETTINGS
  2
AcDbPlotSettings
  3
AutoCAD 2000
 90
    32768
280
     0
281
     0
  0
CLASS
  1
ACDBDICTIONARYWDFLT
  2
AcDbDictionaryWithDefault
  3
AutoCAD 2000
 90
        0
280
     0
281
     0
  0
CLASS
  1
ACDBPLACEHOLDER
  2
AcDbPlaceHolder
  3
AutoCAD 2000
 90
        0
280
     0
281
     0
  0
CLASS
  1
VBA_PROJECT
  2
AcDbVbaProject
  3
acadvba
 90
    32768
280
     0
281
     0
  0
CLASS
  1
WIPEOUT
  2
AcDbWipeout
  3
WipeOut|AutoCAD Express Tool|expresstools@autodesk.com
 90
    32895
280
     0
281
     1
  0
CLASS
  1
WIPEOUTVARIABLES
  2
AcDbWipeoutVariables
  3
WipeOut|AutoCAD Express Tool|expresstools@autodesk.com
 90
        0
280
     0
281
     0
  0
CLASS
  1
RTEXT
  2
RText
  3
RText|AutoCAD Express Tool|expresstools@autodesk.com
 90
    32768
280
     0
281
     1
  0
CLASS
  1
ARCALIGNEDTEXT
  2
AcDbArcAlignedText
  3
ATEXT|AutoCAD Express Tool|expresstools@autodesk.com
 90
    32768
280
     0
281
     1
  0
ENDSEC
  0
SECTION
  2
TABLES
  0
TABLE
  2
VPORT
  5
7
100
AcDbSymbolTable
 70
     1
  0
VPORT
  5
15
100
AcDbSymbolTableRecord
100
AcDbViewportTableRecord
  2
*ACTIVE
 70
     0
 10
0.0
 20
0.0
 11
1.0
 21
1.0
 12
6.591288
 22
4.579184
 13
0.0
 23
0.0
 14
1.0
 24
1.0
 15
0.0
 25
0.0
 16
0.0
 26
0.0
 36
1.0
 17
0.0
 27
0.0
 37
0.0
 40
9.158369
 41
0.688564
 42
50.0
 43
0.0
 44
0.0
 50
0.0
 51
0.0
 71
     0
 72
   100
 73
     1
 74
     1
 75
     0
 76
     0
 77
     0
 78
     0
281
     0
 65
     0
110
0.0
120
0.0
130
0.0
111
1.0
121
0.0
131
0.0
112
0.0
122
1.0
132
0.0
345
0
346
0
 79
     0
146
0.0
  0
ENDTAB
  0
TABLE
  2
LTYPE
  5
4
100
AcDbSymbolTable
 70
     7
  0
LTYPE
  5
11
100
AcDbSymbolTableRecord
100
AcDbLinetypeTableRecord
  2
ByBlock
 70
    64
  3

 72
    65
 73
     0
 40
0.0
  0
LTYPE
  5
12
100
AcDbSymbolTableRecord
100
AcDbLinetypeTableRecord
  2
ByLayer
 70
    64
  3

 72
    65
 73
     0
 40
0.0
  0
LTYPE
  5
13
100
AcDbSymbolTableRecord
100
AcDbLinetypeTableRecord
  2
Continuous
 70
    64
  3
Solid line
 72
    65
 73
     0
 40
0.0
  0
LTYPE
  5
3D
100
AcDbSymbolTableRecord
100
AcDbLinetypeTableRecord
  2
AI9-LType1
 70
    64
  3
Illustrator Dash Style No.1
 72
    65
 73
     6
 40
10.26398
 49
5.474123
 74
     0
 49
-1.368531
 74
     0
 49
0.342132
 74
     0
 49
-1.368531
 74
     0
 49
0.342132
 74
     0
 49
-1.368531
 74
     0
  0
LTYPE
  5
3F
100
AcDbSymbolTableRecord
100
AcDbLinetypeTableRecord
  2
AI9-LType2
 70
    64
  3
Illustrator Dash Style No.2
 72
    65
 73
     6
 40
10.269189
 49
5.47691
 74
     0
 49
-1.369222
 74
     0
 49
0.342306
 74
     0
 49
-1.369222
 74
     0
 49
0.342306
 74
     0
 49
-1.369222
 74
     0
  0
LTYPE
  5
122
100
AcDbSymbolTableRecord
100
AcDbLinetypeTableRecord
  2
AI9-LType3
 70
    64
  3
Illustrator Dash Style No.3
 72
    65
 73
     4
 40
3.175
 49
1.411111
 74
     0
 49
-0.705556
 74
     0
 49
0.352778
 74
     0
 49
-0.705556
 74
     0
  0
LTYPE
  5
125
100
AcDbSymbolTableRecord
100
AcDbLinetypeTableRecord
  2
AI9-LType4
 70
    64
  3
Illustrator Dash Style No.4
 72
    65
 73
     4
 40
8.819444
 49
5.644444
 74
     0
 49
-1.411111
 74
     0
 49
0.352778
 74
     0
 49
-1.411111
 74
     0
  0
ENDTAB
  0
TABLE
  2
LAYER
  5
2
100
AcDbSymbolTable
 70
    13
  0
LAYER
  5
14
100
AcDbSymbolTableRecord
100
AcDbLayerTableRecord
  2
0
 70
     0
 62
     7
  6
Continuous
290
     1
370
    -3
390
1D
  0
LAYER
  5
28
100
AcDbSymbolTableRecord
100
AcDbLayerTableRecord
  2
RAHMEN
 70
     0
 62
     1
  6
Continuous
290
     1
370
    -3
390
1D
  0
LAYER
  5
2F
100
AcDbSymbolTableRecord
100
AcDbLayerTableRecord
  2
TEXT
 70
     0
 62
     3
  6
Continuous
290
     1
370
    -3
390
1D
  0
LAYER
  5
3C
100
AcDbSymbolTableRecord
100
AcDbLayerTableRecord
  2
TRENNUNG
 70
     0
 62
     5
  6
Continuous
290
     1
370
    -3
390
1D
  0
LAYER
  5
41
100
AcDbSymbolTableRecord
100
AcDbLayerTableRecord
  2
SCHRAFFUR
 70
     0
 62
     2
  6
Continuous
290
     1
370
    -3
390
1D
  0
LAYER
  5
80
100
AcDbSymbolTableRecord
100
AcDbLayerTableRecord
  2
KOERPER
 70
     0
 62
     6
  6
Continuous
290
     1
370
    -3
390
1D
  0
LAYER
  5
CD
100
AcDbSymbolTableRecord
100
AcDbLayerTableRecord
  2
BITUMEN
 70
     0
 62
     4
  6
Continuous
290
     1
370
    -3
390
1D
  0
LAYER
  5
D0
100
AcDbSymbolTableRecord
100
AcDbLayerTableRecord
  2
SCHRAFUR-2
 70
     0
 62
   253
  6
Continuous
290
     1
370
    -3
390
1D
  0
LAYER
  5
121
100
AcDbSymbolTableRecord
100
AcDbLayerTableRecord
  2
MITTE
 70
     0
 62
     7
  6
Continuous
290
     1
370
    -3
390
1D
  0
LAYER
  5
127
100
AcDbSymbolTableRecord
100
AcDbLayerTableRecord
  2
SCHRAFFUR-3
 70
     0
 62
     5
  6
Continuous
290
     1
370
    -3
390
1D
  0
LAYER
  5
1A6
100
AcDbSymbolTableRecord
100
AcDbLayerTableRecord
  2
SCHRAUBE
 70
     0
 62
     5
  6
Continuous
290
     1
370
    -3
390
1D
  0
LAYER
  5
1CB
100
AcDbSymbolTableRecord
100
AcDbLayerTableRecord
  2
DICHTUNG
 70
     0
 62
     5
  6
Continuous
290
     1
370
    -3
390
1D
  0
LAYER
  5
1CD
100
AcDbSymbolTableRecord
100
AcDbLayerTableRecord
  2
WASSER
 70
     0
 62
     3
  6
Continuous
290
     1
370
    -3
390
1D
  0
ENDTAB
  0
TABLE
  2
STYLE
  5
3
100
AcDbSymbolTable
 70
     5
  0
STYLE
  5
17
100
AcDbSymbolTableRecord
100
AcDbTextStyleTableRecord
  2
Standard
 70
     0
 40
0.0
 41
1.0
 50
0.0
 71
     0
 42
0.0
  3
txt
  4

  0
STYLE
  5
24
100
AcDbSymbolTableRecord
100
AcDbTextStyleTableRecord
  2
STD
 70
     0
 40
0.0
 41
1.0
 50
0.0
 71
     0
 42
0.0
  3
txt
  4

  0
STYLE
  5
25
100
AcDbSymbolTableRecord
100
AcDbTextStyleTableRecord
  2
TATESTD
 70
     4
 40
0.0
 41
1.0
 50
0.0
 71
     0
 42
0.0
  3
txt
  4

  0
STYLE
  5
26
100
AcDbSymbolTableRecord
100
AcDbTextStyleTableRecord
  2
KANJISTD
 70
     0
 40
0.0
 41
1.0
 50
0.0
 71
     0
 42
0.0
  3
txt
  4
extfont
  0
STYLE
  5
27
100
AcDbSymbolTableRecord
100
AcDbTextStyleTableRecord
  2
KANJITATE
 70
     4
 40
0.0
 41
1.0
 50
0.0
 71
     0
 42
0.0
  3
txt
  4
extfont
  0
ENDTAB
  0
TABLE
  2
VIEW
  5
5
100
AcDbSymbolTable
 70
     0
  0
ENDTAB
  0
TABLE
  2
UCS
  5
6
100
AcDbSymbolTable
 70
     0
  0
ENDTAB
  0
TABLE
  2
APPID
  5
8
100
AcDbSymbolTable
 70
     1
  0
APPID
  5
16
100
AcDbSymbolTableRecord
100
AcDbRegAppTableRecord
  2
ACAD
 70
     0
  0
ENDTAB
  0
TABLE
  2
DIMSTYLE
  5
9
100
AcDbSymbolTable
 70
     1
100
AcDbDimStyleTable
 71
     0
  0
DIMSTYLE
105
18
100
AcDbSymbolTableRecord
100
AcDbDimStyleTableRecord
  2
Standard
 70
     0
  3

  4

 40
1.0
 41
0.18
 42
0.0625
 43
0.38
 44
0.18
 45
0.0
 46
0.0
 47
0.0
 48
0.0
 71
     0
 72
     0
 73
     1
 74
     1
 75
     0
 76
     0
 77
     0
 78
     0
 79
     0
140
0.18
141
0.09
142
0.0
143
25.4
144
1.0
145
0.0
146
1.0
147
0.09
148
0.0
170
     0
171
     2
172
     0
173
     0
174
     0
175
     0
176
     0
177
     0
178
     0
179
     0
271
     4
272
     4
273
     2
274
     2
275
     0
276
     0
277
     2
278
    46
279
     0
280
     0
281
     0
282
     0
283
     1
284
     0
285
     0
286
     0
288
     0
340
17
341
0
342
0
343
0
344
0
371
    -2
372
    -2
  0
ENDTAB
  0
TABLE
  2
BLOCK_RECORD
  5
1
100
AcDbSymbolTable
 70
    12
  0
BLOCK_RECORD
  5
A
100
AcDbSymbolTableRecord
100
AcDbBlockTableRecord
  2
*MODEL_SPACE
340
20
  0
BLOCK_RECORD
  5
B
100
AcDbSymbolTableRecord
100
AcDbBlockTableRecord
  2
*PAPER_SPACE
340
21
  0
BLOCK_RECORD
  5
43
100
AcDbSymbolTableRecord
100
AcDbBlockTableRecord
  2
AI9-BLK1
340
0
102
{BLKREFS
331
44
102
}
  0
BLOCK_RECORD
  5
55
100
AcDbSymbolTableRecord
100
AcDbBlockTableRecord
  2
AI9-BLK2
340
0
102
{BLKREFS
331
56
102
}
  0
BLOCK_RECORD
  5
6C
100
AcDbSymbolTableRecord
100
AcDbBlockTableRecord
  2
AI9-BLK3
340
0
102
{BLKREFS
331
6D
102
}
  0
BLOCK_RECORD
  5
9C
100
AcDbSymbolTableRecord
100
AcDbBlockTableRecord
  2
AI9-BLK4
340
0
102
{BLKREFS
331
9D
102
}
  0
BLOCK_RECORD
  5
AC
100
AcDbSymbolTableRecord
100
AcDbBlockTableRecord
  2
AI9-BLK5
340
0
102
{BLKREFS
331
AD
102
}
  0
BLOCK_RECORD
  5
AF
100
AcDbSymbolTableRecord
100
AcDbBlockTableRecord
  2
AI9-BLK6
340
0
102
{BLKREFS
331
B0
102
}
  0
BLOCK_RECORD
  5
D1
100
AcDbSymbolTableRecord
100
AcDbBlockTableRecord
  2
AI9-BLK7
340
0
102
{BLKREFS
331
D2
102
}
  0
BLOCK_RECORD
  5
DF
100
AcDbSymbolTableRecord
100
AcDbBlockTableRecord
  2
AI9-BLK8
340
0
102
{BLKREFS
331
E0
102
}
  0
BLOCK_RECORD
  5
F8
100
AcDbSymbolTableRecord
100
AcDbBlockTableRecord
  2
AI9-BLK9
340
0
102
{BLKREFS
331
F9
102
}
  0
BLOCK_RECORD
  5
112
100
AcDbSymbolTableRecord
100
AcDbBlockTableRecord
  2
AI9-BLK10
340
0
102
{BLKREFS
331
113
102
}
  0
BLOCK_RECORD
  5
128
100
AcDbSymbolTableRecord
100
AcDbBlockTableRecord
  2
AI9-BLK11
340
0
102
{BLKREFS
331
129
102
}
  0
BLOCK_RECORD
  5
168
100
AcDbSymbolTableRecord
100
AcDbBlockTableRecord
  2
AI9-BLK12
340
0
102
{BLKREFS
331
169
102
}
  0
ENDTAB
  0
ENDSEC
  0
SECTION
  2
BLOCKS
  0
BLOCK
  5
D
100
AcDbEntity
  8
0
100
AcDbBlockBegin
  2
*MODEL_SPACE
 70
     0
 10
0.0
 20
0.0
 30
0.0
  3
*MODEL_SPACE
  1

  0
ENDBLK
  5
E
100
AcDbEntity
  8
0
100
AcDbBlockEnd
  0
BLOCK
  5
F
100
AcDbEntity
 67
     1
  8
0
100
AcDbBlockBegin
  2
*PAPER_SPACE
 70
     0
 10
0.0
 20
0.0
 30
0.0
  3
*PAPER_SPACE
  1

  0
ENDBLK
  5
10
100
AcDbEntity
 67
     1
  8
0
100
AcDbBlockEnd
  0
BLOCK
  5
45
100
AcDbEntity
  8
SCHRAFFUR
 62
     7
100
AcDbBlockBegin
  2
AI9-BLK1
 70
     0
 10
0.0
 20
0.0
 30
0.0
  3
AI9-BLK1
  1

  0
LINE
  5
53
100
AcDbEntity
  8
SCHRAFFUR
 62
     7
100
AcDbLine
 10
-62.653282
 20
-5.993433
 30
0.0
 11
-65.085519
 21
-3.561195
 31
0.0
  0
LINE
  5
52
100
AcDbEntity
  8
SCHRAFFUR
 62
     7
100
AcDbLine
 10
-51.427955
 20
-5.993433
 30
0.0
 11
-51.61244
 21
-5.809465
 31
0.0
  0
LINE
  5
51
100
AcDbEntity
  8
SCHRAFFUR
 62
     7
100
AcDbLine
 10
-51.61244
 20
-5.809465
 30
0.0
 11
-63.415165
 21
5.993433
 31
0.0
  0
LINE
  5
50
100
AcDbEntity
  8
SCHRAFFUR
 62
     7
100
AcDbLine
 10
-40.202628
 20
-5.993433
 30
0.0
 11
-48.294296
 21
2.098408
 31
0.0
  0
LINE
  5
4F
100
AcDbEntity
  8
SCHRAFFUR
 62
     7
100
AcDbLine
 10
-28.977301
 20
-5.993433
 30
0.0
 11
-37.068969
 21
2.098408
 31
0.0
  0
LINE
  5
4E
100
AcDbEntity
  8
SCHRAFFUR
 62
     7
100
AcDbLine
 10
-17.751974
 20
-5.993433
 30
0.0
 11
-25.843642
 21
2.098408
 31
0.0
  0
LINE
  5
4D
100
AcDbEntity
  8
SCHRAFFUR
 62
     7
100
AcDbLine
 10
-14.447783
 20
1.927531
 30
0.0
 11
-14.618315
 21
2.098408
 31
0.0
  0
LINE
  5
4C
100
AcDbEntity
  8
SCHRAFFUR
 62
     7
100
AcDbLine
 10
15.924006
 20
-5.993433
 30
0.0
 11
14.119465
 21
-4.188892
 31
0.0
  0
LINE
  5
4B
100
AcDbEntity
  8
SCHRAFFUR
 62
     7
100
AcDbLine
 10
27.149506
 20
-5.993433
 30
0.0
 11
19.057665
 21
2.098408
 31
0.0
  0
LINE
  5
4A
100
AcDbEntity
  8
SCHRAFFUR
 62
     7
100
AcDbLine
 10
38.374316
 20
-5.993433
 30
0.0
 11
30.283164
 21
2.098408
 31
0.0
  0
LINE
  5
49
100
AcDbEntity
  8
SCHRAFFUR
 62
     7
100
AcDbLine
 10
49.599815
 20
-5.993433
 30
0.0
 11
41.507975
 21
2.098408
 31
0.0
  0
LINE
  5
48
100
AcDbEntity
  8
SCHRAFFUR
 62
     7
100
AcDbLine
 10
60.825314
 20
-5.993433
 30
0.0
 11
58.934646
 21
-4.103453
 31
0.0
  0
LINE
  5
47
100
AcDbEntity
  8
SCHRAFFUR
 62
     7
100
AcDbLine
 10
58.934646
 20
-4.103453
 30
0.0
 11
52.424793
 21
2.406399
 31
0.0
  0
LINE
  5
46
100
AcDbEntity
  8
SCHRAFFUR
 62
     7
100
AcDbLine
 10
65.085519
 20
0.971861
 30
0.0
 11
60.063259
 21
5.993433
 31
0.0
  0
ENDBLK
  5
54
100
AcDbEntity
  8
SCHRAFFUR
100
AcDbBlockEnd
  0
BLOCK
  5
57
100
AcDbEntity
  8
SCHRAFFUR
 62
     7
100
AcDbBlockBegin
  2
AI9-BLK2
 70
     0
 10
0.0
 20
0.0
 30
0.0
  3
AI9-BLK2
  1

  0
LINE
  5
6A
100
AcDbEntity
  8
SCHRAFFUR
 62
     7
100
AcDbLine
 10
-17.572399
 20
25.222664
 30
0.0
 11
-14.876956
 21
27.918106
 31
0.0
  0
LINE
  5
69
100
AcDbEntity
  8
SCHRAFFUR
 62
     7
100
AcDbLine
 10
-17.572399
 20
2.77201
 30
0.0
 11
7.574042
 21
27.918106
 31
0.0
  0
LINE
  5
68
100
AcDbEntity
  8
SCHRAFFUR
 62
     7
100
AcDbLine
 10
-17.572399
 20
-19.678816
 30
0.0
 11
17.572399
 21
15.465464
 31
0.0
  0
LINE
  5
67
100
AcDbEntity
  8
SCHRAFFUR
 62
     7
100
AcDbLine
 10
-3.360691
 20
-27.918106
 30
0.0
 11
17.572399
 21
-6.985189
 31
0.0
  0
LINE
  5
66
100
AcDbEntity
  8
SCHRAFFUR
 62
     7
100
AcDbLine
 10
-17.572399
 20
13.997165
 30
0.0
 11
-16.228811
 21
15.341441
 31
0.0
  0
LINE
  5
65
100
AcDbEntity
  8
SCHRAFFUR
 62
     7
100
AcDbLine
 10
-13.422437
 20
18.147816
 30
0.0
 11
-7.808998
 21
23.760221
 31
0.0
  0
LINE
  5
64
100
AcDbEntity
  8
SCHRAFFUR
 62
     7
100
AcDbLine
 10
-5.002623
 20
26.566595
 30
0.0
 11
-3.651457
 21
27.918106
 31
0.0
  0
LINE
  5
63
100
AcDbEntity
  8
SCHRAFFUR
 62
     7
100
AcDbLine
 10
-17.572399
 20
-8.453317
 30
0.0
 11
-13.422437
 21
-4.303183
 31
0.0
  0
LINE
  5
62
100
AcDbEntity
  8
SCHRAFFUR
 62
     7
100
AcDbLine
 10
-10.615373
 20
-1.496808
 30
0.0
 11
-5.002623
 21
4.115942
 31
0.0
  0
LINE
  5
61
100
AcDbEntity
  8
SCHRAFFUR
 62
     7
100
AcDbLine
 10
-2.196248
 20
6.922316
 30
0.0
 11
3.416501
 21
12.535066
 31
0.0
  0
LINE
  5
60
100
AcDbEntity
  8
SCHRAFFUR
 62
     7
100
AcDbLine
 10
6.222876
 20
15.341441
 30
0.0
 11
11.834937
 21
20.95419
 31
0.0
  0
LINE
  5
5F
100
AcDbEntity
  8
SCHRAFFUR
 62
     7
100
AcDbLine
 10
14.641311
 20
23.760221
 30
0.0
 11
17.572399
 21
26.690963
 31
0.0
  0
LINE
  5
5E
100
AcDbEntity
  8
SCHRAFFUR
 62
     7
100
AcDbLine
 10
-14.58619
 20
-27.918106
 30
0.0
 11
-10.615373
 21
-23.947289
 31
0.0
  0
LINE
  5
5D
100
AcDbEntity
  8
SCHRAFFUR
 62
     7
100
AcDbLine
 10
-7.808998
 20
-21.141604
 30
0.0
 11
-2.196248
 21
-15.528854
 31
0.0
  0
LINE
  5
5C
100
AcDbEntity
  8
SCHRAFFUR
 62
     7
100
AcDbLine
 10
0.610126
 20
-12.722479
 30
0.0
 11
6.222876
 21
-7.109213
 31
0.0
  0
LINE
  5
5B
100
AcDbEntity
  8
SCHRAFFUR
 62
     7
100
AcDbLine
 10
9.028562
 20
-4.303183
 30
0.0
 11
14.641311
 21
1.309567
 31
0.0
  0
LINE
  5
5A
100
AcDbEntity
  8
SCHRAFFUR
 62
     7
100
AcDbLine
 10
17.447686
 20
4.115942
 30
0.0
 11
17.572399
 21
4.24031
 31
0.0
  0
LINE
  5
59
100
AcDbEntity
  8
SCHRAFFUR
 62
     7
100
AcDbLine
 10
7.864808
 20
-27.918106
 30
0.0
 11
9.028562
 21
-26.753664
 31
0.0
  0
LINE
  5
58
100
AcDbEntity
  8
SCHRAFFUR
 62
     7
100
AcDbLine
 10
11.834937
 20
-23.947289
 30
0.0
 11
17.447686
 21
-18.335229
 31
0.0
  0
ENDBLK
  5
6B
100
AcDbEntity
  8
SCHRAFFUR
100
AcDbBlockEnd
  0
BLOCK
  5
6E
100
AcDbEntity
  8
SCHRAFFUR
 62
     7
100
AcDbBlockBegin
  2
AI9-BLK3
 70
     0
 10
0.0
 20
0.0
 30
0.0
  3
AI9-BLK3
  1

  0
LINE
  5
7E
100
AcDbEntity
  8
SCHRAFFUR
 62
     7
100
AcDbLine
 10
-17.487477
 20
20.318915
 30
0.0
 11
-9.888113
 21
27.918106
 31
0.0
  0
LINE
  5
7D
100
AcDbEntity
  8
SCHRAFFUR
 62
     7
100
AcDbLine
 10
-17.487477
 20
-2.132083
 30
0.0
 11
12.562541
 21
27.918106
 31
0.0
  0
LINE
  5
7C
100
AcDbEntity
  8
SCHRAFFUR
 62
     7
100
AcDbLine
 10
-17.487477
 20
-24.582565
 30
0.0
 11
17.487477
 21
10.392561
 31
0.0
  0
LINE
  5
7B
100
AcDbEntity
  8
SCHRAFFUR
 62
     7
100
AcDbLine
 10
1.62798
 20
-27.918106
 30
0.0
 11
17.487477
 21
-12.058265
 31
0.0
  0
LINE
  5
7A
100
AcDbEntity
  8
SCHRAFFUR
 62
     7
100
AcDbLine
 10
-17.487477
 20
9.093416
 30
0.0
 11
-16.852201
 21
9.728691
 31
0.0
  0
LINE
  5
79
100
AcDbEntity
  8
SCHRAFFUR
 62
     7
100
AcDbLine
 10
-14.045999
 20
12.535066
 30
0.0
 11
-8.433421
 21
18.147816
 31
0.0
  0
LINE
  5
78
100
AcDbEntity
  8
SCHRAFFUR
 62
     7
100
AcDbLine
 10
-5.627047
 20
20.95419
 30
0.0
 11
-0.014297
 21
26.566595
 31
0.0
  0
LINE
  5
77
100
AcDbEntity
  8
SCHRAFFUR
 62
     7
100
AcDbLine
 10
-17.487477
 20
-13.357755
 30
0.0
 11
-14.045999
 21
-9.916104
 31
0.0
  0
LINE
  5
76
100
AcDbEntity
  8
SCHRAFFUR
 62
     7
100
AcDbLine
 10
-11.239624
 20
-7.109213
 30
0.0
 11
-5.627047
 21
-1.496808
 31
0.0
  0
LINE
  5
75
100
AcDbEntity
  8
SCHRAFFUR
 62
     7
100
AcDbLine
 10
-2.820672
 20
1.309567
 30
0.0
 11
2.792078
 21
6.922316
 31
0.0
  0
LINE
  5
74
100
AcDbEntity
  8
SCHRAFFUR
 62
     7
100
AcDbLine
 10
5.598452
 20
9.728691
 30
0.0
 11
11.21103
 21
15.341441
 31
0.0
  0
LINE
  5
73
100
AcDbEntity
  8
SCHRAFFUR
 62
     7
100
AcDbLine
 10
14.017232
 20
18.147816
 30
0.0
 11
17.487477
 21
21.617716
 31
0.0
  0
LINE
  5
72
100
AcDbEntity
  8
SCHRAFFUR
 62
     7
100
AcDbLine
 10
-8.433421
 20
-26.753664
 30
0.0
 11
-2.820672
 21
-21.141604
 31
0.0
  0
LINE
  5
71
100
AcDbEntity
  8
SCHRAFFUR
 62
     7
100
AcDbLine
 10
-0.014297
 20
-18.335229
 30
0.0
 11
5.598452
 21
-12.722479
 31
0.0
  0
LINE
  5
70
100
AcDbEntity
  8
SCHRAFFUR
 62
     7
100
AcDbLine
 10
8.404655
 20
-9.916104
 30
0.0
 11
14.017232
 21
-4.303183
 31
0.0
  0
LINE
  5
6F
100
AcDbEntity
  8
SCHRAFFUR
 62
     7
100
AcDbLine
 10
12.853134
 20
-27.918106
 30
0.0
 11
16.823607
 21
-23.947289
 31
0.0
  0
ENDBLK
  5
7F
100
AcDbEntity
  8
SCHRAFFUR
100
AcDbBlockEnd
  0
BLOCK
  5
9E
100
AcDbEntity
  8
KOERPER
 62
     7
100
AcDbBlockBegin
  2
AI9-BLK4
 70
     0
 10
0.0
 20
0.0
 30
0.0
  3
AI9-BLK4
  1

  0
LINE
  5
AA
100
AcDbEntity
  8
KOERPER
 62
     7
100
AcDbLine
 10
-14.283538
 20
8.588623
 30
0.0
 11
-14.283538
 21
-6.312104
 31
0.0
  0
LINE
  5
A9
100
AcDbEntity
  8
KOERPER
 62
     7
100
AcDbLine
 10
14.283538
 20
8.588623
 30
0.0
 11
14.283538
 21
-6.312104
 31
0.0
  0
SPLINE
  5
A8
100
AcDbEntity
  8
KOERPER
 62
     7
100
AcDbSpline
210
0.0
220
0.0
230
1.0
 70
     8
 71
     3
 72
     8
 73
     4
 74
     0
 42
0.00000001
 43
0.00000001
 40
0.0
 40
0.0
 40
0.0
 40
0.0
 40
1.0
 40
1.0
 40
1.0
 40
1.0
 10
-3.170693630642361
 20
-6.4016764322916657
 30
0.0
 10
1.7619940863715275
 20
-8.1125108506944432
 30
0.0
 10
6.9799357096354164
 20
-8.8511393229166657
 30
0.0
 10
12.193743218315971
 20
-8.5769097222222221
 30
0.0
  0
SPLINE
  5
A7
100
AcDbEntity
  8
KOERPER
 62
     7
100
AcDbSpline
210
0.0
220
0.0
230
1.0
 70
     8
 71
     3
 72
     8
 73
     4
 74
     0
 42
0.00000001
 43
0.00000001
 40
0.0
 40
0.0
 40
0.0
 40
0.0
 40
1.0
 40
1.0
 40
1.0
 40
1.0
 10
-3.170693630642361
 20
-6.4016764322916657
 30
0.0
 10
-5.9026543511284713
 20
-7.0093912760416659
 30
0.0
 10
-8.6160115559895818
 20
-7.699788411458333
 30
0.0
 10
-11.306286621093749
 20
-8.4721788194444443
 30
0.0
  0
SPLINE
  5
A6
100
AcDbEntity
  8
KOERPER
 62
     7
100
AcDbSpline
210
0.0
220
0.0
230
1.0
 70
     8
 71
     3
 72
     8
 73
     4
 74
     0
 42
0.00000001
 43
0.00000001
 40
0.0
 40
0.0
 40
0.0
 40
0.0
 40
1.0
 40
1.0
 40
1.0
 40
1.0
 10
-14.283538140190972
 20
-6.3121039496527773
 30
0.0
 10
-14.283538140190972
 20
-6.7799479166666661
 30
0.0
 10
-14.138844129774304
 20
-7.2367675781249989
 30
0.0
 10
-13.869782172309026
 20
-7.6198621961805548
 30
0.0
  0
SPLINE
  5
A5
100
AcDbEntity
  8
KOERPER
 62
     7
100
AcDbSpline
210
0.0
220
0.0
230
1.0
 70
     8
 71
     3
 72
     8
 73
     4
 74
     0
 42
0.00000001
 43
0.00000001
 40
0.0
 40
0.0
 40
0.0
 40
0.0
 40
1.0
 40
1.0
 40
1.0
 40
1.0
 10
-13.869782172309026
 20
-7.6198621961805548
 30
0.0
 10
-13.162159559461804
 20
-8.3068142361111104
 30
0.0
 10
-12.167560492621528
 20
-8.6120496961805539
 30
0.0
 10
-11.196388075086805
 20
-8.4411729600694443
 30
0.0
  0
SPLINE
  5
A4
100
AcDbEntity
  8
KOERPER
 62
     7
100
AcDbSpline
210
0.0
220
0.0
230
1.0
 70
     8
 71
     3
 72
     8
 73
     4
 74
     0
 42
0.00000001
 43
0.00000001
 40
0.0
 40
0.0
 40
0.0
 40
0.0
 40
1.0
 40
1.0
 40
1.0
 40
1.0
 10
12.011153157552082
 20
-5.3385199652777775
 30
0.0
 10
6.9255032009548607
 20
-4.9836751302083329
 30
0.0
 10
1.8157375759548608
 20
-5.3412760416666663
 30
0.0
 10
-3.170693630642361
 20
-6.4016764322916657
 30
0.0
  0
SPLINE
  5
A3
100
AcDbEntity
  8
KOERPER
 62
     7
100
AcDbSpline
210
0.0
220
0.0
230
1.0
 70
     8
 71
     3
 72
     8
 73
     4
 74
     0
 42
0.00000001
 43
0.00000001
 40
0.0
 40
0.0
 40
0.0
 40
0.0
 40
1.0
 40
1.0
 40
1.0
 40
1.0
 10
12.237151421440972
 20
-4.0514322916666661
 30
0.0
 10
9.42457546657986
 20
-3.9053602430555552
 30
0.0
 10
6.6044203016493048
 20
-4.1196451822916664
 30
0.0
 10
3.8455878363715272
 20
-4.6894639756944443
 30
0.0
  0
SPLINE
  5
A2
100
AcDbEntity
  8
KOERPER
 62
     7
100
AcDbSpline
210
0.0
220
0.0
230
1.0
 70
     8
 71
     3
 72
     8
 73
     4
 74
     0
 42
0.00000001
 43
0.00000001
 40
0.0
 40
0.0
 40
0.0
 40
0.0
 40
1.0
 40
1.0
 40
1.0
 40
1.0
 10
-3.170693630642361
 20
-6.4016764322916657
 30
0.0
 10
1.819182671440972
 20
-7.442095269097222
 30
0.0
 10
6.9344604492187489
 20
-7.7404405381944441
 30
0.0
 10
12.011153157552082
 20
-7.2863769531249991
 30
0.0
  0
SPLINE
  5
A1
100
AcDbEntity
  8
KOERPER
 62
     7
100
AcDbSpline
210
0.0
220
0.0
230
1.0
 70
     8
 71
     3
 72
     8
 73
     4
 74
     0
 42
0.00000001
 43
0.00000001
 40
0.0
 40
0.0
 40
0.0
 40
0.0
 40
1.0
 40
1.0
 40
1.0
 40
1.0
 10
4.3354804144965273
 20
-4.5923122829861107
 30
0.0
 10
1.8088473849826388
 20
-5.0870279947916659
 30
0.0
 10
-0.6957370334201388
 20
-5.6906087239583325
 30
0.0
 10
-3.170693630642361
 20
-6.4016764322916657
 30
0.0
  0
SPLINE
  5
A0
100
AcDbEntity
  8
KOERPER
 62
     7
100
AcDbSpline
210
0.0
220
0.0
230
1.0
 70
     8
 71
     3
 72
    11
 73
     7
 74
     0
 42
0.00000001
 43
0.00000001
 40
0.0
 40
0.0
 40
0.0
 40
0.0
 40
1.0
 40
1.0
 40
1.0
 40
2.0
 40
2.0
 40
2.0
 40
2.0
 10
12.011153157552082
 20
-7.2863769531249991
 30
0.0
 10
12.549277072482639
 20
-7.2863769531249991
 30
0.0
 10
12.984737141927083
 20
-6.8502278645833323
 30
0.0
 10
12.984737141927083
 20
-6.3121039496527773
 30
0.0
 10
12.984737141927083
 20
-5.7746690538194443
 30
0.0
 10
12.549277072482639
 20
-5.3385199652777775
 30
0.0
 10
12.011153157552082
 20
-5.3385199652777775
 30
0.0
  0
SPLINE
  5
9F
100
AcDbEntity
  8
KOERPER
 62
     7
100
AcDbSpline
210
0.0
220
0.0
230
1.0
 70
     8
 71
     3
 72
    11
 73
     7
 74
     0
 42
0.00000001
 43
0.00000001
 40
0.0
 40
0.0
 40
0.0
 40
0.0
 40
1.0
 40
1.0
 40
1.0
 40
2.0
 40
2.0
 40
2.0
 40
2.0
 10
12.059384494357637
 20
-8.5837999131944436
 30
0.0
 10
13.314088270399305
 20
-8.5576171875
 30
0.0
 10
14.309720865885415
 20
-7.5185763888888886
 30
0.0
 10
14.282849121093749
 20
-6.263872612847222
 30
0.0
 10
14.256666395399304
 20
-5.0257052951388888
 30
0.0
 10
13.243119303385415
 20
-4.0362738715277775
 30
0.0
 10
12.00426296657986
 20
-4.0397189670138882
 30
0.0
  0
ENDBLK
  5
AB
100
AcDbEntity
  8
KOERPER
100
AcDbBlockEnd
  0
BLOCK
  5
AE
100
AcDbEntity
  8
KOERPER
 62
     7
100
AcDbBlockBegin
  2
AI9-BLK5
 70
     0
 10
0.0
 20
0.0
 30
0.0
  3
AI9-BLK5
  1

  0
SPLINE
  5
BE
100
AcDbEntity
  8
KOERPER
 62
     7
100
AcDbSpline
210
0.0
220
0.0
230
1.0
 70
     8
 71
     3
 72
     8
 73
     4
 74
     0
 42
0.00000001
 43
0.00000001
 40
0.0
 40
0.0
 40
0.0
 40
0.0
 40
1.0
 40
1.0
 40
1.0
 40
1.0
 10
-12.259286159939235
 20
-2.2686815049913194
 30
0.0
 10
-9.4463656955295132
 20
-2.4147535536024303
 30
0.0
 10
-6.62689954969618
 20
-2.200124104817708
 30
0.0
 10
-3.8680670844184024
 20
-1.6303053114149304
 30
0.0
  0
INSERT
  5
B0
100
AcDbEntity
  8
KOERPER
 62
     7
100
AcDbBlockReference
  2
AI9-BLK6
 10
0.0
 20
0.016536
 30
0.0
  0
ENDBLK
  5
BF
100
AcDbEntity
  8
KOERPER
100
AcDbBlockEnd
  0
BLOCK
  5
B1
100
AcDbEntity
  8
KOERPER
 62
     7
100
AcDbBlockBegin
  2
AI9-BLK6
 70
     0
 10
0.0
 20
0.0
 30
0.0
  3
AI9-BLK6
  1

  0
LINE
  5
BC
100
AcDbEntity
  8
KOERPER
 62
     7
100
AcDbLine
 10
2.543256
 20
-0.106195
 30
0.0
 11
2.504671
 21
-0.067265
 31
0.0
  0
LINE
  5
BB
100
AcDbEntity
  8
KOERPER
 62
     7
100
AcDbLine
 10
2.893277
 20
0.118081
 30
0.0
 11
2.840223
 21
0.170791
 31
0.0
  0
SPLINE
  5
BA
100
AcDbEntity
  8
KOERPER
 62
     7
100
AcDbSpline
210
0.0
220
0.0
230
1.0
 70
     8
 71
     3
 72
     8
 73
     4
 74
     0
 42
0.00000001
 43
0.00000001
 40
0.0
 40
0.0
 40
0.0
 40
0.0
 40
1.0
 40
1.0
 40
1.0
 40
1.0
 10
3.1482143825954858
 20
0.0653706868489583
 30
0.0
 10
-1.7844733344184027
 20
1.776205105251736
 30
0.0
 10
-7.0024149576822907
 20
2.5148335774739583
 30
0.0
 10
-12.215877956814236
 20
2.2409484863281248
 30
0.0
  0
SPLINE
  5
B9
100
AcDbEntity
  8
KOERPER
 62
     7
100
AcDbSpline
210
0.0
220
0.0
230
1.0
 70
     8
 71
     3
 72
     8
 73
     4
 74
     0
 42
0.00000001
 43
0.00000001
 40
0.0
 40
0.0
 40
0.0
 40
0.0
 40
1.0
 40
1.0
 40
1.0
 40
1.0
 10
-4.3579596625434025
 20
-1.7443379720052081
 30
0.0
 10
-1.8313266330295137
 20
-1.2496222601996527
 30
0.0
 10
0.6732577853732639
 20
-0.6456970214843749
 30
0.0
 10
3.1482143825954858
 20
0.0653706868489583
 30
0.0
  0
SPLINE
  5
B8
100
AcDbEntity
  8
KOERPER
 62
     7
100
AcDbSpline
210
0.0
220
0.0
230
1.0
 70
     8
 71
     3
 72
     8
 73
     4
 74
     0
 42
0.00000001
 43
0.00000001
 40
0.0
 40
0.0
 40
0.0
 40
0.0
 40
1.0
 40
1.0
 40
1.0
 40
1.0
 10
3.1482143825954858
 20
0.0653706868489583
 30
0.0
 10
-1.8409729003906248
 20
1.1061340332031249
 30
0.0
 10
-6.9569396972656241
 20
1.404134792751736
 30
0.0
 10
-12.033287896050346
 20
0.9497266981336805
 30
0.0
  0
SPLINE
  5
B7
100
AcDbEntity
  8
KOERPER
 62
     7
100
AcDbSpline
210
0.0
220
0.0
230
1.0
 70
     8
 71
     3
 72
     8
 73
     4
 74
     0
 42
0.00000001
 43
0.00000001
 40
0.0
 40
0.0
 40
0.0
 40
0.0
 40
1.0
 40
1.0
 40
1.0
 40
1.0
 10
-12.033287896050346
 20
-0.9981302897135416
 30
0.0
 10
-6.9479824490017359
 20
-1.3526306152343748
 30
0.0
 10
-1.838216824001736
 20
-0.9946851942274305
 30
0.0
 10
3.1482143825954858
 20
0.0653706868489583
 30
0.0
  0
SPLINE
  5
B6
100
AcDbEntity
  8
KOERPER
 62
     7
100
AcDbSpline
210
0.0
220
0.0
230
1.0
 70
     8
 71
     3
 72
    11
 73
     7
 74
     0
 42
0.00000001
 43
0.00000001
 40
0.0
 40
0.0
 40
0.0
 40
0.0
 40
1.0
 40
1.0
 40
1.0
 40
2.0
 40
2.0
 40
2.0
 40
2.0
 10
-12.033287896050346
 20
0.9497266981336805
 30
0.0
 10
-12.57106730143229
 20
0.9497266981336805
 30
0.0
 10
-13.007216389973957
 20
0.5139221191406249
 30
0.0
 10
-13.007216389973957
 20
-0.0242017957899306
 30
0.0
 10
-13.007216389973957
 20
-0.561981201171875
 30
0.0
 10
-12.57106730143229
 20
-0.9981302897135416
 30
0.0
 10
-12.033287896050346
 20
-0.9981302897135416
 30
0.0
  0
SPLINE
  5
B5
100
AcDbEntity
  8
KOERPER
 62
     7
100
AcDbSpline
210
0.0
220
0.0
230
1.0
 70
     8
 71
     3
 72
    11
 73
     7
 74
     0
 42
0.00000001
 43
0.00000001
 40
0.0
 40
0.0
 40
0.0
 40
0.0
 40
1.0
 40
1.0
 40
1.0
 40
2.0
 40
2.0
 40
2.0
 40
2.0
 10
-12.08117472330729
 20
2.2478386773003471
 30
0.0
 10
-13.335878499348958
 20
2.2213114420572913
 30
0.0
 10
-14.331511094835069
 20
1.1826151529947915
 30
0.0
 10
-14.304983859592012
 20
-0.072088623046875
 30
0.0
 10
-14.278801133897568
 20
-1.3109449598524305
 30
0.0
 10
-13.265254041883679
 20
-2.3003763834635413
 30
0.0
 10
-12.026053195529514
 20
-2.2965867784288192
 30
0.0
  0
SPLINE
  5
B4
100
AcDbEntity
  8
KOERPER
 62
     7
100
AcDbSpline
210
0.0
220
0.0
230
1.0
 70
     8
 71
     3
 72
     8
 73
     4
 74
     0
 42
0.00000001
 43
0.00000001
 40
0.0
 40
0.0
 40
0.0
 40
0.0
 40
1.0
 40
1.0
 40
1.0
 40
1.0
 10
3.1482143825954858
 20
0.0653706868489583
 30
0.0
 10
5.8808641221788189
 20
0.6730855305989583
 30
0.0
 10
8.5935323079427075
 20
1.363482666015625
 30
0.0
 10
11.284151882595484
 20
2.136217583550347
 30
0.0
  0
SPLINE
  5
B3
100
AcDbEntity
  8
KOERPER
 62
     7
100
AcDbSpline
210
0.0
220
0.0
230
1.0
 70
     8
 71
     3
 72
     8
 73
     4
 74
     0
 42
0.00000001
 43
0.00000001
 40
0.0
 40
0.0
 40
0.0
 40
0.0
 40
1.0
 40
1.0
 40
1.0
 40
1.0
 10
13.847302924262152
 20
1.283211941189236
 30
0.0
 10
13.13968031141493
 20
1.9701639811197915
 30
0.0
 10
12.145425754123263
 20
2.275743950737847
 30
0.0
 10
11.173908827039929
 20
2.104522705078125
 30
0.0
  0
SPLINE
  5
B2
100
AcDbEntity
  8
KOERPER
 62
     7
100
AcDbSpline
210
0.0
220
0.0
230
1.0
 70
     8
 71
     3
 72
     8
 73
     4
 74
     0
 42
0.00000001
 43
0.00000001
 40
0.0
 40
0.0
 40
0.0
 40
0.0
 40
1.0
 40
1.0
 40
1.0
 40
1.0
 10
14.261403401692707
 20
-0.0242017957899306
 30
0.0
 10
14.261403401692707
 20
0.4439866807725694
 30
0.0
 10
14.116709391276041
 20
0.9004618326822916
 30
0.0
 10
13.847302924262152
 20
1.283211941189236
 30
0.0
  0
ENDBLK
  5
BD
100
AcDbEntity
  8
KOERPER
100
AcDbBlockEnd
  0
BLOCK
  5
D3
100
AcDbEntity
  8
SCHRAFUR-2
 62
     7
100
AcDbBlockBegin
  2
AI9-BLK7
 70
     0
 10
0.0
 20
0.0
 30
0.0
  3
AI9-BLK7
  1

  0
LINE
  5
DD
100
AcDbEntity
  8
SCHRAFUR-2
 62
     7
100
AcDbLine
 10
-13.179902
 20
-1.238856
 30
0.0
 11
-9.992844
 21
1.947857
 31
0.0
  0
LINE
  5
DC
100
AcDbEntity
  8
SCHRAFUR-2
 62
     7
100
AcDbLine
 10
-11.060135
 20
-1.947857
 30
0.0
 11
-7.164421
 21
1.947857
 31
0.0
  0
LINE
  5
DB
100
AcDbEntity
  8
SCHRAFUR-2
 62
     7
100
AcDbLine
 10
-8.231711
 20
-1.947857
 30
0.0
 11
-4.335997
 21
1.947857
 31
0.0
  0
LINE
  5
DA
100
AcDbEntity
  8
SCHRAFUR-2
 62
     7
100
AcDbLine
 10
-5.403288
 20
-1.947857
 30
0.0
 11
-1.507574
 21
1.947857
 31
0.0
  0
LINE
  5
D9
100
AcDbEntity
  8
SCHRAFUR-2
 62
     7
100
AcDbLine
 10
-2.574864
 20
-1.947857
 30
0.0
 11
1.32085
 21
1.947857
 31
0.0
  0
LINE
  5
D8
100
AcDbEntity
  8
SCHRAFUR-2
 62
     7
100
AcDbLine
 10
0.253559
 20
-1.947857
 30
0.0
 11
4.149273
 21
1.947857
 31
0.0
  0
LINE
  5
D7
100
AcDbEntity
  8
SCHRAFUR-2
 62
     7
100
AcDbLine
 10
3.081982
 20
-1.947857
 30
0.0
 11
6.977696
 21
1.947857
 31
0.0
  0
LINE
  5
D6
100
AcDbEntity
  8
SCHRAFUR-2
 62
     7
100
AcDbLine
 10
5.910406
 20
-1.947857
 30
0.0
 11
9.80612
 21
1.947857
 31
0.0
  0
LINE
  5
D5
100
AcDbEntity
  8
SCHRAFUR-2
 62
     7
100
AcDbLine
 10
8.738829
 20
-1.947857
 30
0.0
 11
12.634543
 21
1.947857
 31
0.0
  0
LINE
  5
D4
100
AcDbEntity
  8
SCHRAFUR-2
 62
     7
100
AcDbLine
 10
11.567253
 20
-1.947857
 30
0.0
 11
13.179902
 21
-0.334863
 31
0.0
  0
ENDBLK
  5
DE
100
AcDbEntity
  8
SCHRAFUR-2
100
AcDbBlockEnd
  0
BLOCK
  5
E1
100
AcDbEntity
  8
SCHRAFUR-2
 62
     7
100
AcDbBlockBegin
  2
AI9-BLK8
 70
     0
 10
0.0
 20
0.0
 30
0.0
  3
AI9-BLK8
  1

  0
LINE
  5
F6
100
AcDbEntity
  8
SCHRAFUR-2
 62
     7
100
AcDbLine
 10
-1.947857
 20
26.357823
 30
0.0
 11
0.910883
 21
29.216563
 31
0.0
  0
LINE
  5
F5
100
AcDbEntity
  8
SCHRAFUR-2
 62
     7
100
AcDbLine
 10
-1.947857
 20
23.529399
 30
0.0
 11
1.947857
 21
27.424769
 31
0.0
  0
LINE
  5
F4
100
AcDbEntity
  8
SCHRAFUR-2
 62
     7
100
AcDbLine
 10
-1.947857
 20
20.700976
 30
0.0
 11
1.947857
 21
24.596345
 31
0.0
  0
LINE
  5
F3
100
AcDbEntity
  8
SCHRAFUR-2
 62
     7
100
AcDbLine
 10
-1.947857
 20
17.872552
 30
0.0
 11
1.947857
 21
21.767922
 31
0.0
  0
LINE
  5
F2
100
AcDbEntity
  8
SCHRAFUR-2
 62
     7
100
AcDbLine
 10
-1.947857
 20
15.044129
 30
0.0
 11
1.947857
 21
18.939499
 31
0.0
  0
LINE
  5
F1
100
AcDbEntity
  8
SCHRAFUR-2
 62
     7
100
AcDbLine
 10
-1.947857
 20
12.215706
 30
0.0
 11
1.947857
 21
16.111075
 31
0.0
  0
LINE
  5
F0
100
AcDbEntity
  8
SCHRAFUR-2
 62
     7
100
AcDbLine
 10
-1.947857
 20
9.387282
 30
0.0
 11
1.947857
 21
13.282307
 31
0.0
  0
LINE
  5
EF
100
AcDbEntity
  8
SCHRAFUR-2
 62
     7
100
AcDbLine
 10
-1.947857
 20
6.558859
 30
0.0
 11
1.947857
 21
10.453884
 31
0.0
  0
LINE
  5
EE
100
AcDbEntity
  8
SCHRAFUR-2
 62
     7
100
AcDbLine
 10
-1.947857
 20
3.730436
 30
0.0
 11
1.947857
 21
7.62546
 31
0.0
  0
LINE
  5
ED
100
AcDbEntity
  8
SCHRAFUR-2
 62
     7
100
AcDbLine
 10
-1.947857
 20
0.902012
 30
0.0
 11
1.947857
 21
4.797037
 31
0.0
  0
LINE
  5
EC
100
AcDbEntity
  8
SCHRAFUR-2
 62
     7
100
AcDbLine
 10
-1.947857
 20
-1.926411
 30
0.0
 11
1.947857
 21
1.968614
 31
0.0
  0
LINE
  5
EB
100
AcDbEntity
  8
SCHRAFUR-2
 62
     7
100
AcDbLine
 10
-1.947857
 20
-4.754835
 30
0.0
 11
1.947857
 21
-0.85981
 31
0.0
  0
LINE
  5
EA
100
AcDbEntity
  8
SCHRAFUR-2
 62
     7
100
AcDbLine
 10
-1.947857
 20
-7.58343
 30
0.0
 11
1.947857
 21
-3.688233
 31
0.0
  0
LINE
  5
E9
100
AcDbEntity
  8
SCHRAFUR-2
 62
     7
100
AcDbLine
 10
-1.947857
 20
-10.411854
 30
0.0
 11
1.947857
 21
-6.516829
 31
0.0
  0
LINE
  5
E8
100
AcDbEntity
  8
SCHRAFUR-2
 62
     7
100
AcDbLine
 10
-1.947857
 20
-13.240277
 30
0.0
 11
1.947857
 21
-9.345252
 31
0.0
  0
LINE
  5
E7
100
AcDbEntity
  8
SCHRAFUR-2
 62
     7
100
AcDbLine
 10
-1.947857
 20
-16.0687
 30
0.0
 11
1.947857
 21
-12.173676
 31
0.0
  0
LINE
  5
E6
100
AcDbEntity
  8
SCHRAFUR-2
 62
     7
100
AcDbLine
 10
-1.947857
 20
-18.897124
 30
0.0
 11
1.947857
 21
-15.002099
 31
0.0
  0
LINE
  5
E5
100
AcDbEntity
  8
SCHRAFUR-2
 62
     7
100
AcDbLine
 10
-1.947857
 20
-21.725547
 30
0.0
 11
1.947857
 21
-17.830522
 31
0.0
  0
LINE
  5
E4
100
AcDbEntity
  8
SCHRAFUR-2
 62
     7
100
AcDbLine
 10
-1.947857
 20
-24.553971
 30
0.0
 11
1.947857
 21
-20.658946
 31
0.0
  0
LINE
  5
E3
100
AcDbEntity
  8
SCHRAFUR-2
 62
     7
100
AcDbLine
 10
-1.947857
 20
-27.382394
 30
0.0
 11
1.947857
 21
-23.487369
 31
0.0
  0
LINE
  5
E2
100
AcDbEntity
  8
SCHRAFUR-2
 62
     7
100
AcDbLine
 10
-0.952913
 20
-29.216563
 30
0.0
 11
1.947857
 21
-26.315793
 31
0.0
  0
ENDBLK
  5
F7
100
AcDbEntity
  8
SCHRAFUR-2
100
AcDbBlockEnd
  0
BLOCK
  5
FA
100
AcDbEntity
  8
SCHRAFUR-2
 62
     7
100
AcDbBlockBegin
  2
AI9-BLK9
 70
     0
 10
0.0
 20
0.0
 30
0.0
  3
AI9-BLK9
  1

  0
LINE
  5
110
100
AcDbEntity
  8
SCHRAFUR-2
 62
     7
100
AcDbLine
 10
-1.817977
 20
27.09025
 30
0.0
 11
0.308336
 21
29.216563
 31
0.0
  0
LINE
  5
10F
100
AcDbEntity
  8
SCHRAFUR-2
 62
     7
100
AcDbLine
 10
-1.817977
 20
24.261827
 30
0.0
 11
1.817977
 21
27.89778
 31
0.0
  0
LINE
  5
10E
100
AcDbEntity
  8
SCHRAFUR-2
 62
     7
100
AcDbLine
 10
-1.817977
 20
21.433403
 30
0.0
 11
1.817977
 21
25.069357
 31
0.0
  0
LINE
  5
10D
100
AcDbEntity
  8
SCHRAFUR-2
 62
     7
100
AcDbLine
 10
-1.817977
 20
18.60498
 30
0.0
 11
1.817977
 21
22.240934
 31
0.0
  0
LINE
  5
10C
100
AcDbEntity
  8
SCHRAFUR-2
 62
     7
100
AcDbLine
 10
-1.817977
 20
15.776556
 30
0.0
 11
1.817977
 21
19.41251
 31
0.0
  0
LINE
  5
10B
100
AcDbEntity
  8
SCHRAFUR-2
 62
     7
100
AcDbLine
 10
-1.817977
 20
12.948133
 30
0.0
 11
1.817977
 21
16.584087
 31
0.0
  0
LINE
  5
10A
100
AcDbEntity
  8
SCHRAFUR-2
 62
     7
100
AcDbLine
 10
-1.817977
 20
10.11971
 30
0.0
 11
1.817977
 21
13.755663
 31
0.0
  0
LINE
  5
109
100
AcDbEntity
  8
SCHRAFUR-2
 62
     7
100
AcDbLine
 10
-1.817977
 20
7.291286
 30
0.0
 11
1.817977
 21
10.92724
 31
0.0
  0
LINE
  5
108
100
AcDbEntity
  8
SCHRAFUR-2
 62
     7
100
AcDbLine
 10
-1.817977
 20
4.462863
 30
0.0
 11
1.817977
 21
8.098817
 31
0.0
  0
LINE
  5
107
100
AcDbEntity
  8
SCHRAFUR-2
 62
     7
100
AcDbLine
 10
-1.817977
 20
1.634439
 30
0.0
 11
1.817977
 21
5.270393
 31
0.0
  0
LINE
  5
106
100
AcDbEntity
  8
SCHRAFUR-2
 62
     7
100
AcDbLine
 10
-1.817977
 20
-1.193984
 30
0.0
 11
1.817977
 21
2.44197
 31
0.0
  0
LINE
  5
105
100
AcDbEntity
  8
SCHRAFUR-2
 62
     7
100
AcDbLine
 10
-1.817977
 20
-4.022407
 30
0.0
 11
1.817977
 21
-0.386454
 31
0.0
  0
LINE
  5
104
100
AcDbEntity
  8
SCHRAFUR-2
 62
     7
100
AcDbLine
 10
-1.817977
 20
-6.851003
 30
0.0
 11
1.817977
 21
-3.214877
 31
0.0
  0
LINE
  5
103
100
AcDbEntity
  8
SCHRAFUR-2
 62
     7
100
AcDbLine
 10
-1.817977
 20
-9.679426
 30
0.0
 11
1.817977
 21
-6.0433
 31
0.0
  0
LINE
  5
102
100
AcDbEntity
  8
SCHRAFUR-2
 62
     7
100
AcDbLine
 10
-1.817977
 20
-12.50785
 30
0.0
 11
1.817977
 21
-8.871896
 31
0.0
  0
LINE
  5
101
100
AcDbEntity
  8
SCHRAFUR-2
 62
     7
100
AcDbLine
 10
-1.817977
 20
-15.336273
 30
0.0
 11
1.817977
 21
-11.700319
 31
0.0
  0
LINE
  5
100
100
AcDbEntity
  8
SCHRAFUR-2
 62
     7
100
AcDbLine
 10
-1.817977
 20
-18.164697
 30
0.0
 11
1.817977
 21
-14.528743
 31
0.0
  0
LINE
  5
FF
100
AcDbEntity
  8
SCHRAFUR-2
 62
     7
100
AcDbLine
 10
-1.817977
 20
-20.99312
 30
0.0
 11
1.817977
 21
-17.357166
 31
0.0
  0
LINE
  5
FE
100
AcDbEntity
  8
SCHRAFUR-2
 62
     7
100
AcDbLine
 10
-1.817977
 20
-23.821543
 30
0.0
 11
1.817977
 21
-20.18559
 31
0.0
  0
LINE
  5
FD
100
AcDbEntity
  8
SCHRAFUR-2
 62
     7
100
AcDbLine
 10
-1.817977
 20
-26.649967
 30
0.0
 11
1.817977
 21
-23.014013
 31
0.0
  0
LINE
  5
FC
100
AcDbEntity
  8
SCHRAFUR-2
 62
     7
100
AcDbLine
 10
-1.555805
 20
-29.216563
 30
0.0
 11
1.817977
 21
-25.842436
 31
0.0
  0
LINE
  5
FB
100
AcDbEntity
  8
SCHRAFUR-2
 62
     7
100
AcDbLine
 10
1.272618
 20
-29.216563
 30
0.0
 11
1.817977
 21
-28.67086
 31
0.0
  0
ENDBLK
  5
111
100
AcDbEntity
  8
SCHRAFUR-2
100
AcDbBlockEnd
  0
BLOCK
  5
114
100
AcDbEntity
  8
SCHRAFUR-2
 62
     7
100
AcDbBlockBegin
  2
AI9-BLK10
 70
     0
 10
0.0
 20
0.0
 30
0.0
  3
AI9-BLK10
  1

  0
LINE
  5
11F
100
AcDbEntity
  8
SCHRAFUR-2
 62
     7
100
AcDbLine
 10
-13.309782
 20
0.953602
 30
0.0
 11
-12.314838
 21
1.947857
 31
0.0
  0
LINE
  5
11E
100
AcDbEntity
  8
SCHRAFUR-2
 62
     7
100
AcDbLine
 10
-13.309782
 20
-1.874821
 30
0.0
 11
-9.486415
 21
1.947857
 31
0.0
  0
LINE
  5
11D
100
AcDbEntity
  8
SCHRAFUR-2
 62
     7
100
AcDbLine
 10
-10.553706
 20
-1.947857
 30
0.0
 11
-6.657992
 21
1.947857
 31
0.0
  0
LINE
  5
11C
100
AcDbEntity
  8
SCHRAFUR-2
 62
     7
100
AcDbLine
 10
-7.725282
 20
-1.947857
 30
0.0
 11
-3.829568
 21
1.947857
 31
0.0
  0
LINE
  5
11B
100
AcDbEntity
  8
SCHRAFUR-2
 62
     7
100
AcDbLine
 10
-4.896859
 20
-1.947857
 30
0.0
 11
-1.001145
 21
1.947857
 31
0.0
  0
LINE
  5
11A
100
AcDbEntity
  8
SCHRAFUR-2
 62
     7
100
AcDbLine
 10
-2.067746
 20
-1.947857
 30
0.0
 11
1.827279
 21
1.947857
 31
0.0
  0
LINE
  5
119
100
AcDbEntity
  8
SCHRAFUR-2
 62
     7
100
AcDbLine
 10
0.760677
 20
-1.947857
 30
0.0
 11
4.655702
 21
1.947857
 31
0.0
  0
LINE
  5
118
100
AcDbEntity
  8
SCHRAFUR-2
 62
     7
100
AcDbLine
 10
3.5891
 20
-1.947857
 30
0.0
 11
7.484125
 21
1.947857
 31
0.0
  0
LINE
  5
117
100
AcDbEntity
  8
SCHRAFUR-2
 62
     7
100
AcDbLine
 10
6.417524
 20
-1.947857
 30
0.0
 11
10.312549
 21
1.947857
 31
0.0
  0
LINE
  5
116
100
AcDbEntity
  8
SCHRAFUR-2
 62
     7
100
AcDbLine
 10
9.245947
 20
-1.947857
 30
0.0
 11
13.140972
 21
1.947857
 31
0.0
  0
LINE
  5
115
100
AcDbEntity
  8
SCHRAFUR-2
 62
     7
100
AcDbLine
 10
12.074371
 20
-1.947857
 30
0.0
 11
13.309782
 21
-0.711757
 31
0.0
  0
ENDBLK
  5
120
100
AcDbEntity
  8
SCHRAFUR-2
100
AcDbBlockEnd
  0
BLOCK
  5
12A
100
AcDbEntity
  8
SCHRAFFUR-3
  6
AI9-LType4
 62
     7
100
AcDbBlockBegin
  2
AI9-BLK11
 70
     0
 10
0.0
 20
0.0
 30
0.0
  3
AI9-BLK11
  1

  0
LINE
  5
166
100
AcDbEntity
  8
SCHRAFFUR-3
 62
     7
100
AcDbLine
 10
0.459231
 20
-1.156519
 30
0.0
 11
1.512741
 21
-2.210029
 31
0.0
  0
LINE
  5
165
100
AcDbEntity
  8
SCHRAFFUR-3
 62
     7
100
AcDbLine
 10
-0.132636
 20
-1.139293
 30
0.0
 11
0.889179
 21
-2.161108
 31
0.0
  0
LINE
  5
164
100
AcDbEntity
  8
SCHRAFFUR-3
 62
     7
100
AcDbLine
 10
0.694187
 20
2.051554
 30
0.0
 11
1.638143
 21
1.106909
 31
0.0
  0
LINE
  5
163
100
AcDbEntity
  8
SCHRAFFUR-3
 62
     7
100
AcDbLine
 10
-5.521455
 20
0.806497
 30
0.0
 11
-5.270652
 21
0.556383
 31
0.0
  0
LINE
  5
162
100
AcDbEntity
  8
SCHRAFFUR-3
 62
     7
100
AcDbLine
 10
0.188447
 20
1.983341
 30
0.0
 11
1.076592
 21
1.095196
 31
0.0
  0
LINE
  5
161
100
AcDbEntity
  8
SCHRAFFUR-3
 62
     7
100
AcDbLine
 10
-7.347355
 20
0.336586
 30
0.0
 11
-7.24538
 21
0.2353
 31
0.0
  0
LINE
  5
160
100
AcDbEntity
  8
SCHRAFFUR-3
 62
     7
100
AcDbLine
 10
-4.596102
 20
1.02905
 30
0.0
 11
-4.259172
 21
0.69212
 31
0.0
  0
LINE
  5
15F
100
AcDbEntity
  8
SCHRAFFUR-3
 62
     7
100
AcDbLine
 10
-5.059812
 20
0.918807
 30
0.0
 11
-4.766979
 21
0.625974
 31
0.0
  0
LINE
  5
15E
100
AcDbEntity
  8
SCHRAFFUR-3
 62
     7
100
AcDbLine
 10
-6.43785
 20
0.575675
 30
0.0
 11
-6.266284
 21
0.403421
 31
0.0
  0
LINE
  5
15D
100
AcDbEntity
  8
SCHRAFFUR-3
 62
     7
100
AcDbLine
 10
-5.98103
 20
0.69212
 30
0.0
 11
-5.770879
 21
0.481969
 31
0.0
  0
LINE
  5
15C
100
AcDbEntity
  8
SCHRAFFUR-3
 62
     7
100
AcDbLine
 10
-7.18268
 20
-0.401354
 30
0.0
 11
-6.871932
 21
-0.712101
 31
0.0
  0
LINE
  5
15B
100
AcDbEntity
  8
SCHRAFFUR-3
 62
     7
100
AcDbLine
 10
-6.893292
 20
0.457164
 30
0.0
 11
-6.757555
 21
0.321427
 31
0.0
  0
LINE
  5
15A
100
AcDbEntity
  8
SCHRAFFUR-3
 62
     7
100
AcDbLine
 10
-7.798663
 20
0.21394
 30
0.0
 11
-7.729072
 21
0.145039
 31
0.0
  0
LINE
  5
159
100
AcDbEntity
  8
SCHRAFFUR-3
 62
     7
100
AcDbLine
 10
-6.492971
 20
-0.517109
 30
0.0
 11
-6.076115
 21
-0.933965
 31
0.0
  0
LINE
  5
158
100
AcDbEntity
  8
SCHRAFFUR-3
 62
     7
100
AcDbLine
 10
-8.247903
 20
0.089917
 30
0.0
 11
-8.209318
 21
0.051332
 31
0.0
  0
LINE
  5
157
100
AcDbEntity
  8
SCHRAFFUR-3
 62
     7
100
AcDbLine
 10
4.420402
 20
-1.101397
 30
0.0
 11
5.613783
 21
-2.294089
 31
0.0
  0
LINE
  5
156
100
AcDbEntity
  8
SCHRAFFUR-3
 62
     7
100
AcDbLine
 10
-7.884101
 20
-0.273885
 30
0.0
 11
-7.693932
 21
-0.464054
 31
0.0
  0
LINE
  5
155
100
AcDbEntity
  8
SCHRAFFUR-3
 62
     7
100
AcDbLine
 10
-5.147317
 20
-0.714857
 30
0.0
 11
-4.551316
 21
-1.311548
 31
0.0
  0
LINE
  5
154
100
AcDbEntity
  8
SCHRAFFUR-3
 62
     7
100
AcDbLine
 10
-8.597925
 20
-0.134014
 30
0.0
 11
-8.54487
 21
-0.187069
 31
0.0
  0
LINE
  5
153
100
AcDbEntity
  8
SCHRAFFUR-3
 62
     7
100
AcDbLine
 10
-2.245169
 20
1.547192
 30
0.0
 11
-1.652612
 21
0.954636
 31
0.0
  0
LINE
  5
152
100
AcDbEntity
  8
SCHRAFFUR-3
 62
     7
100
AcDbLine
 10
-0.731394
 20
-1.114488
 30
0.0
 11
0.255282
 21
-2.100475
 31
0.0
  0
LINE
  5
151
100
AcDbEntity
  8
SCHRAFFUR-3
 62
     7
100
AcDbLine
 10
-5.814977
 20
-0.621151
 30
0.0
 11
-5.303035
 21
-1.133092
 31
0.0
  0
LINE
  5
150
100
AcDbEntity
  8
SCHRAFFUR-3
 62
     7
100
AcDbLine
 10
-2.719214
 20
1.447974
 30
0.0
 11
-2.183157
 21
0.911228
 31
0.0
  0
LINE
  5
14F
100
AcDbEntity
  8
SCHRAFFUR-3
 62
     7
100
AcDbLine
 10
-3.661792
 20
1.242646
 30
0.0
 11
-3.230466
 21
0.810631
 31
0.0
  0
LINE
  5
14E
100
AcDbEntity
  8
SCHRAFFUR-3
 62
     7
100
AcDbLine
 10
-3.191881
 20
1.346688
 30
0.0
 11
-2.708879
 21
0.863685
 31
0.0
  0
LINE
  5
14D
100
AcDbEntity
  8
SCHRAFFUR-3
 62
     7
100
AcDbLine
 10
1.727026
 20
2.165932
 30
0.0
 11
2.779159
 21
1.113799
 31
0.0
  0
LINE
  5
14C
100
AcDbEntity
  8
SCHRAFFUR-3
 62
     7
100
AcDbLine
 10
-4.130325
 20
1.136537
 30
0.0
 11
-3.74723
 21
0.753442
 31
0.0
  0
LINE
  5
14B
100
AcDbEntity
  8
SCHRAFFUR-3
 62
     7
100
AcDbLine
 10
-1.28881
 20
1.73874
 30
0.0
 11
-0.576364
 21
1.026294
 31
0.0
  0
LINE
  5
14A
100
AcDbEntity
  8
SCHRAFFUR-3
 62
     7
100
AcDbLine
 10
-0.803052
 20
1.826934
 30
0.0
 11
-0.030661
 21
1.054544
 31
0.0
  0
LINE
  5
149
100
AcDbEntity
  8
SCHRAFFUR-3
 62
     7
100
AcDbLine
 10
-0.311092
 20
1.908238
 30
0.0
 11
0.519865
 21
1.077281
 31
0.0
  0
LINE
  5
148
100
AcDbEntity
  8
SCHRAFFUR-3
 62
     7
100
AcDbLine
 10
-1.775947
 20
1.642966
 30
0.0
 11
-1.125513
 21
0.992532
 31
0.0
  0
LINE
  5
147
100
AcDbEntity
  8
SCHRAFFUR-3
 62
     7
100
AcDbLine
 10
-1.337731
 20
-1.082104
 30
0.0
 11
-0.390329
 21
-2.028817
 31
0.0
  0
LINE
  5
146
100
AcDbEntity
  8
SCHRAFFUR-3
 62
     7
100
AcDbLine
 10
-1.950958
 20
-1.042141
 30
0.0
 11
-1.047654
 21
-1.945445
 31
0.0
  0
LINE
  5
145
100
AcDbEntity
  8
SCHRAFFUR-3
 62
     7
100
AcDbLine
 10
-2.573142
 20
-0.99391
 30
0.0
 11
-1.718758
 21
-1.848294
 31
0.0
  0
LINE
  5
144
100
AcDbEntity
  8
SCHRAFFUR-3
 62
     7
100
AcDbLine
 10
-3.202905
 20
-0.9381
 30
0.0
 11
-2.402954
 21
-1.738051
 31
0.0
  0
LINE
  5
143
100
AcDbEntity
  8
SCHRAFFUR-3
 62
     7
100
AcDbLine
 10
-3.842315
 20
-0.872643
 30
0.0
 11
-3.102308
 21
-1.612649
 31
0.0
  0
LINE
  5
142
100
AcDbEntity
  8
SCHRAFFUR-3
 62
     7
100
AcDbLine
 10
-4.489993
 20
-0.798918
 30
0.0
 11
-3.818199
 21
-1.470711
 31
0.0
  0
LINE
  5
141
100
AcDbEntity
  8
SCHRAFFUR-3
 62
     7
100
AcDbLine
 10
5.023294
 20
2.312693
 30
0.0
 11
6.355168
 21
0.981508
 31
0.0
  0
LINE
  5
140
100
AcDbEntity
  8
SCHRAFFUR-3
 62
     7
100
AcDbLine
 10
5.605515
 20
2.304424
 30
0.0
 11
8.516621
 21
-0.606681
 31
0.0
  0
LINE
  5
13F
100
AcDbEntity
  8
SCHRAFFUR-3
 62
     7
100
AcDbLine
 10
5.500784
 20
-1.033873
 30
0.0
 11
6.701055
 21
-2.233455
 31
0.0
  0
LINE
  5
13E
100
AcDbEntity
  8
SCHRAFFUR-3
 62
     7
100
AcDbLine
 10
6.032707
 20
-0.991843
 30
0.0
 11
7.151674
 21
-2.110121
 31
0.0
  0
LINE
  5
13D
100
AcDbEntity
  8
SCHRAFFUR-3
 62
     7
100
AcDbLine
 10
1.043519
 20
-1.167543
 30
0.0
 11
2.125279
 21
-2.249303
 31
0.0
  0
LINE
  5
13C
100
AcDbEntity
  8
SCHRAFFUR-3
 62
     7
100
AcDbLine
 10
1.621606
 20
-1.171677
 30
0.0
 11
2.72886
 21
-2.278931
 31
0.0
  0
LINE
  5
13B
100
AcDbEntity
  8
SCHRAFFUR-3
 62
     7
100
AcDbLine
 10
2.193492
 20
-1.16961
 30
0.0
 11
3.322795
 21
-2.298912
 31
0.0
  0
LINE
  5
13A
100
AcDbEntity
  8
SCHRAFFUR-3
 62
     7
100
AcDbLine
 10
2.759177
 20
-1.161342
 30
0.0
 11
3.907772
 21
-2.309937
 31
0.0
  0
LINE
  5
139
100
AcDbEntity
  8
SCHRAFFUR-3
 62
     7
100
AcDbLine
 10
3.31866
 20
-1.147561
 30
0.0
 11
4.484481
 21
-2.312693
 31
0.0
  0
LINE
  5
138
100
AcDbEntity
  8
SCHRAFFUR-3
 62
     7
100
AcDbLine
 10
3.872632
 20
-1.126891
 30
0.0
 11
5.052922
 21
-2.30718
 31
0.0
  0
LINE
  5
137
100
AcDbEntity
  8
SCHRAFFUR-3
 62
     7
100
AcDbLine
 10
2.255504
 20
2.211407
 30
0.0
 11
3.359313
 21
1.107598
 31
0.0
  0
LINE
  5
136
100
AcDbEntity
  8
SCHRAFFUR-3
 62
     7
100
AcDbLine
 10
1.206817
 20
2.112188
 30
0.0
 11
2.205895
 21
1.11311
 31
0.0
  0
LINE
  5
135
100
AcDbEntity
  8
SCHRAFFUR-3
 62
     7
100
AcDbLine
 10
2.791561
 20
2.249303
 30
0.0
 11
3.944979
 21
1.095885
 31
0.0
  0
LINE
  5
134
100
AcDbEntity
  8
SCHRAFFUR-3
 62
     7
100
AcDbLine
 10
4.451408
 20
2.310626
 30
0.0
 11
5.743319
 21
1.019404
 31
0.0
  0
LINE
  5
133
100
AcDbEntity
  8
SCHRAFFUR-3
 62
     7
100
AcDbLine
 10
3.335886
 20
2.278931
 30
0.0
 11
4.537535
 21
1.077281
 31
0.0
  0
LINE
  5
132
100
AcDbEntity
  8
SCHRAFFUR-3
 62
     7
100
AcDbLine
 10
6.554294
 20
-0.939478
 30
0.0
 11
7.53339
 21
-1.918574
 31
0.0
  0
LINE
  5
131
100
AcDbEntity
  8
SCHRAFFUR-3
 62
     7
100
AcDbLine
 10
4.963349
 20
-1.070391
 30
0.0
 11
6.167065
 21
-2.273419
 31
0.0
  0
LINE
  5
130
100
AcDbEntity
  8
SCHRAFFUR-3
 62
     7
100
AcDbLine
 10
3.889168
 20
2.299601
 30
0.0
 11
5.136982
 21
1.051788
 31
0.0
  0
LINE
  5
12F
100
AcDbEntity
  8
SCHRAFFUR-3
 62
     7
100
AcDbLine
 10
7.302569
 20
0.034106
 30
0.0
 11
8.356079
 21
-1.019404
 31
0.0
  0
LINE
  5
12E
100
AcDbEntity
  8
SCHRAFFUR-3
 62
     7
100
AcDbLine
 10
6.19876
 20
2.285132
 30
0.0
 11
8.597925
 21
-0.114033
 31
0.0
  0
LINE
  5
12D
100
AcDbEntity
  8
SCHRAFFUR-3
 62
     7
100
AcDbLine
 10
6.834725
 20
2.22312
 30
0.0
 11
8.544181
 21
0.513664
 31
0.0
  0
LINE
  5
12C
100
AcDbEntity
  8
SCHRAFFUR-3
 62
     7
100
AcDbLine
 10
7.19646
 20
-0.434427
 30
0.0
 11
8.134215
 21
-1.372182
 31
0.0
  0
LINE
  5
12B
100
AcDbEntity
  8
SCHRAFFUR-3
 62
     7
100
AcDbLine
 10
6.939456
 20
-0.750686
 30
0.0
 11
7.859985
 21
-1.671216
 31
0.0
  0
ENDBLK
  5
167
100
AcDbEntity
  8
SCHRAFFUR-3
100
AcDbBlockEnd
  0
BLOCK
  5
16A
100
AcDbEntity
  8
SCHRAFFUR-3
 62
     7
100
AcDbBlockBegin
  2
AI9-BLK12
 70
     0
 10
0.0
 20
0.0
 30
0.0
  3
AI9-BLK12
  1

  0
LINE
  5
1A4
100
AcDbEntity
  8
SCHRAFFUR-3
 62
     7
100
AcDbLine
 10
5.504746
 20
0.714857
 30
0.0
 11
4.908055
 21
1.311548
 31
0.0
  0
LINE
  5
1A3
100
AcDbEntity
  8
SCHRAFFUR-3
 62
     7
100
AcDbLine
 10
2.308386
 20
1.042141
 30
0.0
 11
1.405082
 21
1.945445
 31
0.0
  0
LINE
  5
1A2
100
AcDbEntity
  8
SCHRAFFUR-3
 62
     7
100
AcDbLine
 10
2.132686
 20
-1.642966
 30
0.0
 11
1.482252
 21
-0.992532
 31
0.0
  0
LINE
  5
1A1
100
AcDbEntity
  8
SCHRAFFUR-3
 62
     7
100
AcDbLine
 10
-2.434821
 20
-2.249303
 30
0.0
 11
-3.588239
 21
-1.095885
 31
0.0
  0
LINE
  5
1A0
100
AcDbEntity
  8
SCHRAFFUR-3
 62
     7
100
AcDbLine
 10
-2.979146
 20
-2.278931
 30
0.0
 11
-4.180796
 21
-1.077281
 31
0.0
  0
LINE
  5
19F
100
AcDbEntity
  8
SCHRAFFUR-3
 62
     7
100
AcDbLine
 10
-2.402437
 20
1.161686
 30
0.0
 11
-3.551032
 21
2.309937
 31
0.0
  0
LINE
  5
19E
100
AcDbEntity
  8
SCHRAFFUR-3
 62
     7
100
AcDbLine
 10
-2.961921
 20
1.147217
 30
0.0
 11
-4.127741
 21
2.312693
 31
0.0
  0
LINE
  5
19D
100
AcDbEntity
  8
SCHRAFFUR-3
 62
     7
100
AcDbLine
 10
-3.532429
 20
-2.299601
 30
0.0
 11
-4.780242
 21
-1.051788
 31
0.0
  0
LINE
  5
19C
100
AcDbEntity
  8
SCHRAFFUR-3
 62
     7
100
AcDbLine
 10
-4.094668
 20
-2.31097
 30
0.0
 11
-5.38589
 21
-1.019404
 31
0.0
  0
LINE
  5
19B
100
AcDbEntity
  8
SCHRAFFUR-3
 62
     7
100
AcDbLine
 10
-4.666554
 20
-2.312693
 30
0.0
 11
-5.998083
 21
-0.981508
 31
0.0
  0
LINE
  5
19A
100
AcDbEntity
  8
SCHRAFFUR-3
 62
     7
100
AcDbLine
 10
-5.248775
 20
-2.304424
 30
0.0
 11
-8.159536
 21
0.606337
 31
0.0
  0
LINE
  5
199
100
AcDbEntity
  8
SCHRAFFUR-3
 62
     7
100
AcDbLine
 10
-5.841676
 20
-2.285476
 30
0.0
 11
-8.240841
 21
0.114033
 31
0.0
  0
LINE
  5
198
100
AcDbEntity
  8
SCHRAFFUR-3
 62
     7
100
AcDbLine
 10
-6.477641
 20
-2.22312
 30
0.0
 11
-8.187097
 21
-0.513664
 31
0.0
  0
LINE
  5
197
100
AcDbEntity
  8
SCHRAFFUR-3
 62
     7
100
AcDbLine
 10
-3.515892
 20
1.127235
 30
0.0
 11
-4.696182
 21
2.307525
 31
0.0
  0
LINE
  5
196
100
AcDbEntity
  8
SCHRAFFUR-3
 62
     7
100
AcDbLine
 10
-4.063662
 20
1.101397
 30
0.0
 11
-5.256699
 21
2.294434
 31
0.0
  0
LINE
  5
195
100
AcDbEntity
  8
SCHRAFFUR-3
 62
     7
100
AcDbLine
 10
-4.606609
 20
1.070047
 30
0.0
 11
-5.809981
 21
2.273763
 31
0.0
  0
LINE
  5
194
100
AcDbEntity
  8
SCHRAFFUR-3
 62
     7
100
AcDbLine
 10
-5.143355
 20
1.033529
 30
0.0
 11
-6.343971
 21
2.2338
 31
0.0
  0
LINE
  5
193
100
AcDbEntity
  8
SCHRAFFUR-3
 62
     7
100
AcDbLine
 10
-5.675623
 20
0.991843
 30
0.0
 11
-6.794245
 21
2.110465
 31
0.0
  0
LINE
  5
192
100
AcDbEntity
  8
SCHRAFFUR-3
 62
     7
100
AcDbLine
 10
-6.19721
 20
0.939478
 30
0.0
 11
-7.176651
 21
1.918918
 31
0.0
  0
LINE
  5
191
100
AcDbEntity
  8
SCHRAFFUR-3
 62
     7
100
AcDbLine
 10
-6.582372
 20
0.751031
 30
0.0
 11
-7.502901
 21
1.671216
 31
0.0
  0
LINE
  5
190
100
AcDbEntity
  8
SCHRAFFUR-3
 62
     7
100
AcDbLine
 10
-6.83972
 20
0.434082
 30
0.0
 11
-7.777475
 21
1.371837
 31
0.0
  0
LINE
  5
18F
100
AcDbEntity
  8
SCHRAFFUR-3
 62
     7
100
AcDbLine
 10
-6.945485
 20
-0.033762
 30
0.0
 11
-7.99865
 21
1.019404
 31
0.0
  0
LINE
  5
18E
100
AcDbEntity
  8
SCHRAFFUR-3
 62
     7
100
AcDbLine
 10
1.64555
 20
-1.73874
 30
0.0
 11
0.933104
 21
-1.026294
 31
0.0
  0
LINE
  5
18D
100
AcDbEntity
  8
SCHRAFFUR-3
 62
     7
100
AcDbLine
 10
1.159791
 20
-1.826934
 30
0.0
 11
0.387401
 21
-1.054544
 31
0.0
  0
LINE
  5
18C
100
AcDbEntity
  8
SCHRAFFUR-3
 62
     7
100
AcDbLine
 10
0.667832
 20
-1.908583
 30
0.0
 11
-0.163125
 21
-1.077626
 31
0.0
  0
LINE
  5
18B
100
AcDbEntity
  8
SCHRAFFUR-3
 62
     7
100
AcDbLine
 10
0.168982
 20
-1.983341
 30
0.0
 11
-0.719164
 21
-1.095196
 31
0.0
  0
LINE
  5
18A
100
AcDbEntity
  8
SCHRAFFUR-3
 62
     7
100
AcDbLine
 10
-0.336758
 20
-2.051554
 30
0.0
 11
-1.281403
 21
-1.107254
 31
0.0
  0
LINE
  5
189
100
AcDbEntity
  8
SCHRAFFUR-3
 62
     7
100
AcDbLine
 10
-0.850077
 20
-2.112533
 30
0.0
 11
-1.849155
 21
-1.113455
 31
0.0
  0
LINE
  5
188
100
AcDbEntity
  8
SCHRAFFUR-3
 62
     7
100
AcDbLine
 10
-1.370287
 20
-2.165932
 30
0.0
 11
-2.422419
 21
-1.113799
 31
0.0
  0
LINE
  5
187
100
AcDbEntity
  8
SCHRAFFUR-3
 62
     7
100
AcDbLine
 10
-1.898764
 20
-2.211751
 30
0.0
 11
-3.001884
 21
-1.107943
 31
0.0
  0
LINE
  5
186
100
AcDbEntity
  8
SCHRAFFUR-3
 62
     7
100
AcDbLine
 10
-0.101803
 20
1.156863
 30
0.0
 11
-1.155313
 21
2.210373
 31
0.0
  0
LINE
  5
185
100
AcDbEntity
  8
SCHRAFFUR-3
 62
     7
100
AcDbLine
 10
0.489376
 20
1.138949
 30
0.0
 11
-0.53244
 21
2.161108
 31
0.0
  0
LINE
  5
184
100
AcDbEntity
  8
SCHRAFFUR-3
 62
     7
100
AcDbLine
 10
1.088133
 20
1.114144
 30
0.0
 11
0.101458
 21
2.100819
 31
0.0
  0
LINE
  5
183
100
AcDbEntity
  8
SCHRAFFUR-3
 62
     7
100
AcDbLine
 10
1.69447
 20
1.08176
 30
0.0
 11
0.747069
 21
2.029161
 31
0.0
  0
LINE
  5
182
100
AcDbEntity
  8
SCHRAFFUR-3
 62
     7
100
AcDbLine
 10
-0.68678
 20
1.167543
 30
0.0
 11
-1.76854
 21
2.249303
 31
0.0
  0
LINE
  5
181
100
AcDbEntity
  8
SCHRAFFUR-3
 62
     7
100
AcDbLine
 10
-1.264867
 20
1.172021
 30
0.0
 11
-2.37212
 21
2.278586
 31
0.0
  0
LINE
  5
180
100
AcDbEntity
  8
SCHRAFFUR-3
 62
     7
100
AcDbLine
 10
-1.836753
 20
1.169954
 30
0.0
 11
-2.966055
 21
2.298912
 31
0.0
  0
LINE
  5
17F
100
AcDbEntity
  8
SCHRAFFUR-3
 62
     7
100
AcDbLine
 10
7.25072
 20
-0.457164
 30
0.0
 11
7.114294
 21
-0.321427
 31
0.0
  0
LINE
  5
17E
100
AcDbEntity
  8
SCHRAFFUR-3
 62
     7
100
AcDbLine
 10
7.539419
 20
0.401354
 30
0.0
 11
7.229361
 21
0.712101
 31
0.0
  0
LINE
  5
17D
100
AcDbEntity
  8
SCHRAFFUR-3
 62
     7
100
AcDbLine
 10
2.601908
 20
-1.547192
 30
0.0
 11
2.009352
 21
-0.954636
 31
0.0
  0
LINE
  5
17C
100
AcDbEntity
  8
SCHRAFFUR-3
 62
     7
100
AcDbLine
 10
3.076643
 20
-1.447974
 30
0.0
 11
2.539897
 21
-0.911572
 31
0.0
  0
LINE
  5
17B
100
AcDbEntity
  8
SCHRAFFUR-3
 62
     7
100
AcDbLine
 10
3.548621
 20
-1.346343
 30
0.0
 11
3.065618
 21
-0.863685
 31
0.0
  0
LINE
  5
17A
100
AcDbEntity
  8
SCHRAFFUR-3
 62
     7
100
AcDbLine
 10
4.019221
 20
-1.242646
 30
0.0
 11
3.587206
 21
-0.810975
 31
0.0
  0
LINE
  5
179
100
AcDbEntity
  8
SCHRAFFUR-3
 62
     7
100
AcDbLine
 10
4.487065
 20
-1.136882
 30
0.0
 11
4.10397
 21
-0.753787
 31
0.0
  0
LINE
  5
178
100
AcDbEntity
  8
SCHRAFFUR-3
 62
     7
100
AcDbLine
 10
4.952842
 20
-1.028706
 30
0.0
 11
4.615911
 21
-0.69212
 31
0.0
  0
LINE
  5
177
100
AcDbEntity
  8
SCHRAFFUR-3
 62
     7
100
AcDbLine
 10
5.416551
 20
-0.918807
 30
0.0
 11
5.124407
 21
-0.626318
 31
0.0
  0
LINE
  5
176
100
AcDbEntity
  8
SCHRAFFUR-3
 62
     7
100
AcDbLine
 10
5.878194
 20
-0.806497
 30
0.0
 11
5.62808
 21
-0.556038
 31
0.0
  0
LINE
  5
175
100
AcDbEntity
  8
SCHRAFFUR-3
 62
     7
100
AcDbLine
 10
6.33777
 20
-0.69212
 30
0.0
 11
6.127619
 21
-0.481969
 31
0.0
  0
LINE
  5
174
100
AcDbEntity
  8
SCHRAFFUR-3
 62
     7
100
AcDbLine
 10
6.795279
 20
-0.575675
 30
0.0
 11
6.623024
 21
-0.403421
 31
0.0
  0
LINE
  5
173
100
AcDbEntity
  8
SCHRAFFUR-3
 62
     7
100
AcDbLine
 10
6.8504
 20
0.517109
 30
0.0
 11
6.432855
 21
0.93431
 31
0.0
  0
LINE
  5
172
100
AcDbEntity
  8
SCHRAFFUR-3
 62
     7
100
AcDbLine
 10
2.929881
 20
0.99391
 30
0.0
 11
2.075498
 21
1.848638
 31
0.0
  0
LINE
  5
171
100
AcDbEntity
  8
SCHRAFFUR-3
 62
     7
100
AcDbLine
 10
3.560334
 20
0.937755
 30
0.0
 11
2.759694
 21
1.737706
 31
0.0
  0
LINE
  5
170
100
AcDbEntity
  8
SCHRAFFUR-3
 62
     7
100
AcDbLine
 10
4.199055
 20
0.872643
 30
0.0
 11
3.459737
 21
1.612305
 31
0.0
  0
LINE
  5
16F
100
AcDbEntity
  8
SCHRAFFUR-3
 62
     7
100
AcDbLine
 10
4.846733
 20
0.798573
 30
0.0
 11
4.174939
 21
1.470711
 31
0.0
  0
LINE
  5
16E
100
AcDbEntity
  8
SCHRAFFUR-3
 62
     7
100
AcDbLine
 10
6.171716
 20
0.621151
 30
0.0
 11
5.659775
 21
1.133092
 31
0.0
  0
LINE
  5
16D
100
AcDbEntity
  8
SCHRAFFUR-3
 62
     7
100
AcDbLine
 10
7.704095
 20
-0.33693
 30
0.0
 11
7.60212
 21
-0.234956
 31
0.0
  0
LINE
  5
16C
100
AcDbEntity
  8
SCHRAFFUR-3
 62
     7
100
AcDbLine
 10
8.240841
 20
0.27423
 30
0.0
 11
8.050671
 21
0.464054
 31
0.0
  0
LINE
  5
16B
100
AcDbEntity
  8
SCHRAFFUR-3
 62
     7
100
AcDbLine
 10
8.155402
 20
-0.214285
 30
0.0
 11
8.085811
 21
-0.145039
 31
0.0
  0
ENDBLK
  5
1A5
100
AcDbEntity
  8
SCHRAFFUR-3
100
AcDbBlockEnd
  0
ENDSEC
  0
SECTION
  2
ENTITIES
  0
HATCH
  5
1D1
100
AcDbEntity
  8
WASSER
 62
   154
100
AcDbHatch
 10
0.0
 20
0.0
 30
0.0
210
0.0
220
0.0
230
1.0
  2
SOLID
 70
     1
 71
     0
 91
        1
 92
        1
 93
        1
 72
     4
 94
        3
 73
     0
 74
     0
 95
       23
 96
       19
 40
0.0
 40
0.0
 40
0.0
 40
0.0
 40
1.0
 40
1.0
 40
1.0
 40
2.0
 40
2.0
 40
2.0
 40
3.0
 40
3.0
 40
3.0
 40
4.0
 40
4.0
 40
4.0
 40
5.0
 40
5.0
 40
5.0
 40
6.0
 40
6.0
 40
6.0
 40
6.0
 10
130.03444010416666
 20
100.83828938802083
 10
130.03444010416666
 20
100.83828938802083
 10
129.58795572916665
 20
101.11527506510416
 10
128.97886284722222
 20
101.40673014322915
 10
123.95866970486109
 20
103.80658365885415
 10
125.18305664062498
 20
98.94073079427082
 10
120.21453993055555
 20
101.99790852864582
 10
119.51380750868054
 20
102.4313015407986
 10
118.8675075954861
 20
101.37985839843749
 10
119.56686197916666
 20
100.94784342447916
 10
119.56686197916666
 20
100.94784342447916
 10
120.0147243923611
 20
100.6729248046875
 10
120.62381727430555
 20
100.38146972656249
 10
125.63643120659721
 20
97.981616210937489
 10
124.41893446180555
 20
102.83713378906249
 10
129.38951822916667
 20
99.788224283854163
 10
130.08887261284721
 20
99.356209309895817
 10
130.7365505642361
 20
100.40627441406249
 10
130.03444010416666
 20
100.83828938802083
 97
        0
 75
     0
 76
     1
 98
        1
 10
0.0
 20
0.0
  0
HATCH
  5
1D0
100
AcDbEntity
  8
WASSER
 62
   154
100
AcDbHatch
 10
0.0
 20
0.0
 30
0.0
210
0.0
220
0.0
230
1.0
  2
SOLID
 70
     1
 71
     0
 91
        1
 92
        1
 93
        1
 72
     4
 94
        3
 73
     0
 74
     0
 95
       23
 96
       19
 40
0.0
 40
0.0
 40
0.0
 40
0.0
 40
1.0
 40
1.0
 40
1.0
 40
2.0
 40
2.0
 40
2.0
 40
3.0
 40
3.0
 40
3.0
 40
4.0
 40
4.0
 40
4.0
 40
5.0
 40
5.0
 40
5.0
 40
6.0
 40
6.0
 40
6.0
 40
6.0
 10
130.03444010416666
 20
97.9354519314236
 10
130.03444010416666
 20
97.9354519314236
 10
129.58795572916665
 20
98.211059570312486
 10
128.97886284722222
 20
98.502514648437497
 10
123.95866970486109
 20
100.90443522135416
 10
125.18305664062498
 20
96.038582356770831
 10
120.21453993055555
 20
99.097827148437489
 10
119.51380750868054
 20
99.527775065104152
 10
118.8675075954861
 20
98.477709960937489
 10
119.56686197916666
 20
98.047073025173603
 10
119.56686197916666
 20
98.047073025173603
 10
120.0147243923611
 20
97.770776367187494
 10
120.62381727430555
 20
97.479321289062497
 10
125.63643120659721
 20
95.079467773437486
 10
124.41893446180555
 20
99.934985351562489
 10
129.38951822916667
 20
96.884008789062491
 10
130.08887261284721
 20
96.454060872395829
 10
130.7365505642361
 20
97.504125976562491
 10
130.03444010416666
 20
97.9354519314236
 97
        0
 75
     0
 76
     1
 98
        1
 10
0.0
 20
0.0
  0
HATCH
  5
1CF
100
AcDbEntity
  8
WASSER
 62
   154
100
AcDbHatch
 10
0.0
 20
0.0
 30
0.0
210
0.0
220
0.0
230
1.0
  2
SOLID
 70
     1
 71
     0
 91
        1
 92
        1
 93
        1
 72
     4
 94
        3
 73
     0
 74
     0
 95
       23
 96
       19
 40
0.0
 40
0.0
 40
0.0
 40
0.0
 40
1.0
 40
1.0
 40
1.0
 40
2.0
 40
2.0
 40
2.0
 40
3.0
 40
3.0
 40
3.0
 40
4.0
 40
4.0
 40
4.0
 40
5.0
 40
5.0
 40
5.0
 40
6.0
 40
6.0
 40
6.0
 40
6.0
 10
130.03444010416666
 20
95.03399251302082
 10
130.03444010416666
 20
95.03399251302082
 10
129.58795572916665
 20
95.308911132812497
 10
128.97886284722222
 20
95.600366210937494
 10
123.95866970486109
 20
98.00228678385416
 10
125.18305664062498
 20
93.136433919270829
 10
120.21453993055555
 20
96.195678710937486
 10
119.51380750868054
 20
96.625626627604163
 10
118.8675075954861
 20
95.575561523437486
 10
119.56686197916666
 20
95.1449245876736
 10
119.56686197916666
 20
95.1449245876736
 10
120.0147243923611
 20
94.868627929687491
 10
120.62381727430555
 20
94.577172851562494
 10
125.63643120659721
 20
92.177319335937497
 10
124.41893446180555
 20
97.032836914062486
 10
129.38951822916667
 20
93.981860351562489
 10
130.08887261284721
 20
93.551912434895826
 10
130.7365505642361
 20
94.604044596354157
 10
130.03444010416666
 20
95.03399251302082
 97
        0
 75
     0
 76
     1
 98
        1
 10
0.0
 20
0.0
  0
HATCH
  5
1CE
100
AcDbEntity
  8
WASSER
 62
   154
100
AcDbHatch
 10
0.0
 20
0.0
 30
0.0
210
0.0
220
0.0
230
1.0
  2
SOLID
 70
     1
 71
     0
 91
        1
 92
        1
 93
        1
 72
     4
 94
        3
 73
     0
 74
     0
 95
       23
 96
       19
 40
0.0
 40
0.0
 40
0.0
 40
0.0
 40
1.0
 40
1.0
 40
1.0
 40
2.0
 40
2.0
 40
2.0
 40
3.0
 40
3.0
 40
3.0
 40
4.0
 40
4.0
 40
4.0
 40
5.0
 40
5.0
 40
5.0
 40
6.0
 40
6.0
 40
6.0
 40
6.0
 10
130.03444010416666
 20
103.73630371093749
 10
130.03444010416666
 20
103.73630371093749
 10
129.58795572916665
 20
104.01122233072915
 10
128.97886284722222
 20
104.30267740885415
 10
123.95866970486109
 20
106.70390896267359
 10
125.18305664062498
 20
101.83874511718749
 10
120.21453993055555
 20
104.89592285156249
 10
119.51380750868054
 20
105.3272488064236
 10
118.8675075954861
 20
104.27580566406249
 10
119.56686197916666
 20
103.8451687282986
 10
119.56686197916666
 20
103.8451687282986
 10
120.0147243923611
 20
103.56887207031249
 10
120.62381727430555
 20
103.2774169921875
 10
125.63643120659721
 20
100.87756347656249
 10
124.41893446180555
 20
105.73308105468749
 10
129.38951822916667
 20
102.68417154947916
 10
130.08887261284721
 20
102.25215657552083
 10
130.7365505642361
 20
103.30428873697916
 10
130.03444010416666
 20
103.73630371093749
 97
        0
 75
     0
 76
     1
 98
        1
 10
0.0
 20
0.0
  0
HATCH
  5
1CC
100
AcDbEntity
  8
DICHTUNG
 62
     7
100
AcDbHatch
 10
0.0
 20
0.0
 30
0.0
210
0.0
220
0.0
230
1.0
  2
SOLID
 70
     1
 71
     0
 91
        1
 92
        3
 72
     0
 73
     1
 93
        4
 10
128.35598958333333
 20
128.38733995225692
 10
76.415662977430543
 20
128.38733995225692
 10
76.415662977430543
 20
133.58116590711805
 10
128.35598958333333
 20
133.58116590711805
 97
        0
 75
     2
 76
     1
 98
        1
 10
0.0
 20
0.0
  0
POLYLINE
  5
1C5
100
AcDbEntity
  8
SCHRAUBE
 62
     7
100
AcDb2dPolyline
 66
     1
 10
0.0
 20
0.0
 30
0.0
 70
     1
  0
VERTEX
  5
1C6
100
AcDbEntity
  8
SCHRAUBE
 62
     7
100
AcDbVertex
100
AcDb2dVertex
 10
79.686092
 20
135.659248
 30
0.0
  0
VERTEX
  5
1C7
100
AcDbEntity
  8
SCHRAUBE
 62
     7
100
AcDbVertex
100
AcDb2dVertex
 10
84.672523
 20
135.659248
 30
0.0
  0
VERTEX
  5
1C8
100
AcDbEntity
  8
SCHRAUBE
 62
     7
100
AcDbVertex
100
AcDb2dVertex
 10
84.672523
 20
136.178768
 30
0.0
  0
VERTEX
  5
1C9
100
AcDbEntity
  8
SCHRAUBE
 62
     7
100
AcDbVertex
100
AcDb2dVertex
 10
79.686092
 20
136.178768
 30
0.0
  0
SEQEND
  5
1CA
100
AcDbEntity
  8
SCHRAUBE
 62
     7
  0
POLYLINE
  5
1BF
100
AcDbEntity
  8
SCHRAUBE
 62
     7
100
AcDb2dPolyline
 66
     1
 10
0.0
 20
0.0
 30
0.0
 70
     1
  0
VERTEX
  5
1C0
100
AcDbEntity
  8
SCHRAUBE
 62
     7
100
AcDbVertex
100
AcDb2dVertex
 10
125.085216
 20
135.659248
 30
0.0
  0
VERTEX
  5
1C1
100
AcDbEntity
  8
SCHRAUBE
 62
     7
100
AcDbVertex
100
AcDb2dVertex
 10
120.098785
 20
135.659248
 30
0.0
  0
VERTEX
  5
1C2
100
AcDbEntity
  8
SCHRAUBE
 62
     7
100
AcDbVertex
100
AcDb2dVertex
 10
120.098785
 20
136.178768
 30
0.0
  0
VERTEX
  5
1C3
100
AcDbEntity
  8
SCHRAUBE
 62
     7
100
AcDbVertex
100
AcDb2dVertex
 10
125.085216
 20
136.178768
 30
0.0
  0
SEQEND
  5
1C4
100
AcDbEntity
  8
SCHRAUBE
 62
     7
  0
LINE
  5
1BE
100
AcDbEntity
  8
SCHRAUBE
 62
     7
100
AcDbLine
 10
80.776465
 20
136.178768
 30
0.0
 11
83.582495
 21
136.178768
 31
0.0
  0
SPLINE
  5
1BD
100
AcDbEntity
  8
SCHRAUBE
 62
     7
100
AcDbSpline
210
0.0
220
0.0
230
1.0
 70
     8
 71
     3
 72
     8
 73
     4
 74
     0
 42
0.00000001
 43
0.00000001
 40
0.0
 40
0.0
 40
0.0
 40
0.0
 40
1.0
 40
1.0
 40
1.0
 40
1.0
 10
83.1146511501736
 20
136.33862033420138
 30
0.0
 10
82.509347873263877
 20
136.12502441406249
 30
0.0
 10
81.849267578124994
 20
136.12502441406249
 30
0.0
 10
81.243964301215271
 20
136.33862033420138
 30
0.0
  0
SPLINE
  5
1BC
100
AcDbEntity
  8
SCHRAUBE
 62
     7
100
AcDbSpline
210
0.0
220
0.0
230
1.0
 70
     8
 71
     3
 72
     8
 73
     4
 74
     0
 42
0.00000001
 43
0.00000001
 40
0.0
 40
0.0
 40
0.0
 40
0.0
 40
1.0
 40
1.0
 40
1.0
 40
1.0
 10
81.243964301215271
 20
137.78418240017359
 30
0.0
 10
81.849267578124994
 20
137.99777832031248
 30
0.0
 10
82.509347873263877
 20
137.99777832031248
 30
0.0
 10
83.1146511501736
 20
137.78418240017359
 30
0.0
  0
LINE
  5
1BB
100
AcDbEntity
  8
SCHRAUBE
 62
     7
100
AcDbLine
 10
80.776465
 20
137.944724
 30
0.0
 11
83.582495
 21
137.944724
 31
0.0
  0
LINE
  5
1BA
100
AcDbEntity
  8
SCHRAUBE
 62
     7
100
AcDbLine
 10
80.308621
 20
136.33862
 30
0.0
 11
80.308621
 21
137.784182
 31
0.0
  0
LINE
  5
1B9
100
AcDbEntity
  8
SCHRAUBE
 62
     7
100
AcDbLine
 10
81.243964
 20
136.33862
 30
0.0
 11
81.243964
 21
137.784182
 31
0.0
  0
SPLINE
  5
1B8
100
AcDbEntity
  8
SCHRAUBE
 62
     7
100
AcDbSpline
210
0.0
220
0.0
230
1.0
 70
     8
 71
     3
 72
     8
 73
     4
 74
     0
 42
0.00000001
 43
0.00000001
 40
0.0
 40
0.0
 40
0.0
 40
0.0
 40
1.0
 40
1.0
 40
1.0
 40
1.0
 10
80.3086208767361
 20
137.78418240017359
 30
0.0
 10
80.583884006076389
 20
137.99777832031248
 30
0.0
 10
80.969045681423609
 20
137.99777832031248
 30
0.0
 10
81.243964301215271
 20
137.78418240017359
 30
0.0
  0
SPLINE
  5
1B7
100
AcDbEntity
  8
SCHRAUBE
 62
     7
100
AcDbSpline
210
0.0
220
0.0
230
1.0
 70
     8
 71
     3
 72
     8
 73
     4
 74
     0
 42
0.00000001
 43
0.00000001
 40
0.0
 40
0.0
 40
0.0
 40
0.0
 40
1.0
 40
1.0
 40
1.0
 40
1.0
 10
81.243964301215271
 20
136.33862033420138
 30
0.0
 10
80.969045681423609
 20
136.12502441406249
 30
0.0
 10
80.583884006076389
 20
136.12502441406249
 30
0.0
 10
80.3086208767361
 20
136.33862033420138
 30
0.0
  0
SPLINE
  5
1B6
100
AcDbEntity
  8
SCHRAUBE
 62
     7
100
AcDbSpline
210
0.0
220
0.0
230
1.0
 70
     8
 71
     3
 72
     8
 73
     4
 74
     0
 42
0.00000001
 43
0.00000001
 40
0.0
 40
0.0
 40
0.0
 40
0.0
 40
1.0
 40
1.0
 40
1.0
 40
1.0
 10
84.049994574652771
 20
136.33862033420138
 30
0.0
 10
83.775075954861109
 20
136.12502441406249
 30
0.0
 10
83.389914279513874
 20
136.12502441406249
 30
0.0
 10
83.1146511501736
 20
136.33862033420138
 30
0.0
  0
SPLINE
  5
1B5
100
AcDbEntity
  8
SCHRAUBE
 62
     7
100
AcDbSpline
210
0.0
220
0.0
230
1.0
 70
     8
 71
     3
 72
     8
 73
     4
 74
     0
 42
0.00000001
 43
0.00000001
 40
0.0
 40
0.0
 40
0.0
 40
0.0
 40
1.0
 40
1.0
 40
1.0
 40
1.0
 10
83.1146511501736
 20
137.78418240017359
 30
0.0
 10
83.389914279513874
 20
137.99777832031248
 30
0.0
 10
83.775075954861109
 20
137.99777832031248
 30
0.0
 10
84.049994574652771
 20
137.78418240017359
 30
0.0
  0
LINE
  5
1B4
100
AcDbEntity
  8
SCHRAUBE
 62
     7
100
AcDbLine
 10
83.114651
 20
136.33862
 30
0.0
 11
83.114651
 21
137.784182
 31
0.0
  0
LINE
  5
1B3
100
AcDbEntity
  8
SCHRAUBE
 62
     7
100
AcDbLine
 10
84.049995
 20
136.33862
 30
0.0
 11
84.049995
 21
137.784182
 31
0.0
  0
LINE
  5
1B2
100
AcDbEntity
  8
SCHRAUBE
 62
     7
100
AcDbLine
 10
121.188813
 20
136.178768
 30
0.0
 11
123.995188
 21
136.178768
 31
0.0
  0
SPLINE
  5
1B1
100
AcDbEntity
  8
SCHRAUBE
 62
     7
100
AcDbSpline
210
0.0
220
0.0
230
1.0
 70
     8
 71
     3
 72
     8
 73
     4
 74
     0
 42
0.00000001
 43
0.00000001
 40
0.0
 40
0.0
 40
0.0
 40
0.0
 40
1.0
 40
1.0
 40
1.0
 40
1.0
 10
123.52734374999999
 20
136.33862033420138
 30
0.0
 10
122.92238498263887
 20
136.12502441406249
 30
0.0
 10
122.26161566840277
 20
136.12502441406249
 30
0.0
 10
121.65665690104166
 20
136.33862033420138
 30
0.0
  0
SPLINE
  5
1B0
100
AcDbEntity
  8
SCHRAUBE
 62
     7
100
AcDbSpline
210
0.0
220
0.0
230
1.0
 70
     8
 71
     3
 72
     8
 73
     4
 74
     0
 42
0.00000001
 43
0.00000001
 40
0.0
 40
0.0
 40
0.0
 40
0.0
 40
1.0
 40
1.0
 40
1.0
 40
1.0
 10
121.65665690104166
 20
137.78418240017359
 30
0.0
 10
122.26161566840277
 20
137.99777832031248
 30
0.0
 10
122.92238498263887
 20
137.99777832031248
 30
0.0
 10
123.52734374999999
 20
137.78418240017359
 30
0.0
  0
LINE
  5
1AF
100
AcDbEntity
  8
SCHRAUBE
 62
     7
100
AcDbLine
 10
121.188813
 20
137.944724
 30
0.0
 11
123.995188
 21
137.944724
 31
0.0
  0
LINE
  5
1AE
100
AcDbEntity
  8
SCHRAUBE
 62
     7
100
AcDbLine
 10
120.721658
 20
136.33862
 30
0.0
 11
120.721658
 21
137.784182
 31
0.0
  0
LINE
  5
1AD
100
AcDbEntity
  8
SCHRAUBE
 62
     7
100
AcDbLine
 10
121.656657
 20
136.33862
 30
0.0
 11
121.656657
 21
137.784182
 31
0.0
  0
SPLINE
  5
1AC
100
AcDbEntity
  8
SCHRAUBE
 62
     7
100
AcDbSpline
210
0.0
220
0.0
230
1.0
 70
     8
 71
     3
 72
     8
 73
     4
 74
     0
 42
0.00000001
 43
0.00000001
 40
0.0
 40
0.0
 40
0.0
 40
0.0
 40
1.0
 40
1.0
 40
1.0
 40
1.0
 10
120.7216579861111
 20
137.78418240017359
 30
0.0
 10
120.99657660590276
 20
137.99777832031248
 30
0.0
 10
121.38173828124999
 20
137.99777832031248
 30
0.0
 10
121.65665690104166
 20
137.78418240017359
 30
0.0
  0
SPLINE
  5
1AB
100
AcDbEntity
  8
SCHRAUBE
 62
     7
100
AcDbSpline
210
0.0
220
0.0
230
1.0
 70
     8
 71
     3
 72
     8
 73
     4
 74
     0
 42
0.00000001
 43
0.00000001
 40
0.0
 40
0.0
 40
0.0
 40
0.0
 40
1.0
 40
1.0
 40
1.0
 40
1.0
 10
121.65665690104166
 20
136.33862033420138
 30
0.0
 10
121.38173828124999
 20
136.12502441406249
 30
0.0
 10
120.99657660590276
 20
136.12502441406249
 30
0.0
 10
120.7216579861111
 20
136.33862033420138
 30
0.0
  0
SPLINE
  5
1AA
100
AcDbEntity
  8
SCHRAUBE
 62
     7
100
AcDbSpline
210
0.0
220
0.0
230
1.0
 70
     8
 71
     3
 72
     8
 73
     4
 74
     0
 42
0.00000001
 43
0.00000001
 40
0.0
 40
0.0
 40
0.0
 40
0.0
 40
1.0
 40
1.0
 40
1.0
 40
1.0
 10
124.46303168402777
 20
136.33862033420138
 30
0.0
 10
124.18742404513888
 20
136.12502441406249
 30
0.0
 10
123.80226236979165
 20
136.12502441406249
 30
0.0
 10
123.52734374999999
 20
136.33862033420138
 30
0.0
  0
SPLINE
  5
1A9
100
AcDbEntity
  8
SCHRAUBE
 62
     7
100
AcDbSpline
210
0.0
220
0.0
230
1.0
 70
     8
 71
     3
 72
     8
 73
     4
 74
     0
 42
0.00000001
 43
0.00000001
 40
0.0
 40
0.0
 40
0.0
 40
0.0
 40
1.0
 40
1.0
 40
1.0
 40
1.0
 10
123.52734374999999
 20
137.78418240017359
 30
0.0
 10
123.80226236979165
 20
137.99777832031248
 30
0.0
 10
124.18742404513888
 20
137.99777832031248
 30
0.0
 10
124.46303168402777
 20
137.78418240017359
 30
0.0
  0
LINE
  5
1A8
100
AcDbEntity
  8
SCHRAUBE
 62
     7
100
AcDbLine
 10
123.527344
 20
136.33862
 30
0.0
 11
123.527344
 21
137.784182
 31
0.0
  0
LINE
  5
1A7
100
AcDbEntity
  8
SCHRAUBE
 62
     7
100
AcDbLine
 10
124.463032
 20
136.33862
 30
0.0
 11
124.463032
 21
137.784182
 31
0.0
  0
INSERT
  5
169
100
AcDbEntity
  8
SCHRAFFUR-3
 62
     7
100
AcDbBlockReference
  2
AI9-BLK12
 10
96.476282
 20
189.947234
 30
0.0
  0
INSERT
  5
129
100
AcDbEntity
  8
SCHRAFFUR-3
  6
AI9-LType4
 62
     7
100
AcDbBlockReference
  2
AI9-BLK11
 10
108.197702
 20
111.401297
 30
0.0
  0
LINE
  5
126
100
AcDbEntity
  8
MITTE
  6
AI9-LType4
 62
     7
100
AcDbLine
 10
102.515706
 20
195.834214
 30
0.0
 11
102.515706
 21
106.540611
 31
0.0
  0
LINE
  5
124
100
AcDbEntity
  8
MITTE
  6
AI9-LType3
 62
     7
100
AcDbLine
 10
82.179308
 20
125.917896
 30
0.0
 11
82.179308
 21
139.442651
 31
0.0
  0
LINE
  5
123
100
AcDbEntity
  8
MITTE
  6
AI9-LType3
 62
     7
100
AcDbLine
 10
122.592345
 20
125.369436
 30
0.0
 11
122.592345
 21
138.472512
 31
0.0
  0
INSERT
  5
113
100
AcDbEntity
  8
SCHRAFUR-2
 62
     7
100
AcDbBlockReference
  2
AI9-BLK10
 10
141.795307
 20
122.948912
 30
0.0
  0
INSERT
  5
F9
100
AcDbEntity
  8
SCHRAFUR-2
 62
     7
100
AcDbBlockReference
  2
AI9-BLK9
 10
74.467806
 20
154.113332
 30
0.0
  0
INSERT
  5
E0
100
AcDbEntity
  8
SCHRAFUR-2
 62
     7
100
AcDbBlockReference
  2
AI9-BLK8
 10
130.433382
 20
154.113332
 30
0.0
  0
INSERT
  5
D2
100
AcDbEntity
  8
SCHRAFUR-2
 62
     7
100
AcDbBlockReference
  2
AI9-BLK7
 10
63.105881
 20
122.948912
 30
0.0
  0
HATCH
  5
CF
100
AcDbEntity
  8
BITUMEN
 62
     7
100
AcDbHatch
 10
0.0
 20
0.0
 30
0.0
210
0.0
220
0.0
230
1.0
  2
SOLID
 70
     1
 71
     0
 91
        4
 92
       16
 93
        1
 72
     4
 94
        3
 73
     0
 74
     0
 95
       17
 96
       13
 40
0.0
 40
0.0
 40
0.0
 40
0.0
 40
1.0
 40
1.0
 40
1.0
 40
2.0
 40
2.0
 40
2.0
 40
3.0
 40
3.0
 40
3.0
 40
4.0
 40
4.0
 40
4.0
 40
4.0
 10
162.01801757812498
 20
127.49368218315971
 10
162.01801757812498
 20
127.49368218315971
 10
162.01801757812498
 20
124.89676920572916
 10
162.01801757812498
 20
124.89676920572916
 10
162.01801757812498
 20
124.89676920572916
 10
166.54004991319442
 20
124.89676920572916
 10
166.54004991319442
 20
124.89676920572916
 10
166.54004991319442
 20
124.89676920572916
 10
166.54004991319442
 20
127.49368218315971
 10
166.54004991319442
 20
127.49368218315971
 10
166.54004991319442
 20
127.49368218315971
 10
162.01801757812498
 20
127.49368218315971
 10
162.01801757812498
 20
127.49368218315971
 97
        0
 92
       16
 93
        1
 72
     4
 94
        3
 73
     0
 74
     0
 95
       17
 96
       13
 40
0.0
 40
0.0
 40
0.0
 40
0.0
 40
1.0
 40
1.0
 40
1.0
 40
2.0
 40
2.0
 40
2.0
 40
3.0
 40
3.0
 40
3.0
 40
4.0
 40
4.0
 40
4.0
 40
4.0
 10
152.9739529079861
 20
127.49368218315971
 10
152.9739529079861
 20
127.49368218315971
 10
152.9739529079861
 20
124.89676920572916
 10
152.9739529079861
 20
124.89676920572916
 10
152.9739529079861
 20
124.89676920572916
 10
157.49598524305554
 20
124.89676920572916
 10
157.49598524305554
 20
124.89676920572916
 10
157.49598524305554
 20
124.89676920572916
 10
157.49598524305554
 20
127.49368218315971
 10
157.49598524305554
 20
127.49368218315971
 10
157.49598524305554
 20
127.49368218315971
 10
152.9739529079861
 20
127.49368218315971
 10
152.9739529079861
 20
127.49368218315971
 97
        0
 92
       16
 93
        1
 72
     4
 94
        3
 73
     0
 74
     0
 95
       17
 96
       13
 40
0.0
 40
0.0
 40
0.0
 40
0.0
 40
1.0
 40
1.0
 40
1.0
 40
2.0
 40
2.0
 40
2.0
 40
3.0
 40
3.0
 40
3.0
 40
4.0
 40
4.0
 40
4.0
 40
4.0
 10
143.93057725694442
 20
127.49368218315971
 10
143.93057725694442
 20
127.49368218315971
 10
143.93057725694442
 20
124.89676920572916
 10
143.93057725694442
 20
124.89676920572916
 10
143.93057725694442
 20
124.89676920572916
 10
148.45260959201389
 20
124.89676920572916
 10
148.45260959201389
 20
124.89676920572916
 10
148.45260959201389
 20
124.89676920572916
 10
148.45260959201389
 20
127.49368218315971
 10
148.45260959201389
 20
127.49368218315971
 10
148.45260959201389
 20
127.49368218315971
 10
143.93057725694442
 20
127.49368218315971
 10
143.93057725694442
 20
127.49368218315971
 97
        0
 92
       16
 93
        1
 72
     4
 94
        3
 73
     0
 74
     0
 95
       17
 96
       13
 40
0.0
 40
0.0
 40
0.0
 40
0.0
 40
1.0
 40
1.0
 40
1.0
 40
2.0
 40
2.0
 40
2.0
 40
3.0
 40
3.0
 40
3.0
 40
4.0
 40
4.0
 40
4.0
 40
4.0
 10
134.88651258680554
 20
127.49368218315971
 10
134.88651258680554
 20
127.49368218315971
 10
134.88651258680554
 20
124.89676920572916
 10
134.88651258680554
 20
124.89676920572916
 10
134.88651258680554
 20
124.89676920572916
 10
139.40854492187498
 20
124.89676920572916
 10
139.40854492187498
 20
124.89676920572916
 10
139.40854492187498
 20
124.89676920572916
 10
139.40854492187498
 20
127.49368218315971
 10
139.40854492187498
 20
127.49368218315971
 10
139.40854492187498
 20
127.49368218315971
 10
134.88651258680554
 20
127.49368218315971
 10
134.88651258680554
 20
127.49368218315971
 97
        0
 75
     0
 76
     1
 98
        1
 10
0.0
 20
0.0
  0
HATCH
  5
CE
100
AcDbEntity
  8
BITUMEN
 62
     7
100
AcDbHatch
 10
0.0
 20
0.0
 30
0.0
210
0.0
220
0.0
230
1.0
  2
SOLID
 70
     1
 71
     0
 91
        4
 92
       16
 93
        1
 72
     4
 94
        3
 73
     0
 74
     0
 95
       17
 96
       13
 40
0.0
 40
0.0
 40
0.0
 40
0.0
 40
1.0
 40
1.0
 40
1.0
 40
2.0
 40
2.0
 40
2.0
 40
3.0
 40
3.0
 40
3.0
 40
4.0
 40
4.0
 40
4.0
 40
4.0
 10
65.592034233940964
 20
127.7289822048611
 10
65.592034233940964
 20
127.7289822048611
 10
65.592034233940964
 20
125.13206922743055
 10
65.592034233940964
 20
125.13206922743055
 10
65.592034233940964
 20
125.13206922743055
 10
70.114066569010404
 20
125.13206922743055
 10
70.114066569010404
 20
125.13206922743055
 10
70.114066569010404
 20
125.13206922743055
 10
70.114066569010404
 20
127.7289822048611
 10
70.114066569010404
 20
127.7289822048611
 10
70.114066569010404
 20
127.7289822048611
 10
65.592034233940964
 20
127.7289822048611
 10
65.592034233940964
 20
127.7289822048611
 97
        0
 92
       16
 93
        1
 72
     4
 94
        3
 73
     0
 74
     0
 95
       17
 96
       13
 40
0.0
 40
0.0
 40
0.0
 40
0.0
 40
1.0
 40
1.0
 40
1.0
 40
2.0
 40
2.0
 40
2.0
 40
3.0
 40
3.0
 40
3.0
 40
4.0
 40
4.0
 40
4.0
 40
4.0
 10
56.547969563802077
 20
127.7289822048611
 10
56.547969563802077
 20
127.7289822048611
 10
56.547969563802077
 20
125.13206922743055
 10
56.547969563802077
 20
125.13206922743055
 10
56.547969563802077
 20
125.13206922743055
 10
61.070001898871524
 20
125.13206922743055
 10
61.070001898871524
 20
125.13206922743055
 10
61.070001898871524
 20
125.13206922743055
 10
61.070001898871524
 20
127.7289822048611
 10
61.070001898871524
 20
127.7289822048611
 10
61.070001898871524
 20
127.7289822048611
 10
56.547969563802077
 20
127.7289822048611
 10
56.547969563802077
 20
127.7289822048611
 97
        0
 92
       16
 93
        1
 72
     4
 94
        3
 73
     0
 74
     0
 95
       17
 96
       13
 40
0.0
 40
0.0
 40
0.0
 40
0.0
 40
1.0
 40
1.0
 40
1.0
 40
2.0
 40
2.0
 40
2.0
 40
3.0
 40
3.0
 40
3.0
 40
4.0
 40
4.0
 40
4.0
 40
4.0
 10
47.504593912760413
 20
127.7289822048611
 10
47.504593912760413
 20
127.7289822048611
 10
47.504593912760413
 20
125.13206922743055
 10
47.504593912760413
 20
125.13206922743055
 10
47.504593912760413
 20
125.13206922743055
 10
52.026626247829853
 20
125.13206922743055
 10
52.026626247829853
 20
125.13206922743055
 10
52.026626247829853
 20
125.13206922743055
 10
52.026626247829853
 20
127.7289822048611
 10
52.026626247829853
 20
127.7289822048611
 10
52.026626247829853
 20
127.7289822048611
 10
47.504593912760413
 20
127.7289822048611
 10
47.504593912760413
 20
127.7289822048611
 97
        0
 92
       16
 93
        1
 72
     4
 94
        3
 73
     0
 74
     0
 95
       17
 96
       13
 40
0.0
 40
0.0
 40
0.0
 40
0.0
 40
1.0
 40
1.0
 40
1.0
 40
2.0
 40
2.0
 40
2.0
 40
3.0
 40
3.0
 40
3.0
 40
4.0
 40
4.0
 40
4.0
 40
4.0
 10
38.460529242621526
 20
127.7289822048611
 10
38.460529242621526
 20
127.7289822048611
 10
38.460529242621526
 20
125.13206922743055
 10
38.460529242621526
 20
125.13206922743055
 10
38.460529242621526
 20
125.13206922743055
 10
42.982561577690966
 20
125.13206922743055
 10
42.982561577690966
 20
125.13206922743055
 10
42.982561577690966
 20
125.13206922743055
 10
42.982561577690966
 20
127.7289822048611
 10
42.982561577690966
 20
127.7289822048611
 10
42.982561577690966
 20
127.7289822048611
 10
38.460529242621526
 20
127.7289822048611
 10
38.460529242621526
 20
127.7289822048611
 97
        0
 75
     0
 76
     1
 98
        1
 10
0.0
 20
0.0
  0
LINE
  5
CC
100
AcDbEntity
  8
KOERPER
 62
     7
100
AcDbLine
 10
88.231996
 20
121.001055
 30
0.0
 11
49.925979
 21
121.001055
 31
0.0
  0
LINE
  5
CB
100
AcDbEntity
  8
KOERPER
 62
     7
100
AcDbLine
 10
37.674875
 20
183.329895
 30
0.0
 11
76.545543
 21
183.329895
 31
0.0
  0
LINE
  5
CA
100
AcDbEntity
  8
KOERPER
 62
     7
100
AcDbLine
 10
128.485525
 20
183.329895
 30
0.0
 11
167.526036
 21
183.329895
 31
0.0
  0
LINE
  5
C9
100
AcDbEntity
  8
KOERPER
 62
     7
100
AcDbLine
 10
76.545543
 20
183.329895
 30
0.0
 11
88.231996
 21
183.329895
 31
0.0
  0
LINE
  5
C8
100
AcDbEntity
  8
KOERPER
 62
     7
100
AcDbLine
 10
116.799072
 20
183.329895
 30
0.0
 11
128.485525
 21
183.329895
 31
0.0
  0
LINE
  5
C7
100
AcDbEntity
  8
KOERPER
 62
     7
100
AcDbLine
 10
116.799072
 20
121.001055
 30
0.0
 11
155.105089
 21
121.001055
 31
0.0
  0
LINE
  5
C6
100
AcDbEntity
  8
KOERPER
 62
     7
100
AcDbLine
 10
76.935183
 20
135.659248
 30
0.0
 11
127.836469
 21
135.659248
 31
0.0
  0
LINE
  5
C5
100
AcDbEntity
  8
KOERPER
 62
     7
100
AcDbLine
 10
128.35599
 20
133.581166
 30
0.0
 11
76.415663
 21
133.581166
 31
0.0
  0
LINE
  5
C4
100
AcDbEntity
  8
KOERPER
 62
     7
100
AcDbLine
 10
76.935183
 20
128.38734
 30
0.0
 11
127.836469
 21
128.38734
 31
0.0
  0
LINE
  5
C3
100
AcDbEntity
  8
KOERPER
 62
     7
100
AcDbLine
 10
88.231996
 20
189.939311
 30
0.0
 11
88.231996
 21
135.659248
 31
0.0
  0
LINE
  5
C2
100
AcDbEntity
  8
KOERPER
 62
     7
100
AcDbLine
 10
116.799072
 20
189.939311
 30
0.0
 11
116.799072
 21
135.659248
 31
0.0
  0
LINE
  5
C1
100
AcDbEntity
  8
KOERPER
 62
     7
100
AcDbLine
 10
72.649829
 20
127.493682
 30
0.0
 11
37.674875
 21
127.493682
 31
0.0
  0
LINE
  5
C0
100
AcDbEntity
  8
KOERPER
 62
     7
100
AcDbLine
 10
116.799072
 20
124.896769
 30
0.0
 11
167.526036
 21
124.896769
 31
0.0
  0
INSERT
  5
AD
100
AcDbEntity
  8
KOERPER
 62
     7
100
AcDbBlockReference
  2
AI9-BLK5
 10
102.537669
 20
189.946976
 30
0.0
  0
INSERT
  5
9D
100
AcDbEntity
  8
KOERPER
 62
     7
100
AcDbBlockReference
  2
AI9-BLK4
 10
102.515534
 20
117.721324
 30
0.0
  0
LINE
  5
9B
100
AcDbEntity
  8
KOERPER
 62
     7
100
AcDbLine
 10
132.381239
 20
127.493682
 30
0.0
 11
155.105089
 21
127.493682
 31
0.0
  0
LINE
  5
9A
100
AcDbEntity
  8
KOERPER
 62
     7
100
AcDbLine
 10
132.308892
 20
124.896769
 30
0.0
 11
132.381239
 21
124.969116
 31
0.0
  0
LINE
  5
99
100
AcDbEntity
  8
KOERPER
 62
     7
100
AcDbLine
 10
49.925979
 20
124.538479
 30
0.0
 11
50.284614
 21
124.896769
 31
0.0
  0
LINE
  5
98
100
AcDbEntity
  8
KOERPER
 62
     7
100
AcDbLine
 10
116.799072
 20
121.001055
 30
0.0
 11
155.105089
 21
121.001055
 31
0.0
  0
LINE
  5
97
100
AcDbEntity
  8
KOERPER
 62
     7
100
AcDbLine
 10
72.649829
 20
183.329895
 30
0.0
 11
72.649829
 21
124.896769
 31
0.0
  0
LINE
  5
96
100
AcDbEntity
  8
KOERPER
 62
     7
100
AcDbLine
 10
128.485525
 20
183.329895
 30
0.0
 11
128.485525
 21
121.001055
 31
0.0
  0
LINE
  5
95
100
AcDbEntity
  8
KOERPER
 62
     7
100
AcDbLine
 10
132.381239
 20
183.329895
 30
0.0
 11
132.381239
 21
124.896769
 31
0.0
  0
LINE
  5
94
100
AcDbEntity
  8
KOERPER
 62
     7
100
AcDbLine
 10
128.485525
 20
121.001055
 30
0.0
 11
155.114735
 21
121.001055
 31
0.0
  0
LINE
  5
93
100
AcDbEntity
  8
KOERPER
 62
     7
100
AcDbLine
 10
76.285783
 20
121.001055
 30
0.0
 11
49.837785
 21
121.001055
 31
0.0
  0
LINE
  5
92
100
AcDbEntity
  8
KOERPER
 62
     7
100
AcDbLine
 10
127.836469
 20
128.38734
 30
0.0
 11
127.836469
 21
126.309947
 31
0.0
  0
LINE
  5
91
100
AcDbEntity
  8
KOERPER
 62
     7
100
AcDbLine
 10
155.105089
 20
124.896769
 30
0.0
 11
116.799072
 21
124.896769
 31
0.0
  0
LINE
  5
90
100
AcDbEntity
  8
KOERPER
 62
     7
100
AcDbLine
 10
88.231996
 20
124.896769
 30
0.0
 11
37.623716
 21
124.896769
 31
0.0
  0
LINE
  5
8F
100
AcDbEntity
  8
KOERPER
 62
     7
100
AcDbLine
 10
49.925979
 20
124.896769
 30
0.0
 11
49.925979
 21
121.001055
 31
0.0
  0
LINE
  5
8E
100
AcDbEntity
  8
KOERPER
 62
     7
100
AcDbLine
 10
76.285783
 20
124.896769
 30
0.0
 11
76.285783
 21
121.001055
 31
0.0
  0
LINE
  5
8D
100
AcDbEntity
  8
KOERPER
 62
     7
100
AcDbLine
 10
76.285783
 20
183.329895
 30
0.0
 11
76.285783
 21
121.001055
 31
0.0
  0
LINE
  5
8C
100
AcDbEntity
  8
KOERPER
 62
     7
100
AcDbLine
 10
127.836469
 20
135.659248
 30
0.0
 11
127.836469
 21
133.581166
 31
0.0
  0
LINE
  5
8B
100
AcDbEntity
  8
KOERPER
 62
     7
100
AcDbLine
 10
127.836469
 20
133.581166
 30
0.0
 11
76.935183
 21
133.581166
 31
0.0
  0
LINE
  5
8A
100
AcDbEntity
  8
KOERPER
 62
     7
100
AcDbLine
 10
76.935183
 20
133.581166
 30
0.0
 11
76.935183
 21
135.659248
 31
0.0
  0
LINE
  5
89
100
AcDbEntity
  8
KOERPER
 62
     7
100
AcDbLine
 10
76.415663
 20
133.581166
 30
0.0
 11
76.415663
 21
128.38734
 31
0.0
  0
LINE
  5
88
100
AcDbEntity
  8
KOERPER
 62
     7
100
AcDbLine
 10
76.415663
 20
128.38734
 30
0.0
 11
128.35599
 21
128.38734
 31
0.0
  0
LINE
  5
87
100
AcDbEntity
  8
KOERPER
 62
     7
100
AcDbLine
 10
128.35599
 20
128.38734
 30
0.0
 11
128.35599
 21
133.581166
 31
0.0
  0
LINE
  5
86
100
AcDbEntity
  8
KOERPER
 62
     7
100
AcDbLine
 10
76.935183
 20
126.309947
 30
0.0
 11
76.935183
 21
128.38734
 31
0.0
  0
LINE
  5
85
100
AcDbEntity
  8
KOERPER
 62
     7
100
AcDbLine
 10
132.381239
 20
127.493682
 30
0.0
 11
167.579091
 21
127.493682
 31
0.0
  0
LINE
  5
84
100
AcDbEntity
  8
KOERPER
 62
     7
100
AcDbLine
 10
132.381239
 20
127.493682
 30
0.0
 11
155.105089
 21
127.493682
 31
0.0
  0
LINE
  5
83
100
AcDbEntity
  8
KOERPER
 62
     7
100
AcDbLine
 10
132.381239
 20
127.493682
 30
0.0
 11
167.526036
 21
127.493682
 31
0.0
  0
LINE
  5
82
100
AcDbEntity
  8
KOERPER
 62
     7
100
AcDbLine
 10
76.935183
 20
126.309947
 30
0.0
 11
127.836469
 21
126.309947
 31
0.0
  0
LINE
  5
81
100
AcDbEntity
  8
KOERPER
 62
     7
100
AcDbLine
 10
155.105089
 20
121.001055
 30
0.0
 11
155.105089
 21
124.896769
 31
0.0
  0
INSERT
  5
6D
100
AcDbEntity
  8
SCHRAFFUR
 62
     7
100
AcDbBlockReference
  2
AI9-BLK3
 10
55.162352
 20
155.411789
 30
0.0
  0
INSERT
  5
56
100
AcDbEntity
  8
SCHRAFFUR
 62
     7
100
AcDbBlockReference
  2
AI9-BLK2
 10
149.953638
 20
155.411789
 30
0.0
  0
INSERT
  5
44
100
AcDbEntity
  8
SCHRAFFUR
 62
     7
100
AcDbBlockReference
  2
AI9-BLK1
 10
102.653424
 20
118.698698
 30
0.0
  0
LINE
  5
42
100
AcDbEntity
  8
SCHRAFFUR
 62
     7
100
AcDbLine
 10
71.985959
 20
153.914981
 30
0.0
 11
72.649829
 21
154.579195
 31
0.0
  0
LINE
  5
40
100
AcDbEntity
  8
TRENNUNG
  6
AI9-LType2
 62
     7
100
AcDbLine
 10
37.674875
 20
124.646655
 30
0.0
 11
37.674875
 21
183.329895
 31
0.0
  0
LINE
  5
3E
100
AcDbEntity
  8
TRENNUNG
  6
AI9-LType1
 62
     7
100
AcDbLine
 10
167.526036
 20
124.705911
 30
0.0
 11
167.526036
 21
183.329895
 31
0.0
  0
MTEXT
  5
3B
100
AcDbEntity
  8
TEXT
 62
     7
100
AcDbMText
 10
23.359125
 20
68.704473
 30
0.0
 40
5.774636
 41
0.0
 71
     1
 72
     2
  1
\fArial|b0|i0;\H5.7746;\C251;\U+0066\U+006C\U+0061\U+006E\U+0073\U+0063\U+0068
  7
STD
210
0.0
220
0.0
230
1.0
 73
     1
 44
1.0
  0
MTEXT
  5
3A
100
AcDbEntity
  8
TEXT
 62
     7
100
AcDbMText
 10
23.359125
 20
78.966379
 30
0.0
 40
5.774636
 41
0.0
 71
     1
 72
     2
  1
\fArial|b0|i0;\H5.7746;\C251;\U+0041\U+006E\U+0073\U+0063\U+0068\U+0077\U+0065\U+0069\U+00DF\U+002D
  7
STD
210
0.0
220
0.0
230
1.0
 73
     1
 44
1.0
  0
MTEXT
  5
39
100
AcDbEntity
  8
TEXT
 62
     7
100
AcDbMText
 10
23.359125
 20
89.228285
 30
0.0
 40
5.774636
 41
0.0
 71
     1
 72
     2
  1
\fArial|b0|i0;\H5.7746;\C251;\U+006D\U+0069\U+0074\U+0020\U+004B\U+006C\U+0065\U+0062\U+0065\U+002D\U+0020\U+002F
  7
STD
210
0.0
220
0.0
230
1.0
 73
     1
 44
1.0
  0
MTEXT
  5
38
100
AcDbEntity
  8
TEXT
 62
     7
100
AcDbMText
 10
23.359125
 20
99.490191
 30
0.0
 40
5.774636
 41
0.0
 71
     1
 72
     2
  1
\fArial|b0|i0;\H5.7746;\C251;\U+0046\U+0075\U+0074\U+0074\U+0065\U+0072\U+0072\U+006F\U+0068\U+0072\U+0020
  7
STD
210
0.0
220
0.0
230
1.0
 73
     1
 44
1.0
  0
MTEXT
  5
37
100
AcDbEntity
  8
TEXT
 62
     7
100
AcDbMText
 10
132.315438
 20
79.477975
 30
0.0
 40
5.774636
 41
0.0
 71
     1
 72
     2
  1
\fArial|b0|i0;\H5.7746;\C251;\U+0061\U+0062\U+0064\U+0069\U+0063\U+0068\U+0074\U+0075\U+006E\U+0067
  7
STD
210
0.0
220
0.0
230
1.0
 73
     1
 44
1.0
  0
MTEXT
  5
36
100
AcDbEntity
  8
TEXT
 62
     7
100
AcDbMText
 10
132.315438
 20
89.739881
 30
0.0
 40
5.774636
 41
0.0
 71
     1
 72
     2
  1
\fArial|b0|i0;\H5.7746;\C251;\U+0041\U+0075\U+00DF\U+0065\U+006E\U+002D
  7
STD
210
0.0
220
0.0
230
1.0
 73
     1
 44
1.0
  0
MTEXT
  5
35
100
AcDbEntity
  8
TEXT
 62
     7
100
AcDbMText
 10
81.838243
 20
59.007907
 30
0.0
 40
5.774636
 41
0.0
 71
     1
 72
     2
  1
\fArial|b0|i0;\H5.7746;\C251;\U+0032\U+0030
  7
STD
210
0.0
220
0.0
230
1.0
 73
     1
 44
1.0
  0
MTEXT
  5
34
100
AcDbEntity
  8
TEXT
 62
     7
100
AcDbMText
 10
81.838243
 20
69.269468
 30
0.0
 40
5.774636
 41
0.0
 71
     1
 72
     2
  1
\fArial|b0|i0;\H5.7746;\C251;\U+0053\U+0074\U+0061\U+006E\U+0064\U+0061\U+0072\U+0064
  7
STD
210
0.0
220
0.0
230
1.0
 73
     1
 44
1.0
  0
MTEXT
  5
33
100
AcDbEntity
  8
TEXT
 62
     7
100
AcDbMText
 10
81.838243
 20
79.531719
 30
0.0
 40
5.774636
 41
0.0
 71
     1
 72
     2
  1
\fArial|b0|i0;\H5.7746;\C251;\U+0046\U+0048\U+0052\U+004B\U+002D
  7
STD
210
0.0
220
0.0
230
1.0
 73
     1
 44
1.0
  0
LINE
  5
32
100
AcDbEntity
  8
TEXT
 62
     7
100
AcDbLine
 10
52.521859
 20
122.650567
 30
0.0
 11
49.353749
 21
101.832544
 31
0.0
  0
LINE
  5
31
100
AcDbEntity
  8
TEXT
 62
     7
100
AcDbLine
 10
161.614941
 20
124.896769
 30
0.0
 11
161.614941
 21
94.955444
 31
0.0
  0
LINE
  5
30
100
AcDbEntity
  8
TEXT
 62
     7
100
AcDbLine
 10
80.599042
 20
131.102075
 30
0.0
 11
92.415375
 21
81.728345
 31
0.0
  0
POLYLINE
  5
29
100
AcDbEntity
  8
RAHMEN
 62
     7
100
AcDb2dPolyline
 66
     1
 10
0.0
 20
0.0
 30
0.0
 70
     1
  0
VERTEX
  5
2A
100
AcDbEntity
  8
RAHMEN
 62
     7
100
AcDbVertex
100
AcDb2dVertex
 10
14.676624
 20
221.977493
 30
0.0
  0
VERTEX
  5
2B
100
AcDbEntity
  8
RAHMEN
 62
     7
100
AcDbVertex
100
AcDb2dVertex
 10
14.676624
 20
49.146699
 30
0.0
  0
VERTEX
  5
2C
100
AcDbEntity
  8
RAHMEN
 62
     7
100
AcDbVertex
100
AcDb2dVertex
 10
180.980512
 20
49.146699
 30
0.0
  0
VERTEX
  5
2D
100
AcDbEntity
  8
RAHMEN
 62
     7
100
AcDbVertex
100
AcDb2dVertex
 10
180.980512
 20
221.977493
 30
0.0
  0
SEQEND
  5
2E
100
AcDbEntity
  8
RAHMEN
 62
     7
  0
ENDSEC
  0
SECTION
  2
OBJECTS
  0
DICTIONARY
  5
19
100
AcDbDictionary
280
     0
281
     1
  3
ACAD_GROUP
350
1A
  3
ACAD_MLINESTYLE
350
1B
  3
ACAD_LAYOUT
350
1E
  3
ACAD_PLOTSETTINGS
350
22
  3
ACAD_PLOTSTYLENAME
350
1F
  3
ACAD_WIPEOUT_VARS
350
23
  0
DICTIONARY
  5
1A
102
{ACAD_REACTORS
330
19
102
}
100
AcDbDictionary
280
     0
281
     1
  0
DICTIONARY
  5
1B
102
{ACAD_REACTORS
330
19
102
}
100
AcDbDictionary
280
     0
281
     1
  3
Standard
350
1C
  0
MLINESTYLE
  5
1C
102
{ACAD_REACTORS
330
1B
102
}
100
AcDbMlineStyle
  2
Standard
 70
     0
  3

 62
     0
 51
90.0
 52
90.0
 71
     2
 49
0.5
 62
   256
  6
ByLayer
 49
-0.5
 62
   256
  6
ByLayer
  0
ACDBDICTIONARYWDFLT
  5
1F
102
{ACAD_REACTORS
330
19
102
}
100
AcDbDictionary
281
     1
  3
Normal
350
1D
100
AcDbDictionaryWithDefault
340
1D
  0
ACDBPLACEHOLDER
  5
1D
102
{ACAD_REACTORS
330
1F
102
}
  0
LAYOUT
  5
20
102
{ACAD_REACTORS
330
1E
102
}
100
AcDbPlotSettings
  1

  2

  4

  6

 40
0.0
 41
0.0
 42
0.0
 43
0.0
 44
0.0
 45
0.0
 46
0.0
 47
0.0
 48
0.0
 49
0.0
140
0.0
141
0.0
142
1.0
143
1.0
 70
  1024
 72
     0
 73
     0
 74
     0
  7

 75
     0
147
1.0
148
0.0
149
0.0
100
AcDbLayout
  1
Model
 70
     0
 71
     0
 10
0.0
 20
0.0
 11
0.0
 21
0.0
 12
0.0
 22
0.0
 32
0.0
 14
0.0
 24
0.0
 34
0.0
 15
0.0
 25
0.0
 35
0.0
146
0.0
 13
0.0
 23
0.0
 33
0.0
 16
0.0
 26
0.0
 36
0.0
 17
0.0
 27
0.0
 37
0.0
 76
     0
330
A
331
0
345
0
346
0
  0
LAYOUT
  5
21
102
{ACAD_REACTORS
330
1E
102
}
100
AcDbPlotSettings
  1

  2

  4

  6

 40
0.0
 41
0.0
 42
0.0
 43
0.0
 44
0.0
 45
0.0
 46
0.0
 47
0.0
 48
0.0
 49
0.0
140
0.0
141
0.0
142
1.0
143
1.0
 70
     0
 72
     0
 73
     0
 74
     0
  7

 75
     0
147
1.0
148
0.0
149
0.0
100
AcDbLayout
  1
Layout1
 70
     0
 71
     0
 10
0.0
 20
0.0
 11
0.0
 21
0.0
 12
0.0
 22
0.0
 32
0.0
 14
0.0
 24
0.0
 34
0.0
 15
0.0
 25
0.0
 35
0.0
146
0.0
 13
0.0
 23
0.0
 33
0.0
 16
0.0
 26
0.0
 36
0.0
 17
0.0
 27
0.0
 37
0.0
 76
     0
330
B
331
0
345
0
346
0
  0
DICTIONARY
  5
1E
102
{ACAD_REACTORS
330
19
102
}
100
AcDbDictionary
280
     0
281
     1
  3
Layout1
350
21
  3
Model
350
20
  0
DICTIONARY
  5
22
102
{ACAD_REACTORS
330
19
102
}
100
AcDbDictionary
280
     0
281
     1
  0
WIPEOUTVARIABLES
  5
23
100
AcDbWipeoutVariables
 70
     1
  0
ENDSEC
  0
EOF
