  0
SECTION
  2
HEADER
  9
$ACADVER
  1
AC1015
  9
$ACADMAINTVER
 70
     6
  9
$DWGCODEPAGE
  3
ANSI_932
  9
$INSBASE
 10
0.0
 20
0.0
 30
0.0
  9
$EXTMIN
 10
14.500235
 20
48.97031
 30
1.000000E+20
  9
$EXTMAX
 10
181.156901
 20
222.153882
 30
-1.000000E+20
  9
$LIMMIN
 10
14.500235
 20
48.97031
  9
$LIMMAX
 10
181.156901
 20
222.153882
  9
$ORTHOMODE
 70
     0
  9
$REGENMODE
 70
     1
  9
$FILLMODE
 70
     1
  9
$QTEXTMODE
 70
     0
  9
$MIRRTEXT
 70
     1
  9
$LTSCALE
 40
1.0
  9
$ATTMODE
 70
     1
  9
$TEXTSIZE
 40
0.2
  9
$TRACEWID
 40
0.05
  9
$TEXTSTYLE
  7
Standard
  9
$CLAYER
  8
0
  9
$CELTYPE
  6
Continuous
  9
$CECOLOR
 62
   256
  9
$CELTSCALE
 40
1.0
  9
$DISPSILH
 70
     0
  9
$DIMSCALE
 40
1.0
  9
$DIMASZ
 40
0.18
  9
$DIMEXO
 40
0.0625
  9
$DIMDLI
 40
0.38
  9
$DIMRND
 40
0.0
  9
$DIMDLE
 40
0.0
  9
$DIMEXE
 40
0.18
  9
$DIMTP
 40
0.0
  9
$DIMTM
 40
0.0
  9
$DIMTXT
 40
0.18
  9
$DIMCEN
 40
0.09
  9
$DIMTSZ
 40
0.0
  9
$DIMTOL
 70
     0
  9
$DIMLIM
 70
     0
  9
$DIMTIH
 70
     1
  9
$DIMTOH
 70
     1
  9
$DIMSE1
 70
     0
  9
$DIMSE2
 70
     0
  9
$DIMTAD
 70
     0
  9
$DIMZIN
 70
     0
  9
$DIMBLK
  1

  9
$DIMASO
 70
     1
  9
$DIMSHO
 70
     1
  9
$DIMPOST
  1

  9
$DIMAPOST
  1

  9
$DIMALT
 70
     0
  9
$DIMALTD
 70
     2
  9
$DIMALTF
 40
25.4
  9
$DIMLFAC
 40
1.0
  9
$DIMTOFL
 70
     0
  9
$DIMTVP
 40
0.0
  9
$DIMTIX
 70
     0
  9
$DIMSOXD
 70
     0
  9
$DIMSAH
 70
     0
  9
$DIMBLK1
  1

  9
$DIMBLK2
  1

  9
$DIMSTYLE
  2
Standard
  9
$DIMCLRD
 70
     0
  9
$DIMCLRE
 70
     0
  9
$DIMCLRT
 70
     0
  9
$DIMTFAC
 40
1.0
  9
$DIMGAP
 40
0.09
  9
$DIMJUST
 70
     0
  9
$DIMSD1
 70
     0
  9
$DIMSD2
 70
     0
  9
$DIMTOLJ
 70
     1
  9
$DIMTZIN
 70
     0
  9
$DIMALTZ
 70
     0
  9
$DIMALTTZ
 70
     0
  9
$DIMUPT
 70
     0
  9
$DIMDEC
 70
     4
  9
$DIMTDEC
 70
     4
  9
$DIMALTU
 70
     2
  9
$DIMALTTD
 70
     2
  9
$DIMTXSTY
  7
Standard
  9
$DIMAUNIT
 70
     0
  9
$DIMADEC
 70
     0
  9
$DIMALTRND
 40
0.0
  9
$DIMAZIN
 70
     0
  9
$DIMDSEP
 70
     0
  9
$DIMATFIT
 70
     3
  9
$DIMFRAC
 70
     0
  9
$DIMLDRBLK
  1

  9
$DIMLUNIT
 70
     2
  9
$DIMLWD
 70
     0
  9
$DIMLWE
 70
     0
  9
$DIMTMOVE
 70
     0
  9
$LUNITS
 70
     2
  9
$LUPREC
 70
     4
  9
$SKETCHINC
 40
0.1
  9
$FILLETRAD
 40
0.0
  9
$AUNITS
 70
     0
  9
$AUPREC
 70
     0
  9
$MENU
  1
acad
  9
$ELEVATION
 40
0.0
  9
$PELEVATION
 40
0.0
  9
$THICKNESS
 40
0.0
  9
$LIMCHECK
 70
     0
  9
$CHAMFERA
 40
0.0
  9
$CHAMFERB
 40
0.0
  9
$CHAMFERC
 40
0.0
  9
$CHAMFERD
 40
0.0
  9
$SKPOLY
 70
     0
  9
$TDCREATE
 40
0.000000000
  9
$TDUCREATE
 40
0.000000000
  9
$TDUPDATE
 40
0.000000000
  9
$TDUUPDATE
 40
0.000000000
  9
$TDINDWG
 40
0.0000000000
  9
$TDUSRTIMER
 40
0.0000000000
  9
$USRTIMER
 70
     1
  9
$ANGBASE
 50
0.0
  9
$ANGDIR
 70
     0
  9
$PDMODE
 70
     0
  9
$PDSIZE
 40
0.0
  9
$PLINEWID
 40
0.0
  9
$SPLFRAME
 70
     0
  9
$SPLINETYPE
 70
     6
  9
$SPLINESEGS
 70
     8
  9
$HANDSEED
  5
164
  9
$SURFTAB1
 70
     6
  9
$SURFTAB2
 70
     6
  9
$SURFTYPE
 70
     6
  9
$SURFU
 70
     6
  9
$SURFV
 70
     6
  9
$UCSBASE
  2

  9
$UCSNAME
  2

  9
$UCSORG
 10
0.0
 20
0.0
 30
0.0
  9
$UCSXDIR
 10
1.0
 20
0.0
 30
0.0
  9
$UCSYDIR
 10
0.0
 20
1.0
 30
0.0
  9
$UCSORTHOREF
  2

  9
$UCSORTHOVIEW
 70
     0
  9
$UCSORGTOP
 10
0.0
 20
0.0
 30
0.0
  9
$UCSORGBOTTOM
 10
0.0
 20
0.0
 30
0.0
  9
$UCSORGLEFT
 10
0.0
 20
0.0
 30
0.0
  9
$UCSORGRIGHT
 10
0.0
 20
0.0
 30
0.0
  9
$UCSORGFRONT
 10
0.0
 20
0.0
 30
0.0
  9
$UCSORGBACK
 10
0.0
 20
0.0
 30
0.0
  9
$PUCSBASE
  2

  9
$PUCSNAME
  2

  9
$PUCSORG
 10
0.0
 20
0.0
 30
0.0
  9
$PUCSXDIR
 10
1.0
 20
0.0
 30
0.0
  9
$PUCSYDIR
 10
0.0
 20
1.0
 30
0.0
  9
$PUCSORTHOREF
  2

  9
$PUCSORTHOVIEW
 70
     0
  9
$PUCSORGTOP
 10
0.0
 20
0.0
 30
0.0
  9
$PUCSORGBOTTOM
 10
0.0
 20
0.0
 30
0.0
  9
$PUCSORGLEFT
 10
0.0
 20
0.0
 30
0.0
  9
$PUCSORGRIGHT
 10
0.0
 20
0.0
 30
0.0
  9
$PUCSORGFRONT
 10
0.0
 20
0.0
 30
0.0
  9
$PUCSORGBACK
 10
0.0
 20
0.0
 30
0.0
  9
$USERI1
 70
     0
  9
$USERI2
 70
     0
  9
$USERI3
 70
     0
  9
$USERI4
 70
     0
  9
$USERI5
 70
     0
  9
$USERR1
 40
0.0
  9
$USERR2
 40
0.0
  9
$USERR3
 40
0.0
  9
$USERR4
 40
0.0
  9
$USERR5
 40
0.0
  9
$WORLDVIEW
 70
     1
  9
$SHADEDGE
 70
     3
  9
$SHADEDIF
 70
    70
  9
$TILEMODE
 70
     1
  9
$MAXACTVP
 70
    16
  9
$PINSBASE
 10
0.0
 20
0.0
 30
0.0
  9
$PLIMCHECK
 70
     0
  9
$PEXTMIN
 10
1.000000E+20
 20
1.000000E+20
 30
1.000000E+20
  9
$PEXTMAX
 10
-1.000000E+20
 20
-1.000000E+20
 30
-1.000000E+20
  9
$PLIMMIN
 10
0.0
 20
0.0
  9
$PLIMMAX
 10
12.0
 20
9.0
  9
$UNITMODE
 70
     0
  9
$VISRETAIN
 70
     0
  9
$PLINEGEN
 70
     1
  9
$PSLTSCALE
 70
     0
  9
$TREEDEPTH
 70
  3020
  9
$CMLSTYLE
  2
Standard
  9
$CMLJUST
 70
     0
  9
$CMLSCALE
 40
1.0
  9
$PROXYGRAPHICS
 70
     0
  9
$MEASUREMENT
 70
     1
  9
$CELWEIGHT
370
     0
  9
$ENDCAPS
280
     0
  9
$JOINSTYLE
280
     0
  9
$LWDISPLAY
290
     0
  9
$INSUNITS
 70
     0
  9
$HYPERLINKBASE
  1

  9
$STYLESHEET
  1

  9
$XEDIT
290
     1
  9
$CEPSNTYPE
380
     0
  9
$PSTYLEMODE
290
     1
  9
$FINGERPRINTGUID
  2

  9
$VERSIONGUID
  2

  9
$EXTNAMES
290
     1
  9
$PSVPSCALE
 40
0.0
  0
ENDSEC
  0
SECTION
  2
CLASSES
  0
CLASS
  1
LWPOLYLINE
  2
AcDbPolyline
  3
AutoCAD 2000
 90
    32768
280
     0
281
     1
  0
CLASS
  1
IMAGE
  2
AcDbRasterImage
  3
ISM
 90
    32895
280
     0
281
     1
  0
CLASS
  1
OLE2FRAME
  2
AcDbOle2Frame
  3
AutoCAD 2000
 90
    32768
280
     0
281
     1
  0
CLASS
  1
HATCH
  2
AcDbHatch
  3
AutoCAD 2000
 90
        0
280
     0
281
     1
  0
CLASS
  1
DICTIONARYVAR
  2
AcDbDictionaryVar
  3
AutoCAD 2000
 90
    32768
280
     0
281
     0
  0
CLASS
  1
RASTERVARIABLES
  2
AcDbRasterVariables
  3
ISM
 90
    32768
280
     0
281
     0
  0
CLASS
  1
IMAGEDEF
  2
AcDbRasterImageDef
  3
ISM
 90
    32768
280
     0
281
     0
  0
CLASS
  1
IMAGEDEF_REACTOR
  2
AcDbRasterImageDefReactor
  3
ISM
 90
    32769
280
     0
281
     0
  0
CLASS
  1
IDBUFFER
  2
AcDbIdBuffer
  3
AutoCAD 2000
 90
    32768
280
     0
281
     0
  0
CLASS
  1
SPATIAL_FILTER
  2
AcDbSpatialFilter
  3
AutoCAD 2000
 90
    32768
280
     0
281
     0
  0
CLASS
  1
XRECORD
  2
AcDbXrecord
  3
AutoCAD 2000
 90
    32768
280
     0
281
     0
  0
CLASS
  1
SORTENTSTABLE
  2
AcDbSortentsTable
  3
AutoCAD 2000
 90
    32768
280
     0
281
     0
  0
CLASS
  1
LAYER_INDEX
  2
AcDbLayerIndex
  3
AutoCAD 2000
 90
    32768
280
     0
281
     0
  0
CLASS
  1
SPATIAL_INDEX
  2
AcDbSpatialIndex
  3
AutoCAD 2000
 90
    32768
280
     0
281
     0
  0
CLASS
  1
OBJECT_PTR
  2
CAseDLPNTableRecord
  3
"ASE-LPNTableRecord"
 90
    32769
280
     0
281
     0
  0
CLASS
  1
LAYOUT
  2
AcDbLayout
  3
AutoCAD 2000
 90
        0
280
     0
281
     0
  0
CLASS
  1
PLOTSETTINGS
  2
AcDbPlotSettings
  3
AutoCAD 2000
 90
    32768
280
     0
281
     0
  0
CLASS
  1
ACDBDICTIONARYWDFLT
  2
AcDbDictionaryWithDefault
  3
AutoCAD 2000
 90
        0
280
     0
281
     0
  0
CLASS
  1
ACDBPLACEHOLDER
  2
AcDbPlaceHolder
  3
AutoCAD 2000
 90
        0
280
     0
281
     0
  0
CLASS
  1
VBA_PROJECT
  2
AcDbVbaProject
  3
acadvba
 90
    32768
280
     0
281
     0
  0
CLASS
  1
WIPEOUT
  2
AcDbWipeout
  3
WipeOut|AutoCAD Express Tool|expresstools@autodesk.com
 90
    32895
280
     0
281
     1
  0
CLASS
  1
WIPEOUTVARIABLES
  2
AcDbWipeoutVariables
  3
WipeOut|AutoCAD Express Tool|expresstools@autodesk.com
 90
        0
280
     0
281
     0
  0
CLASS
  1
RTEXT
  2
RText
  3
RText|AutoCAD Express Tool|expresstools@autodesk.com
 90
    32768
280
     0
281
     1
  0
CLASS
  1
ARCALIGNEDTEXT
  2
AcDbArcAlignedText
  3
ATEXT|AutoCAD Express Tool|expresstools@autodesk.com
 90
    32768
280
     0
281
     1
  0
ENDSEC
  0
SECTION
  2
TABLES
  0
TABLE
  2
VPORT
  5
7
100
AcDbSymbolTable
 70
     1
  0
VPORT
  5
15
100
AcDbSymbolTableRecord
100
AcDbViewportTableRecord
  2
*ACTIVE
 70
     0
 10
0.0
 20
0.0
 11
1.0
 21
1.0
 12
6.591288
 22
4.579184
 13
0.0
 23
0.0
 14
1.0
 24
1.0
 15
0.0
 25
0.0
 16
0.0
 26
0.0
 36
1.0
 17
0.0
 27
0.0
 37
0.0
 40
9.158369
 41
0.688564
 42
50.0
 43
0.0
 44
0.0
 50
0.0
 51
0.0
 71
     0
 72
   100
 73
     1
 74
     1
 75
     0
 76
     0
 77
     0
 78
     0
281
     0
 65
     0
110
0.0
120
0.0
130
0.0
111
1.0
121
0.0
131
0.0
112
0.0
122
1.0
132
0.0
345
0
346
0
 79
     0
146
0.0
  0
ENDTAB
  0
TABLE
  2
LTYPE
  5
4
100
AcDbSymbolTable
 70
     6
  0
LTYPE
  5
11
100
AcDbSymbolTableRecord
100
AcDbLinetypeTableRecord
  2
ByBlock
 70
    64
  3

 72
    65
 73
     0
 40
0.0
  0
LTYPE
  5
12
100
AcDbSymbolTableRecord
100
AcDbLinetypeTableRecord
  2
ByLayer
 70
    64
  3

 72
    65
 73
     0
 40
0.0
  0
LTYPE
  5
13
100
AcDbSymbolTableRecord
100
AcDbLinetypeTableRecord
  2
Continuous
 70
    64
  3
Solid line
 72
    65
 73
     0
 40
0.0
  0
LTYPE
  5
46
100
AcDbSymbolTableRecord
100
AcDbLinetypeTableRecord
  2
AI9-LType1
 70
    64
  3
Illustrator Dash Style No.1
 72
    65
 73
     4
 40
0.9525
 49
0.595312
 74
     0
 49
-0.119063
 74
     0
 49
0.119063
 74
     0
 49
-0.119063
 74
     0
  0
LTYPE
  5
8D
100
AcDbSymbolTableRecord
100
AcDbLinetypeTableRecord
  2
AI9-LType2
 70
    64
  3
Illustrator Dash Style No.2
 72
    65
 73
     4
 40
10.230556
 49
5.644444
 74
     0
 49
-2.116667
 74
     0
 49
0.352778
 74
     0
 49
-2.116667
 74
     0
  0
LTYPE
  5
15F
100
AcDbSymbolTableRecord
100
AcDbLinetypeTableRecord
  2
AI9-LType3
 70
    64
  3
Illustrator Dash Style No.3
 72
    65
 73
     6
 40
12.7
 49
5.644444
 74
     0
 49
-2.116667
 74
     0
 49
0.352778
 74
     0
 49
-2.116667
 74
     0
 49
0.352778
 74
     0
 49
-2.116667
 74
     0
  0
ENDTAB
  0
TABLE
  2
LAYER
  5
2
100
AcDbSymbolTable
 70
     3
  0
LAYER
  5
14
100
AcDbSymbolTableRecord
100
AcDbLayerTableRecord
  2
0
 70
     0
 62
     7
  6
Continuous
290
     1
370
    -3
390
1D
  0
LAYER
  5
28
100
AcDbSymbolTableRecord
100
AcDbLayerTableRecord
  2
RAHMEN
 70
     0
 62
     1
  6
Continuous
290
     1
370
    -3
390
1D
  0
LAYER
  5
2F
100
AcDbSymbolTableRecord
100
AcDbLayerTableRecord
  2
BODEM-3_7
 70
     0
 62
     1
  6
Continuous
290
     1
370
    -3
390
1D
  0
ENDTAB
  0
TABLE
  2
STYLE
  5
3
100
AcDbSymbolTable
 70
     5
  0
STYLE
  5
17
100
AcDbSymbolTableRecord
100
AcDbTextStyleTableRecord
  2
Standard
 70
     0
 40
0.0
 41
1.0
 50
0.0
 71
     0
 42
0.0
  3
txt
  4

  0
STYLE
  5
24
100
AcDbSymbolTableRecord
100
AcDbTextStyleTableRecord
  2
STD
 70
     0
 40
0.0
 41
1.0
 50
0.0
 71
     0
 42
0.0
  3
txt
  4

  0
STYLE
  5
25
100
AcDbSymbolTableRecord
100
AcDbTextStyleTableRecord
  2
TATESTD
 70
     4
 40
0.0
 41
1.0
 50
0.0
 71
     0
 42
0.0
  3
txt
  4

  0
STYLE
  5
26
100
AcDbSymbolTableRecord
100
AcDbTextStyleTableRecord
  2
KANJISTD
 70
     0
 40
0.0
 41
1.0
 50
0.0
 71
     0
 42
0.0
  3
txt
  4
extfont
  0
STYLE
  5
27
100
AcDbSymbolTableRecord
100
AcDbTextStyleTableRecord
  2
KANJITATE
 70
     4
 40
0.0
 41
1.0
 50
0.0
 71
     0
 42
0.0
  3
txt
  4
extfont
  0
ENDTAB
  0
TABLE
  2
VIEW
  5
5
100
AcDbSymbolTable
 70
     0
  0
ENDTAB
  0
TABLE
  2
UCS
  5
6
100
AcDbSymbolTable
 70
     0
  0
ENDTAB
  0
TABLE
  2
APPID
  5
8
100
AcDbSymbolTable
 70
     1
  0
APPID
  5
16
100
AcDbSymbolTableRecord
100
AcDbRegAppTableRecord
  2
ACAD
 70
     0
  0
ENDTAB
  0
TABLE
  2
DIMSTYLE
  5
9
100
AcDbSymbolTable
 70
     1
100
AcDbDimStyleTable
 71
     0
  0
DIMSTYLE
105
18
100
AcDbSymbolTableRecord
100
AcDbDimStyleTableRecord
  2
Standard
 70
     0
  3

  4

 40
1.0
 41
0.18
 42
0.0625
 43
0.38
 44
0.18
 45
0.0
 46
0.0
 47
0.0
 48
0.0
 71
     0
 72
     0
 73
     1
 74
     1
 75
     0
 76
     0
 77
     0
 78
     0
 79
     0
140
0.18
141
0.09
142
0.0
143
25.4
144
1.0
145
0.0
146
1.0
147
0.09
148
0.0
170
     0
171
     2
172
     0
173
     0
174
     0
175
     0
176
     0
177
     0
178
     0
179
     0
271
     4
272
     4
273
     2
274
     2
275
     0
276
     0
277
     2
278
    46
279
     0
280
     0
281
     0
282
     0
283
     1
284
     0
285
     0
286
     0
288
     0
340
17
341
0
342
0
343
0
344
0
371
    -2
372
    -2
  0
ENDTAB
  0
TABLE
  2
BLOCK_RECORD
  5
1
100
AcDbSymbolTable
 70
     1
  0
BLOCK_RECORD
  5
A
100
AcDbSymbolTableRecord
100
AcDbBlockTableRecord
  2
*MODEL_SPACE
340
20
  0
BLOCK_RECORD
  5
B
100
AcDbSymbolTableRecord
100
AcDbBlockTableRecord
  2
*PAPER_SPACE
340
21
  0
BLOCK_RECORD
  5
30
100
AcDbSymbolTableRecord
100
AcDbBlockTableRecord
  2
AI9-BLK1
340
0
102
{BLKREFS
331
31
102
}
  0
ENDTAB
  0
ENDSEC
  0
SECTION
  2
BLOCKS
  0
BLOCK
  5
D
100
AcDbEntity
  8
0
100
AcDbBlockBegin
  2
*MODEL_SPACE
 70
     0
 10
0.0
 20
0.0
 30
0.0
  3
*MODEL_SPACE
  1

  0
ENDBLK
  5
E
100
AcDbEntity
  8
0
100
AcDbBlockEnd
  0
BLOCK
  5
F
100
AcDbEntity
 67
     1
  8
0
100
AcDbBlockBegin
  2
*PAPER_SPACE
 70
     0
 10
0.0
 20
0.0
 30
0.0
  3
*PAPER_SPACE
  1

  0
ENDBLK
  5
10
100
AcDbEntity
 67
     1
  8
0
100
AcDbBlockEnd
  0
BLOCK
  5
32
100
AcDbEntity
  8
BODEM-3_7
 62
     7
100
AcDbBlockBegin
  2
AI9-BLK1
 70
     0
 10
0.0
 20
0.0
 30
0.0
  3
AI9-BLK1
  1

  0
LINE
  5
162
100
AcDbEntity
  8
BODEM-3_7
  6
AI9-LType3
 62
     7
100
AcDbLine
 10
-71.530862
 20
46.14981
 30
0.0
 11
-71.530862
 21
-8.850278
 31
0.0
  0
LINE
  5
161
100
AcDbEntity
  8
BODEM-3_7
  6
AI9-LType3
 62
     7
100
AcDbLine
 10
-7.316694
 20
72.259672
 30
0.0
 11
47.683222
 21
72.259672
 31
0.0
  0
LINE
  5
160
100
AcDbEntity
  8
BODEM-3_7
  6
AI9-LType3
 62
     7
100
AcDbLine
 10
-7.316694
 20
-66.428159
 30
0.0
 11
47.683222
 21
-66.428159
 31
0.0
  0
LINE
  5
15E
100
AcDbEntity
  8
BODEM-3_7
 62
     7
100
AcDbLine
 10
-38.339434
 20
58.082243
 30
0.0
 11
-38.339779
 21
58.726131
 31
0.0
  0
LINE
  5
15D
100
AcDbEntity
  8
BODEM-3_7
 62
     7
100
AcDbLine
 10
-71.530862
 20
34.852825
 30
0.0
 11
-60.233705
 21
46.14981
 31
0.0
  0
LINE
  5
15C
100
AcDbEntity
  8
BODEM-3_7
 62
     7
100
AcDbLine
 10
-71.530862
 20
12.402344
 30
0.0
 11
-44.310129
 21
39.622732
 31
0.0
  0
LINE
  5
15B
100
AcDbEntity
  8
BODEM-3_7
 62
     7
100
AcDbLine
 10
-70.332658
 20
-8.850278
 30
0.0
 11
-33.082218
 21
28.399989
 31
0.0
  0
LINE
  5
15A
100
AcDbEntity
  8
BODEM-3_7
 62
     7
100
AcDbLine
 10
-16.573665
 20
44.908714
 30
0.0
 11
-15.332397
 21
46.14981
 31
0.0
  0
LINE
  5
159
100
AcDbEntity
  8
BODEM-3_7
 62
     7
100
AcDbLine
 10
-47.882004
 20
-8.850278
 30
0.0
 11
-35.060048
 21
3.971678
 31
0.0
  0
LINE
  5
158
100
AcDbEntity
  8
BODEM-3_7
 62
     7
100
AcDbLine
 10
-5.345755
 20
33.686144
 30
0.0
 11
7.118256
 21
46.14981
 31
0.0
  0
LINE
  5
157
100
AcDbEntity
  8
BODEM-3_7
 62
     7
100
AcDbLine
 10
-35.060048
 20
3.971678
 30
0.0
 11
-21.854308
 21
17.177246
 31
0.0
  0
LINE
  5
156
100
AcDbEntity
  8
BODEM-3_7
 62
     7
100
AcDbLine
 10
-25.43135
 20
-8.850278
 30
0.0
 11
-10.626397
 21
5.954331
 31
0.0
  0
LINE
  5
155
100
AcDbEntity
  8
BODEM-3_7
 62
     7
100
AcDbLine
 10
5.882501
 20
22.463401
 30
0.0
 11
29.56891
 21
46.14981
 31
0.0
  0
LINE
  5
154
100
AcDbEntity
  8
BODEM-3_7
 62
     7
100
AcDbLine
 10
-7.316694
 20
-13.186275
 30
0.0
 11
0.601514
 21
-5.268068
 31
0.0
  0
LINE
  5
153
100
AcDbEntity
  8
BODEM-3_7
 62
     7
100
AcDbLine
 10
17.110411
 20
11.240658
 30
0.0
 11
47.683222
 21
41.813468
 31
0.0
  0
LINE
  5
152
100
AcDbEntity
  8
BODEM-3_7
 62
     7
100
AcDbLine
 10
-7.316694
 20
-35.637273
 30
0.0
 11
11.829424
 21
-16.490811
 31
0.0
  0
LINE
  5
151
100
AcDbEntity
  8
BODEM-3_7
 62
     7
100
AcDbLine
 10
28.338322
 20
0.018087
 30
0.0
 11
47.683222
 21
19.362815
 31
0.0
  0
LINE
  5
150
100
AcDbEntity
  8
BODEM-3_7
 62
     7
100
AcDbLine
 10
-7.316694
 20
-58.087583
 30
0.0
 11
22.142318
 21
-28.628571
 31
0.0
  0
LINE
  5
14F
100
AcDbEntity
  8
BODEM-3_7
 62
     7
100
AcDbLine
 10
39.566233
 20
-11.204656
 30
0.0
 11
47.683222
 21
-3.087322
 31
0.0
  0
LINE
  5
14E
100
AcDbEntity
  8
BODEM-3_7
 62
     7
100
AcDbLine
 10
22.142318
 20
-28.628571
 30
0.0
 11
23.057335
 21
-27.713554
 31
0.0
  0
LINE
  5
14D
100
AcDbEntity
  8
BODEM-3_7
 62
     7
100
AcDbLine
 10
6.793039
 20
-66.428159
 30
0.0
 11
20.268186
 21
-52.953701
 31
0.0
  0
LINE
  5
14C
100
AcDbEntity
  8
BODEM-3_7
 62
     7
100
AcDbLine
 10
20.268186
 20
-52.953701
 30
0.0
 11
34.285246
 21
-38.936297
 31
0.0
  0
LINE
  5
14B
100
AcDbEntity
  8
BODEM-3_7
 62
     7
100
AcDbLine
 10
29.243693
 20
-66.428159
 30
0.0
 11
45.513501
 21
-50.15904
 31
0.0
  0
LINE
  5
14A
100
AcDbEntity
  8
BODEM-3_7
 62
     7
100
AcDbLine
 10
-71.530862
 20
23.627498
 30
0.0
 11
-69.884795
 21
25.273393
 31
0.0
  0
LINE
  5
149
100
AcDbEntity
  8
BODEM-3_7
 62
     7
100
AcDbLine
 10
-67.078421
 20
28.079595
 30
0.0
 11
-61.466016
 21
33.692345
 31
0.0
  0
LINE
  5
148
100
AcDbEntity
  8
BODEM-3_7
 62
     7
100
AcDbLine
 10
-58.659641
 20
36.49872
 30
0.0
 11
-53.046891
 21
42.111469
 31
0.0
  0
LINE
  5
147
100
AcDbEntity
  8
BODEM-3_7
 62
     7
100
AcDbLine
 10
-50.240516
 20
44.917672
 30
0.0
 11
-49.924257
 21
45.234104
 31
0.0
  0
LINE
  5
146
100
AcDbEntity
  8
BODEM-3_7
 62
     7
100
AcDbLine
 10
-71.530862
 20
1.177017
 30
0.0
 11
-67.078421
 21
5.629114
 31
0.0
  0
LINE
  5
145
100
AcDbEntity
  8
BODEM-3_7
 62
     7
100
AcDbLine
 10
-64.272046
 20
8.435489
 30
0.0
 11
-58.659641
 21
14.048066
 31
0.0
  0
LINE
  5
144
100
AcDbEntity
  8
BODEM-3_7
 62
     7
100
AcDbLine
 10
-55.853266
 20
16.854441
 30
0.0
 11
-50.240516
 21
22.467018
 31
0.0
  0
LINE
  5
143
100
AcDbEntity
  8
BODEM-3_7
 62
     7
100
AcDbLine
 10
-47.434142
 20
25.273393
 30
0.0
 11
-41.821392
 21
30.88597
 31
0.0
  0
LINE
  5
142
100
AcDbEntity
  8
BODEM-3_7
 62
     7
100
AcDbLine
 10
-39.015362
 20
33.692345
 30
0.0
 11
-38.696346
 21
34.011361
 31
0.0
  0
LINE
  5
141
100
AcDbEntity
  8
BODEM-3_7
 62
     7
100
AcDbLine
 10
-59.107159
 20
-8.850278
 30
0.0
 11
-55.853266
 21
-5.596041
 31
0.0
  0
LINE
  5
140
100
AcDbEntity
  8
BODEM-3_7
 62
     7
100
AcDbLine
 10
-53.046891
 20
-2.789666
 30
0.0
 11
-47.434142
 21
2.823083
 31
0.0
  0
LINE
  5
13F
100
AcDbEntity
  8
BODEM-3_7
 62
     7
100
AcDbLine
 10
-44.627767
 20
5.629114
 30
0.0
 11
-39.015362
 21
11.241691
 31
0.0
  0
LINE
  5
13E
100
AcDbEntity
  8
BODEM-3_7
 62
     7
100
AcDbLine
 10
-36.208987
 20
14.048066
 30
0.0
 11
-30.596238
 21
19.660815
 31
0.0
  0
LINE
  5
13D
100
AcDbEntity
  8
BODEM-3_7
 62
     7
100
AcDbLine
 10
-27.789863
 20
22.467018
 30
0.0
 11
-27.468435
 21
22.788618
 31
0.0
  0
LINE
  5
13C
100
AcDbEntity
  8
BODEM-3_7
 62
     7
100
AcDbLine
 10
-10.951959
 20
39.305094
 30
0.0
 11
-5.339209
 21
44.917672
 31
0.0
  0
LINE
  5
13B
100
AcDbEntity
  8
BODEM-3_7
 62
     7
100
AcDbLine
 10
-36.656505
 20
-8.850278
 30
0.0
 11
-36.208987
 21
-8.402416
 31
0.0
  0
LINE
  5
13A
100
AcDbEntity
  8
BODEM-3_7
 62
     7
100
AcDbLine
 10
-33.402612
 20
-5.596041
 30
0.0
 11
-27.789863
 21
0.016709
 31
0.0
  0
LINE
  5
139
100
AcDbEntity
  8
BODEM-3_7
 62
     7
100
AcDbLine
 10
-24.983488
 20
2.823083
 30
0.0
 11
-19.371083
 21
8.435489
 31
0.0
  0
LINE
  5
138
100
AcDbEntity
  8
BODEM-3_7
 62
     7
100
AcDbLine
 10
-16.564708
 20
11.241691
 30
0.0
 11
-16.240525
 21
11.565875
 31
0.0
  0
LINE
  5
137
100
AcDbEntity
  8
BODEM-3_7
 62
     7
100
AcDbLine
 10
0.273541
 20
28.079595
 30
0.0
 11
5.885946
 21
33.692345
 31
0.0
  0
LINE
  5
136
100
AcDbEntity
  8
BODEM-3_7
 62
     7
100
AcDbLine
 10
8.69232
 20
36.49872
 30
0.0
 11
14.30507
 21
42.111469
 31
0.0
  0
LINE
  5
135
100
AcDbEntity
  8
BODEM-3_7
 62
     7
100
AcDbLine
 10
17.111445
 20
44.917672
 30
0.0
 11
18.343411
 21
46.14981
 31
0.0
  0
LINE
  5
134
100
AcDbEntity
  8
BODEM-3_7
 62
     7
100
AcDbLine
 10
-13.758333
 20
-8.402416
 30
0.0
 11
-8.145584
 21
-2.789666
 31
0.0
  0
LINE
  5
133
100
AcDbEntity
  8
BODEM-3_7
 62
     7
100
AcDbLine
 10
-5.339209
 20
0.016709
 30
0.0
 11
-5.012269
 21
0.343304
 31
0.0
  0
LINE
  5
132
100
AcDbEntity
  8
BODEM-3_7
 62
     7
100
AcDbLine
 10
11.498695
 20
16.854441
 30
0.0
 11
17.111445
 21
22.467018
 31
0.0
  0
LINE
  5
131
100
AcDbEntity
  8
BODEM-3_7
 62
     7
100
AcDbLine
 10
19.91782
 20
25.273393
 30
0.0
 11
25.530225
 21
30.88597
 31
0.0
  0
LINE
  5
130
100
AcDbEntity
  8
BODEM-3_7
 62
     7
100
AcDbLine
 10
28.336599
 20
33.692345
 30
0.0
 11
33.949349
 21
39.305094
 31
0.0
  0
LINE
  5
12F
100
AcDbEntity
  8
BODEM-3_7
 62
     7
100
AcDbLine
 10
36.755724
 20
42.111469
 30
0.0
 11
40.794065
 21
46.14981
 31
0.0
  0
LINE
  5
12E
100
AcDbEntity
  8
BODEM-3_7
 62
     7
100
AcDbLine
 10
-7.316694
 20
-24.411774
 30
0.0
 11
-5.339209
 21
-22.43429
 31
0.0
  0
LINE
  5
12D
100
AcDbEntity
  8
BODEM-3_7
 62
     7
100
AcDbLine
 10
-2.532834
 20
-19.627915
 30
0.0
 11
3.079571
 21
-14.015165
 31
0.0
  0
LINE
  5
12C
100
AcDbEntity
  8
BODEM-3_7
 62
     7
100
AcDbLine
 10
5.885946
 20
-11.20879
 30
0.0
 11
6.215641
 21
-10.879439
 31
0.0
  0
LINE
  5
12B
100
AcDbEntity
  8
BODEM-3_7
 62
     7
100
AcDbLine
 10
22.724194
 20
5.629114
 30
0.0
 11
28.336599
 21
11.241691
 31
0.0
  0
LINE
  5
12A
100
AcDbEntity
  8
BODEM-3_7
 62
     7
100
AcDbLine
 10
31.142974
 20
14.048066
 30
0.0
 11
36.755724
 21
19.660815
 31
0.0
  0
LINE
  5
129
100
AcDbEntity
  8
BODEM-3_7
 62
     7
100
AcDbLine
 10
39.562099
 20
22.467018
 30
0.0
 11
45.174504
 21
28.079595
 31
0.0
  0
LINE
  5
128
100
AcDbEntity
  8
BODEM-3_7
 62
     7
100
AcDbLine
 10
-7.316694
 20
-46.862084
 30
0.0
 11
-2.532834
 21
-42.078224
 31
0.0
  0
LINE
  5
127
100
AcDbEntity
  8
BODEM-3_7
 62
     7
100
AcDbLine
 10
0.273541
 20
-39.271849
 30
0.0
 11
5.885946
 21
-33.6591
 31
0.0
  0
LINE
  5
126
100
AcDbEntity
  8
BODEM-3_7
 62
     7
100
AcDbLine
 10
8.69232
 20
-30.853414
 30
0.0
 11
14.30507
 21
-25.240664
 31
0.0
  0
LINE
  5
125
100
AcDbEntity
  8
BODEM-3_7
 62
     7
100
AcDbLine
 10
17.111445
 20
-22.43429
 30
0.0
 11
17.443552
 21
-22.102182
 31
0.0
  0
LINE
  5
124
100
AcDbEntity
  8
BODEM-3_7
 62
     7
100
AcDbLine
 10
33.952105
 20
-5.593285
 30
0.0
 11
39.562099
 21
0.016709
 31
0.0
  0
LINE
  5
123
100
AcDbEntity
  8
BODEM-3_7
 62
     7
100
AcDbLine
 10
42.368473
 20
2.823083
 30
0.0
 11
47.683222
 21
8.137832
 31
0.0
  0
LINE
  5
122
100
AcDbEntity
  8
BODEM-3_7
 62
     7
100
AcDbLine
 10
-4.432115
 20
-66.428159
 30
0.0
 11
0.273541
 21
-61.722847
 31
0.0
  0
LINE
  5
121
100
AcDbEntity
  8
BODEM-3_7
 62
     7
100
AcDbLine
 10
3.079571
 20
-58.916473
 30
0.0
 11
8.69232
 21
-53.303723
 31
0.0
  0
LINE
  5
120
100
AcDbEntity
  8
BODEM-3_7
 62
     7
100
AcDbLine
 10
11.498695
 20
-50.497348
 30
0.0
 11
17.111445
 21
-44.884599
 31
0.0
  0
LINE
  5
11F
100
AcDbEntity
  8
BODEM-3_7
 62
     7
100
AcDbLine
 10
19.91782
 20
-42.078224
 30
0.0
 11
21.205252
 21
-40.791136
 31
0.0
  0
LINE
  5
11E
100
AcDbEntity
  8
BODEM-3_7
 62
     7
100
AcDbLine
 10
45.18036
 20
-16.816028
 30
0.0
 11
47.683222
 21
-14.312821
 31
0.0
  0
LINE
  5
11D
100
AcDbEntity
  8
BODEM-3_7
 62
     7
100
AcDbLine
 10
21.205252
 20
-40.791136
 30
0.0
 11
25.530225
 21
-36.465474
 31
0.0
  0
LINE
  5
11C
100
AcDbEntity
  8
BODEM-3_7
 62
     7
100
AcDbLine
 10
28.336599
 20
-33.6591
 30
0.0
 11
28.671463
 21
-33.324925
 31
0.0
  0
LINE
  5
11B
100
AcDbEntity
  8
BODEM-3_7
 62
     7
100
AcDbLine
 10
18.018538
 20
-66.428159
 30
0.0
 11
19.330775
 21
-65.115578
 31
0.0
  0
LINE
  5
11A
100
AcDbEntity
  8
BODEM-3_7
 62
     7
100
AcDbLine
 10
19.330775
 20
-65.115578
 30
0.0
 11
19.91782
 21
-64.529222
 31
0.0
  0
LINE
  5
119
100
AcDbEntity
  8
BODEM-3_7
 62
     7
100
AcDbLine
 10
22.724194
 20
-61.722847
 30
0.0
 11
28.336599
 21
-56.110098
 31
0.0
  0
LINE
  5
118
100
AcDbEntity
  8
BODEM-3_7
 62
     7
100
AcDbLine
 10
31.142974
 20
-53.303723
 30
0.0
 11
36.755724
 21
-47.690974
 31
0.0
  0
LINE
  5
117
100
AcDbEntity
  8
BODEM-3_7
 62
     7
100
AcDbLine
 10
39.562099
 20
-44.884599
 30
0.0
 11
39.899373
 21
-44.547668
 31
0.0
  0
LINE
  5
116
100
AcDbEntity
  8
BODEM-3_7
 62
     7
100
AcDbLine
 10
42.368473
 20
-64.529222
 30
0.0
 11
47.683222
 21
-59.214129
 31
0.0
  0
LINE
  5
115
100
AcDbEntity
  8
BODEM-3_7
 62
     7
100
AcDbLine
 10
-6.57152
 20
46.14981
 30
0.0
 11
-7.316694
 21
46.895329
 31
0.0
  0
LINE
  5
114
100
AcDbEntity
  8
BODEM-3_7
 62
     7
100
AcDbLine
 10
4.653979
 20
46.14981
 30
0.0
 11
-7.316694
 21
58.120483
 31
0.0
  0
LINE
  5
113
100
AcDbEntity
  8
BODEM-3_7
 62
     7
100
AcDbLine
 10
15.879134
 20
46.14981
 30
0.0
 11
-7.316694
 21
69.345983
 31
0.0
  0
LINE
  5
112
100
AcDbEntity
  8
BODEM-3_7
 62
     7
100
AcDbLine
 10
27.104633
 20
46.14981
 30
0.0
 11
0.994599
 21
72.259672
 31
0.0
  0
LINE
  5
111
100
AcDbEntity
  8
BODEM-3_7
 62
     7
100
AcDbLine
 10
38.329788
 20
46.14981
 30
0.0
 11
12.220098
 21
72.259672
 31
0.0
  0
LINE
  5
110
100
AcDbEntity
  8
BODEM-3_7
 62
     7
100
AcDbLine
 10
47.683222
 20
48.021875
 30
0.0
 11
23.445253
 21
72.259672
 31
0.0
  0
LINE
  5
10F
100
AcDbEntity
  8
BODEM-3_7
 62
     7
100
AcDbLine
 10
47.683222
 20
59.24703
 30
0.0
 11
34.670752
 21
72.259672
 31
0.0
  0
LINE
  5
10E
100
AcDbEntity
  8
BODEM-3_7
 62
     7
100
AcDbLine
 10
47.683222
 20
70.472529
 30
0.0
 11
45.895907
 21
72.259672
 31
0.0
  0
HATCH
  5
10D
100
AcDbEntity
  8
BODEM-3_7
 62
   154
100
AcDbHatch
 10
0.0
 20
0.0
 30
0.0
210
0.0
220
0.0
230
1.0
  2
SOLID
 70
     1
 71
     0
 91
        1
 92
        1
 93
        1
 72
     4
 94
        3
 73
     0
 74
     0
 95
       23
 96
       19
 40
0.0
 40
0.0
 40
0.0
 40
0.0
 40
1.0
 40
1.0
 40
1.0
 40
2.0
 40
2.0
 40
2.0
 40
3.0
 40
3.0
 40
3.0
 40
4.0
 40
4.0
 40
4.0
 40
5.0
 40
5.0
 40
5.0
 40
6.0
 40
6.0
 40
6.0
 40
6.0
 10
66.778697374131937
 20
-18.853457302517359
 10
66.778697374131937
 20
-18.853457302517359
 10
66.335658094618054
 20
-18.580605740017358
 10
65.733799913194431
 20
-18.292595757378471
 10
60.768383789062497
 20
-15.91754692925347
 10
61.979334852430547
 20
-20.730345323350694
 10
57.064906141493047
 20
-17.704862467447914
 10
56.371752929687496
 20
-17.279048665364581
 10
55.731998697916659
 20
-18.318089463975692
 10
56.425151909722217
 20
-18.744592285156248
 10
56.425151909722217
 20
-18.744592285156248
 10
56.867846679687496
 20
-19.017443847656249
 10
57.469704861111104
 20
-19.305453830295136
 10
62.428919813368047
 20
-21.679124620225693
 10
61.223825412326384
 20
-16.875972493489581
 10
66.139287651909711
 20
-19.892498101128471
 10
66.832096354166666
 20
-20.319689941406249
 10
67.471506076388877
 20
-19.279960123697915
 10
66.778697374131937
 20
-18.853457302517359
 97
        0
 75
     0
 76
     1
 98
        1
 10
0.0
 20
0.0
  0
HATCH
  5
10C
100
AcDbEntity
  8
BODEM-3_7
 62
   154
100
AcDbHatch
 10
0.0
 20
0.0
 30
0.0
210
0.0
220
0.0
230
1.0
  2
SOLID
 70
     1
 71
     0
 91
        1
 92
        1
 93
        1
 72
     4
 94
        3
 73
     0
 74
     0
 95
       23
 96
       19
 40
0.0
 40
0.0
 40
0.0
 40
0.0
 40
1.0
 40
1.0
 40
1.0
 40
2.0
 40
2.0
 40
2.0
 40
3.0
 40
3.0
 40
3.0
 40
4.0
 40
4.0
 40
4.0
 40
5.0
 40
5.0
 40
5.0
 40
6.0
 40
6.0
 40
6.0
 40
6.0
 10
66.778697374131937
 20
-21.719087727864583
 10
66.778697374131937
 20
-21.719087727864583
 10
66.335658094618054
 20
-21.445547146267359
 10
65.733799913194431
 20
-21.157537163628469
 10
60.768383789062497
 20
-18.783177354600692
 10
61.979334852430547
 20
-23.595286729600691
 10
57.064906141493047
 20
-20.570492892795137
 10
56.371752929687496
 20
-20.143990071614581
 10
55.731998697916659
 20
-21.183719889322916
 10
56.425151909722217
 20
-21.610222710503471
 10
56.425151909722217
 20
-21.610222710503471
 10
56.867846679687496
 20
-21.883074273003469
 10
57.469704861111104
 20
-22.171084255642359
 10
62.428919813368047
 20
-24.544066026475694
 10
61.223825412326384
 20
-19.740913899739581
 10
66.139287651909711
 20
-22.758817545572914
 10
66.832096354166666
 20
-23.184631347656246
 10
67.471506076388877
 20
-22.144901529947916
 10
66.778697374131937
 20
-21.719087727864583
 97
        0
 75
     0
 76
     1
 98
        1
 10
0.0
 20
0.0
  0
HATCH
  5
10B
100
AcDbEntity
  8
BODEM-3_7
 62
   154
100
AcDbHatch
 10
0.0
 20
0.0
 30
0.0
210
0.0
220
0.0
230
1.0
  2
SOLID
 70
     1
 71
     0
 91
        1
 92
        1
 93
        1
 72
     4
 94
        3
 73
     0
 74
     0
 95
       23
 96
       19
 40
0.0
 40
0.0
 40
0.0
 40
0.0
 40
1.0
 40
1.0
 40
1.0
 40
2.0
 40
2.0
 40
2.0
 40
3.0
 40
3.0
 40
3.0
 40
4.0
 40
4.0
 40
4.0
 40
5.0
 40
5.0
 40
5.0
 40
6.0
 40
6.0
 40
6.0
 40
6.0
 10
66.778697374131937
 20
-24.588852267795136
 10
66.778697374131937
 20
-24.588852267795136
 10
66.335658094618054
 20
-24.316000705295135
 10
65.733799913194431
 20
-24.028679741753471
 10
60.768383789062497
 20
-21.653630913628469
 10
61.979334852430547
 20
-26.465740288628471
 10
57.064906141493047
 20
-23.440946451822914
 10
56.371752929687496
 20
-23.014443630642358
 10
55.731998697916659
 20
-24.054173448350692
 10
56.425151909722217
 20
-24.480676269531248
 10
56.425151909722217
 20
-24.480676269531248
 10
56.867846679687496
 20
-24.753527832031249
 10
57.469704861111104
 20
-25.041537814670136
 10
62.428919813368047
 20
-27.41451958550347
 10
61.223825412326384
 20
-22.611367458767358
 10
66.139287651909711
 20
-25.628582085503471
 10
66.832096354166666
 20
-26.055084906684026
 10
67.471506076388877
 20
-25.015355088975692
 10
66.778697374131937
 20
-24.588852267795136
 97
        0
 75
     0
 76
     1
 98
        1
 10
0.0
 20
0.0
  0
HATCH
  5
10A
100
AcDbEntity
  8
BODEM-3_7
 62
   154
100
AcDbHatch
 10
0.0
 20
0.0
 30
0.0
210
0.0
220
0.0
230
1.0
  2
SOLID
 70
     1
 71
     0
 91
        1
 92
        1
 93
        1
 72
     4
 94
        3
 73
     0
 74
     0
 95
       23
 96
       19
 40
0.0
 40
0.0
 40
0.0
 40
0.0
 40
1.0
 40
1.0
 40
1.0
 40
2.0
 40
2.0
 40
2.0
 40
3.0
 40
3.0
 40
3.0
 40
4.0
 40
4.0
 40
4.0
 40
5.0
 40
5.0
 40
5.0
 40
6.0
 40
6.0
 40
6.0
 40
6.0
 10
66.778697374131937
 20
-27.459305826822913
 10
66.778697374131937
 20
-27.459305826822913
 10
66.335658094618054
 20
-27.186454264322915
 10
65.733799913194431
 20
-26.899133300781248
 10
60.768383789062497
 20
-24.523395453559026
 10
61.979334852430547
 20
-29.336193847656247
 10
57.064906141493047
 20
-26.311400010850694
 10
56.371752929687496
 20
-25.884897189670138
 10
55.731998697916659
 20
-26.923937988281249
 10
56.425151909722217
 20
-27.350440809461801
 10
56.425151909722217
 20
-27.350440809461801
 10
56.867846679687496
 20
-27.623981391059026
 10
57.469704861111104
 20
-27.911991373697916
 10
62.428919813368047
 20
-30.284973144531246
 10
61.223825412326384
 20
-25.481821017795138
 10
66.139287651909711
 20
-28.499035644531247
 10
66.832096354166666
 20
-28.925538465711803
 10
67.471506076388877
 20
-27.885808648003469
 10
66.778697374131937
 20
-27.459305826822913
 97
        0
 75
     0
 76
     1
 98
        1
 10
0.0
 20
0.0
  0
MTEXT
  5
109
100
AcDbEntity
  8
BODEM-3_7
 62
     7
100
AcDbMText
 10
-48.344508
 20
-64.09724
 30
0.0
 40
5.774636
 41
0.0
 71
     1
 72
     2
  1
\fArial|b0|i0;\H5.7746;\C7;\U+0032\U+0030
  7
STD
210
0.0
220
0.0
230
1.0
 73
     1
 44
1.0
  0
MTEXT
  5
108
100
AcDbEntity
  8
BODEM-3_7
 62
     7
100
AcDbMText
 10
-48.344508
 20
-54.219462
 30
0.0
 40
5.774636
 41
0.0
 71
     1
 72
     2
  1
\fArial|b0|i0;\H5.7746;\C7;\U+0053\U+0074\U+0061\U+006E\U+0064\U+0061\U+0072\U+0064
  7
STD
210
0.0
220
0.0
230
1.0
 73
     1
 44
1.0
  0
MTEXT
  5
107
100
AcDbEntity
  8
BODEM-3_7
 62
     7
100
AcDbMText
 10
-48.344508
 20
-44.341685
 30
0.0
 40
5.774636
 41
0.0
 71
     1
 72
     2
  1
\fArial|b0|i0;\H5.7746;\C7;\U+0046\U+0048\U+0052\U+004B\U+002D
  7
STD
210
0.0
220
0.0
230
1.0
 73
     1
 44
1.0
  0
MTEXT
  5
106
100
AcDbEntity
  8
BODEM-3_7
 62
     7
100
AcDbMText
 10
-72.102403
 20
-15.823873
 30
0.0
 40
5.774636
 41
0.0
 71
     1
 72
     2
  1
\fArial|b0|i0;\H5.7746;\C7;\U+004B\U+0065\U+0072\U+006E\U+0062\U+006F\U+0068\U+0072\U+0075\U+006E\U+0067
  7
STD
210
0.0
220
0.0
230
1.0
 73
     1
 44
1.0
  0
LINE
  5
105
100
AcDbEntity
  8
BODEM-3_7
 62
     7
100
AcDbLine
 10
-42.372263
 20
54.5052
 30
0.0
 11
-42.372607
 21
54.869864
 31
0.0
  0
LINE
  5
104
100
AcDbEntity
  8
BODEM-3_7
 62
     7
100
AcDbLine
 10
-43.073684
 20
53.311647
 30
0.0
 11
-43.073684
 21
53.335246
 31
0.0
  0
LINE
  5
103
100
AcDbEntity
  8
BODEM-3_7
 62
     7
100
AcDbLine
 10
-41.495831
 20
55.582309
 30
0.0
 11
-41.495831
 21
56.134386
 31
0.0
  0
LINE
  5
102
100
AcDbEntity
  8
BODEM-3_7
 62
     7
100
AcDbLine
 10
-40.621465
 20
54.815603
 30
0.0
 11
-40.621465
 21
55.213167
 31
0.0
  0
LINE
  5
101
100
AcDbEntity
  8
BODEM-3_7
 62
     7
100
AcDbLine
 10
-39.040511
 20
56.026382
 30
0.0
 11
-39.040511
 21
56.731421
 31
0.0
  0
LINE
  5
100
100
AcDbEntity
  8
BODEM-3_7
 62
     7
100
AcDbLine
 10
-38.865156
 20
56.183823
 30
0.0
 11
-38.8655
 21
56.918317
 31
0.0
  0
LINE
  5
FF
100
AcDbEntity
  8
BODEM-3_7
 62
     7
100
AcDbLine
 10
-40.092988
 20
57.058705
 30
0.0
 11
-40.093332
 21
57.760815
 31
0.0
  0
LINE
  5
FE
100
AcDbEntity
  8
BODEM-3_7
 62
     7
100
AcDbLine
 10
-39.917632
 20
57.225448
 30
0.0
 11
-39.917977
 21
57.937893
 31
0.0
  0
LINE
  5
FD
100
AcDbEntity
  8
BODEM-3_7
 62
     7
100
AcDbLine
 10
-38.6898
 20
56.346604
 30
0.0
 11
-38.690145
 21
57.109348
 31
0.0
  0
LINE
  5
FC
100
AcDbEntity
  8
BODEM-3_7
 62
     7
100
AcDbLine
 10
-38.514445
 20
56.515069
 30
0.0
 11
-38.514789
 21
57.304513
 31
0.0
  0
LINE
  5
FB
100
AcDbEntity
  8
BODEM-3_7
 62
     7
100
AcDbLine
 10
-38.33909
 20
56.689391
 30
0.0
 11
-38.339434
 21
57.503122
 31
0.0
  0
LINE
  5
FA
100
AcDbEntity
  8
BODEM-3_7
 62
     7
100
AcDbLine
 10
-38.163734
 20
56.869914
 30
0.0
 11
-38.164079
 21
58.649133
 31
0.0
  0
LINE
  5
F9
100
AcDbEntity
  8
BODEM-3_7
 62
     7
100
AcDbLine
 10
-37.988379
 20
57.056982
 30
0.0
 11
-37.988723
 21
58.52356
 31
0.0
  0
LINE
  5
F8
100
AcDbEntity
  8
BODEM-3_7
 62
     7
100
AcDbLine
 10
-37.813024
 20
57.270406
 30
0.0
 11
-37.813368
 21
58.315304
 31
0.0
  0
LINE
  5
F7
100
AcDbEntity
  8
BODEM-3_7
 62
     7
100
AcDbLine
 10
-39.742277
 20
57.388573
 30
0.0
 11
-39.742622
 21
58.110148
 31
0.0
  0
LINE
  5
F6
100
AcDbEntity
  8
BODEM-3_7
 62
     7
100
AcDbLine
 10
-39.566922
 20
57.548253
 30
0.0
 11
-39.567266
 21
58.27758
 31
0.0
  0
LINE
  5
F5
100
AcDbEntity
  8
BODEM-3_7
 62
     7
100
AcDbLine
 10
-39.391566
 20
57.70466
 30
0.0
 11
-39.391911
 21
58.440361
 31
0.0
  0
LINE
  5
F4
100
AcDbEntity
  8
BODEM-3_7
 62
     7
100
AcDbLine
 10
-39.216211
 20
57.857623
 30
0.0
 11
-39.216555
 21
58.591428
 31
0.0
  0
LINE
  5
F3
100
AcDbEntity
  8
BODEM-3_7
 62
     7
100
AcDbLine
 10
-39.040856
 20
58.007484
 30
0.0
 11
-39.0412
 21
58.691336
 31
0.0
  0
LINE
  5
F2
100
AcDbEntity
  8
BODEM-3_7
 62
     7
100
AcDbLine
 10
-38.8655
 20
58.151145
 30
0.0
 11
-38.865845
 21
58.749558
 31
0.0
  0
LINE
  5
F1
100
AcDbEntity
  8
BODEM-3_7
 62
     7
100
AcDbLine
 10
-38.690145
 20
58.211089
 30
0.0
 11
-38.690489
 21
58.773674
 31
0.0
  0
LINE
  5
F0
100
AcDbEntity
  8
BODEM-3_7
 62
     7
100
AcDbLine
 10
-38.514789
 20
58.193003
 30
0.0
 11
-38.515134
 21
58.766094
 31
0.0
  0
LINE
  5
EF
100
AcDbEntity
  8
BODEM-3_7
 62
     7
100
AcDbLine
 10
-40.443354
 20
54.935148
 30
0.0
 11
-40.443354
 21
55.370608
 31
0.0
  0
LINE
  5
EE
100
AcDbEntity
  8
BODEM-3_7
 62
     7
100
AcDbLine
 10
-40.267999
 20
55.05676
 30
0.0
 11
-40.267999
 21
55.528738
 31
0.0
  0
LINE
  5
ED
100
AcDbEntity
  8
BODEM-3_7
 62
     7
100
AcDbLine
 10
-40.092643
 20
55.182161
 30
0.0
 11
-40.092643
 21
55.690141
 31
0.0
  0
LINE
  5
EC
100
AcDbEntity
  8
BODEM-3_7
 62
     7
100
AcDbLine
 10
-39.917288
 20
55.311869
 30
0.0
 11
-39.917288
 21
55.854816
 31
0.0
  0
LINE
  5
EB
100
AcDbEntity
  8
BODEM-3_7
 62
     7
100
AcDbLine
 10
-39.741933
 20
55.445711
 30
0.0
 11
-39.741933
 21
56.022937
 31
0.0
  0
LINE
  5
EA
100
AcDbEntity
  8
BODEM-3_7
 62
     7
100
AcDbLine
 10
-39.566577
 20
55.58386
 30
0.0
 11
-39.566577
 21
56.194503
 31
0.0
  0
LINE
  5
E9
100
AcDbEntity
  8
BODEM-3_7
 62
     7
100
AcDbLine
 10
-39.391222
 20
55.726659
 30
0.0
 11
-39.391222
 21
56.369686
 31
0.0
  0
LINE
  5
E8
100
AcDbEntity
  8
BODEM-3_7
 62
     7
100
AcDbLine
 10
-39.215866
 20
55.873937
 30
0.0
 11
-39.215866
 21
56.548831
 31
0.0
  0
LINE
  5
E7
100
AcDbEntity
  8
BODEM-3_7
 62
     7
100
AcDbLine
 10
-40.794409
 20
56.354183
 30
0.0
 11
-40.794409
 21
56.998071
 31
0.0
  0
LINE
  5
E6
100
AcDbEntity
  8
BODEM-3_7
 62
     7
100
AcDbLine
 10
-40.969765
 20
56.167803
 30
0.0
 11
-40.969765
 21
56.792571
 31
0.0
  0
LINE
  5
E5
100
AcDbEntity
  8
BODEM-3_7
 62
     7
100
AcDbLine
 10
-41.14512
 20
55.977289
 30
0.0
 11
-41.14512
 21
56.580353
 31
0.0
  0
LINE
  5
E4
100
AcDbEntity
  8
BODEM-3_7
 62
     7
100
AcDbLine
 10
-41.320475
 20
55.782125
 30
0.0
 11
-41.320475
 21
56.361073
 31
0.0
  0
LINE
  5
E3
100
AcDbEntity
  8
BODEM-3_7
 62
     7
100
AcDbLine
 10
-40.619054
 20
56.536256
 30
0.0
 11
-40.619398
 21
57.197542
 31
0.0
  0
LINE
  5
E2
100
AcDbEntity
  8
BODEM-3_7
 62
     7
100
AcDbLine
 10
-40.443698
 20
56.714195
 30
0.0
 11
-40.444043
 21
57.390812
 31
0.0
  0
LINE
  5
E1
100
AcDbEntity
  8
BODEM-3_7
 62
     7
100
AcDbLine
 10
-40.268343
 20
56.888517
 30
0.0
 11
-40.268688
 21
57.57857
 31
0.0
  0
LINE
  5
E0
100
AcDbEntity
  8
BODEM-3_7
 62
     7
100
AcDbLine
 10
-42.547618
 20
53.613265
 30
0.0
 11
-42.547618
 21
53.696464
 31
0.0
  0
LINE
  5
DF
100
AcDbEntity
  8
BODEM-3_7
 62
     7
100
AcDbLine
 10
-42.898329
 20
53.787415
 30
0.0
 11
-42.898329
 21
53.977067
 31
0.0
  0
LINE
  5
DE
100
AcDbEntity
  8
BODEM-3_7
 62
     7
100
AcDbLine
 10
-40.794065
 20
54.701398
 30
0.0
 11
-40.794065
 21
55.06365
 31
0.0
  0
LINE
  5
DD
100
AcDbEntity
  8
BODEM-3_7
 62
     7
100
AcDbLine
 10
-40.96942
 20
54.586677
 30
0.0
 11
-40.96942
 21
54.914478
 31
0.0
  0
LINE
  5
DC
100
AcDbEntity
  8
BODEM-3_7
 62
     7
100
AcDbLine
 10
-41.144775
 20
54.473161
 30
0.0
 11
-41.144775
 21
54.768405
 31
0.0
  0
LINE
  5
DB
100
AcDbEntity
  8
BODEM-3_7
 62
     7
100
AcDbLine
 10
-41.320131
 20
54.361195
 30
0.0
 11
-41.320131
 21
54.62509
 31
0.0
  0
LINE
  5
DA
100
AcDbEntity
  8
BODEM-3_7
 62
     7
100
AcDbLine
 10
-41.495486
 20
54.250608
 30
0.0
 11
-41.495486
 21
54.484702
 31
0.0
  0
LINE
  5
D9
100
AcDbEntity
  8
BODEM-3_7
 62
     7
100
AcDbLine
 10
-41.670841
 20
54.141054
 30
0.0
 11
-41.670841
 21
54.346898
 31
0.0
  0
LINE
  5
D8
100
AcDbEntity
  8
BODEM-3_7
 62
     7
100
AcDbLine
 10
-41.846197
 20
54.03305
 30
0.0
 11
-41.846197
 21
54.211678
 31
0.0
  0
LINE
  5
D7
100
AcDbEntity
  8
BODEM-3_7
 62
     7
100
AcDbLine
 10
-42.021552
 20
53.926252
 30
0.0
 11
-42.021552
 21
54.079042
 31
0.0
  0
LINE
  5
D6
100
AcDbEntity
  8
BODEM-3_7
 62
     7
100
AcDbLine
 10
-42.196908
 20
53.82066
 30
0.0
 11
-42.196908
 21
53.949162
 31
0.0
  0
LINE
  5
D5
100
AcDbEntity
  8
BODEM-3_7
 62
     7
100
AcDbLine
 10
-42.372263
 20
53.716446
 30
0.0
 11
-42.372263
 21
53.821693
 31
0.0
  0
LINE
  5
D4
100
AcDbEntity
  8
BODEM-3_7
 62
     7
100
AcDbLine
 10
-42.722974
 20
54.033394
 30
0.0
 11
-42.722974
 21
54.288504
 31
0.0
  0
LINE
  5
D3
100
AcDbEntity
  8
BODEM-3_7
 62
     7
100
AcDbLine
 10
-41.671186
 20
55.377498
 30
0.0
 11
-41.671186
 21
55.899775
 31
0.0
  0
LINE
  5
D2
100
AcDbEntity
  8
BODEM-3_7
 62
     7
100
AcDbLine
 10
-41.846541
 20
55.167692
 30
0.0
 11
-41.846541
 21
55.656896
 31
0.0
  0
LINE
  5
D1
100
AcDbEntity
  8
BODEM-3_7
 62
     7
100
AcDbLine
 10
-42.021897
 20
54.952718
 30
0.0
 11
-42.021897
 21
55.404715
 31
0.0
  0
LINE
  5
D0
100
AcDbEntity
  8
BODEM-3_7
 62
     7
100
AcDbLine
 10
-42.197252
 20
54.731887
 30
0.0
 11
-42.197252
 21
55.142543
 31
0.0
  0
LINE
  5
CF
100
AcDbEntity
  8
BODEM-3_7
 62
     7
100
AcDbLine
 10
-42.547618
 20
54.272656
 30
0.0
 11
-42.547963
 21
54.585471
 31
0.0
  0
LINE
  5
CE
100
AcDbEntity
  8
BODEM-3_7
 62
     7
100
AcDbLine
 10
-42.722974
 20
53.511635
 30
0.0
 11
-42.722974
 21
53.573646
 31
0.0
  0
LINE
  5
CD
100
AcDbEntity
  8
BODEM-3_7
 62
     7
100
AcDbLine
 10
-43.073684
 20
53.534028
 30
0.0
 11
-43.073684
 21
53.650127
 31
0.0
  0
LINE
  5
CC
100
AcDbEntity
  8
BODEM-3_7
 62
     7
100
AcDbLine
 10
-42.898329
 20
53.411038
 30
0.0
 11
-42.898329
 21
53.453413
 31
0.0
  0
LINE
  5
CB
100
AcDbEntity
  8
BODEM-3_7
 62
     7
100
AcDbLine
 10
-43.24904
 20
53.273234
 30
0.0
 11
-43.24904
 21
53.305618
 31
0.0
  0
LINE
  5
CA
100
AcDbEntity
  8
BODEM-3_7
 62
     7
100
AcDbLine
 10
65.812348
 20
-57.69622
 30
0.0
 11
65.812348
 21
-58.340453
 31
0.0
  0
LINE
  5
C9
100
AcDbEntity
  8
BODEM-3_7
 62
     7
100
AcDbLine
 10
65.987703
 20
-57.510185
 30
0.0
 11
65.987703
 21
-58.134436
 31
0.0
  0
LINE
  5
C8
100
AcDbEntity
  8
BODEM-3_7
 62
     7
100
AcDbLine
 10
64.759871
 20
-56.787404
 30
0.0
 11
64.759871
 21
-57.364802
 31
0.0
  0
LINE
  5
C7
100
AcDbEntity
  8
BODEM-3_7
 62
     7
100
AcDbLine
 10
67.039491
 20
-55.268117
 30
0.0
 11
67.039491
 21
-55.421079
 31
0.0
  0
LINE
  5
C6
100
AcDbEntity
  8
BODEM-3_7
 62
     7
100
AcDbLine
 10
64.935227
 20
-56.653734
 30
0.0
 11
64.935227
 21
-57.196681
 31
0.0
  0
LINE
  5
C5
100
AcDbEntity
  8
BODEM-3_7
 62
     7
100
AcDbLine
 10
67.740913
 20
-54.853327
 30
0.0
 11
67.740913
 21
-54.916028
 31
0.0
  0
LINE
  5
C4
100
AcDbEntity
  8
BODEM-3_7
 62
     7
100
AcDbLine
 10
66.68878
 20
-55.483091
 30
0.0
 11
66.68878
 21
-55.689107
 31
0.0
  0
LINE
  5
C3
100
AcDbEntity
  8
BODEM-3_7
 62
     7
100
AcDbLine
 10
66.864136
 20
-55.374915
 30
0.0
 11
66.864136
 21
-55.55406
 31
0.0
  0
LINE
  5
C2
100
AcDbEntity
  8
BODEM-3_7
 62
     7
100
AcDbLine
 10
67.390202
 20
-55.058655
 30
0.0
 11
67.390202
 21
-55.163386
 31
0.0
  0
LINE
  5
C1
100
AcDbEntity
  8
BODEM-3_7
 62
     7
100
AcDbLine
 10
67.214846
 20
-55.162697
 30
0.0
 11
67.214846
 21
-55.290854
 31
0.0
  0
LINE
  5
C0
100
AcDbEntity
  8
BODEM-3_7
 62
     7
100
AcDbLine
 10
67.916268
 20
-55.129624
 30
0.0
 11
67.916268
 21
-55.319104
 31
0.0
  0
LINE
  5
BF
100
AcDbEntity
  8
BODEM-3_7
 62
     7
100
AcDbLine
 10
67.565557
 20
-54.955302
 30
0.0
 11
67.565557
 21
-55.038673
 31
0.0
  0
LINE
  5
BE
100
AcDbEntity
  8
BODEM-3_7
 62
     7
100
AcDbLine
 10
67.916268
 20
-54.75273
 30
0.0
 11
67.916268
 21
-54.795449
 31
0.0
  0
LINE
  5
BD
100
AcDbEntity
  8
BODEM-3_7
 62
     7
100
AcDbLine
 10
67.740913
 20
-55.375604
 30
0.0
 11
67.740913
 21
-55.630541
 31
0.0
  0
LINE
  5
BC
100
AcDbEntity
  8
BODEM-3_7
 62
     7
100
AcDbLine
 10
68.091623
 20
-54.653512
 30
0.0
 11
68.091623
 21
-54.677627
 31
0.0
  0
LINE
  5
BB
100
AcDbEntity
  8
BODEM-3_7
 62
     7
100
AcDbLine
 10
64.584861
 20
-58.89029
 30
0.0
 11
64.585205
 21
-59.619272
 31
0.0
  0
LINE
  5
BA
100
AcDbEntity
  8
BODEM-3_7
 62
     7
100
AcDbLine
 10
68.091623
 20
-54.876065
 30
0.0
 11
68.091623
 21
-54.992509
 31
0.0
  0
LINE
  5
B9
100
AcDbEntity
  8
BODEM-3_7
 62
     7
100
AcDbLine
 10
67.390202
 20
-55.847582
 30
0.0
 11
67.390546
 21
-56.212073
 31
0.0
  0
LINE
  5
B8
100
AcDbEntity
  8
BODEM-3_7
 62
     7
100
AcDbLine
 10
68.266979
 20
-54.614926
 30
0.0
 11
68.266979
 21
-54.64731
 31
0.0
  0
LINE
  5
B7
100
AcDbEntity
  8
BODEM-3_7
 62
     7
100
AcDbLine
 10
65.812004
 20
-56.043263
 30
0.0
 11
65.812004
 21
-56.405687
 31
0.0
  0
LINE
  5
B6
100
AcDbEntity
  8
BODEM-3_7
 62
     7
100
AcDbLine
 10
66.163059
 20
-57.319326
 30
0.0
 11
66.163059
 21
-57.922218
 31
0.0
  0
LINE
  5
B5
100
AcDbEntity
  8
BODEM-3_7
 62
     7
100
AcDbLine
 10
67.565557
 20
-55.614693
 30
0.0
 11
67.565902
 21
-55.927508
 31
0.0
  0
LINE
  5
B4
100
AcDbEntity
  8
BODEM-3_7
 62
     7
100
AcDbLine
 10
65.987359
 20
-55.928886
 30
0.0
 11
65.987359
 21
-56.256859
 31
0.0
  0
LINE
  5
B3
100
AcDbEntity
  8
BODEM-3_7
 62
     7
100
AcDbLine
 10
66.33807
 20
-55.703577
 30
0.0
 11
66.33807
 21
-55.967471
 31
0.0
  0
LINE
  5
B2
100
AcDbEntity
  8
BODEM-3_7
 62
     7
100
AcDbLine
 10
66.162714
 20
-55.815198
 30
0.0
 11
66.162714
 21
-56.110787
 31
0.0
  0
LINE
  5
B1
100
AcDbEntity
  8
BODEM-3_7
 62
     7
100
AcDbLine
 10
64.409161
 20
-57.068523
 30
0.0
 11
64.409161
 21
-57.712067
 31
0.0
  0
LINE
  5
B0
100
AcDbEntity
  8
BODEM-3_7
 62
     7
100
AcDbLine
 10
66.513425
 20
-55.592645
 30
0.0
 11
66.513425
 21
-55.826911
 31
0.0
  0
LINE
  5
AF
100
AcDbEntity
  8
BODEM-3_7
 62
     7
100
AcDbLine
 10
65.461293
 20
-56.276841
 30
0.0
 11
65.461293
 21
-56.712301
 31
0.0
  0
LINE
  5
AE
100
AcDbEntity
  8
BODEM-3_7
 62
     7
100
AcDbLine
 10
65.285937
 20
-56.398797
 30
0.0
 11
65.285937
 21
-56.870775
 31
0.0
  0
LINE
  5
AD
100
AcDbEntity
  8
BODEM-3_7
 62
     7
100
AcDbLine
 10
65.110582
 20
-56.524198
 30
0.0
 11
65.110582
 21
-57.032005
 31
0.0
  0
LINE
  5
AC
100
AcDbEntity
  8
BODEM-3_7
 62
     7
100
AcDbLine
 10
65.639404
 20
-56.15764
 30
0.0
 11
65.639404
 21
-56.555204
 31
0.0
  0
LINE
  5
AB
100
AcDbEntity
  8
BODEM-3_7
 62
     7
100
AcDbLine
 10
66.338414
 20
-57.124334
 30
0.0
 11
66.338414
 21
-57.70311
 31
0.0
  0
LINE
  5
AA
100
AcDbEntity
  8
BODEM-3_7
 62
     7
100
AcDbLine
 10
66.51377
 20
-56.924519
 30
0.0
 11
66.51377
 21
-57.476423
 31
0.0
  0
LINE
  5
A9
100
AcDbEntity
  8
BODEM-3_7
 62
     7
100
AcDbLine
 10
66.689125
 20
-56.71988
 30
0.0
 11
66.689125
 21
-57.242156
 31
0.0
  0
LINE
  5
A8
100
AcDbEntity
  8
BODEM-3_7
 62
     7
100
AcDbLine
 10
66.86448
 20
-56.509729
 30
0.0
 11
66.86448
 21
-56.998933
 31
0.0
  0
LINE
  5
A7
100
AcDbEntity
  8
BODEM-3_7
 62
     7
100
AcDbLine
 10
67.039836
 20
-56.294755
 30
0.0
 11
67.039836
 21
-56.746752
 31
0.0
  0
LINE
  5
A6
100
AcDbEntity
  8
BODEM-3_7
 62
     7
100
AcDbLine
 10
67.214846
 20
-56.07358
 30
0.0
 11
67.215191
 21
-56.484235
 31
0.0
  0
LINE
  5
A5
100
AcDbEntity
  8
BODEM-3_7
 62
     7
100
AcDbLine
 10
63.357029
 20
-58.031083
 30
0.0
 11
63.357373
 21
-58.845504
 31
0.0
  0
LINE
  5
A4
100
AcDbEntity
  8
BODEM-3_7
 62
     7
100
AcDbLine
 10
63.181673
 20
-58.211606
 30
0.0
 11
63.182018
 21
-59.991343
 31
0.0
  0
LINE
  5
A3
100
AcDbEntity
  8
BODEM-3_7
 62
     7
100
AcDbLine
 10
64.23415
 20
-59.19966
 30
0.0
 11
64.234494
 21
-59.933465
 31
0.0
  0
LINE
  5
A2
100
AcDbEntity
  8
BODEM-3_7
 62
     7
100
AcDbLine
 10
64.058794
 20
-59.349866
 30
0.0
 11
64.059139
 21
-60.033373
 31
0.0
  0
LINE
  5
A1
100
AcDbEntity
  8
BODEM-3_7
 62
     7
100
AcDbLine
 10
65.636993
 20
-57.878121
 30
0.0
 11
65.636993
 21
-58.539579
 31
0.0
  0
LINE
  5
A0
100
AcDbEntity
  8
BODEM-3_7
 62
     7
100
AcDbLine
 10
65.461637
 20
-58.056577
 30
0.0
 11
65.461637
 21
-58.732505
 31
0.0
  0
LINE
  5
9F
100
AcDbEntity
  8
BODEM-3_7
 62
     7
100
AcDbLine
 10
65.286282
 20
-58.23021
 30
0.0
 11
65.286627
 21
-58.920607
 31
0.0
  0
LINE
  5
9E
100
AcDbEntity
  8
BODEM-3_7
 62
     7
100
AcDbLine
 10
65.110927
 20
-58.401086
 30
0.0
 11
65.111271
 21
-59.102508
 31
0.0
  0
LINE
  5
9D
100
AcDbEntity
  8
BODEM-3_7
 62
     7
100
AcDbLine
 10
64.935571
 20
-58.56714
 30
0.0
 11
64.935916
 21
-59.279586
 31
0.0
  0
LINE
  5
9C
100
AcDbEntity
  8
BODEM-3_7
 62
     7
100
AcDbLine
 10
64.760216
 20
-58.730438
 30
0.0
 11
64.76056
 21
-59.451841
 31
0.0
  0
LINE
  5
9B
100
AcDbEntity
  8
BODEM-3_7
 62
     7
100
AcDbLine
 10
64.233805
 20
-57.215974
 30
0.0
 11
64.233805
 21
-57.890523
 31
0.0
  0
LINE
  5
9A
100
AcDbEntity
  8
BODEM-3_7
 62
     7
100
AcDbLine
 10
64.584516
 20
-56.925897
 30
0.0
 11
64.584516
 21
-57.536367
 31
0.0
  0
LINE
  5
99
100
AcDbEntity
  8
BODEM-3_7
 62
     7
100
AcDbLine
 10
64.05845
 20
-57.368247
 30
0.0
 11
64.05845
 21
-58.073802
 31
0.0
  0
LINE
  5
98
100
AcDbEntity
  8
BODEM-3_7
 62
     7
100
AcDbLine
 10
63.532384
 20
-57.856761
 30
0.0
 11
63.532728
 21
-58.646377
 31
0.0
  0
LINE
  5
97
100
AcDbEntity
  8
BODEM-3_7
 62
     7
100
AcDbLine
 10
63.883095
 20
-57.526032
 30
0.0
 11
63.883095
 21
-58.260527
 31
0.0
  0
LINE
  5
96
100
AcDbEntity
  8
BODEM-3_7
 62
     7
100
AcDbLine
 10
63.883439
 20
-59.493182
 30
0.0
 11
63.883784
 21
-60.091939
 31
0.0
  0
LINE
  5
95
100
AcDbEntity
  8
BODEM-3_7
 62
     7
100
AcDbLine
 10
64.409505
 20
-59.046697
 30
0.0
 11
64.40985
 21
-59.78257
 31
0.0
  0
LINE
  5
94
100
AcDbEntity
  8
BODEM-3_7
 62
     7
100
AcDbLine
 10
63.707739
 20
-57.688641
 30
0.0
 11
63.708084
 21
-58.451385
 31
0.0
  0
LINE
  5
93
100
AcDbEntity
  8
BODEM-3_7
 62
     7
100
AcDbLine
 10
63.357373
 20
-59.42428
 30
0.0
 11
63.357373
 21
-60.068513
 31
0.0
  0
LINE
  5
92
100
AcDbEntity
  8
BODEM-3_7
 62
     7
100
AcDbLine
 10
63.006318
 20
-58.399019
 30
0.0
 11
63.006662
 21
-59.865252
 31
0.0
  0
LINE
  5
91
100
AcDbEntity
  8
BODEM-3_7
 62
     7
100
AcDbLine
 10
62.830962
 20
-58.612615
 30
0.0
 11
62.831307
 21
-59.657168
 31
0.0
  0
LINE
  5
90
100
AcDbEntity
  8
BODEM-3_7
 62
     7
100
AcDbLine
 10
63.532728
 20
-59.535212
 30
0.0
 11
63.533073
 21
-60.108476
 31
0.0
  0
LINE
  5
8F
100
AcDbEntity
  8
BODEM-3_7
 62
     7
100
AcDbLine
 10
63.708084
 20
-59.553126
 30
0.0
 11
63.708428
 21
-60.116055
 31
0.0
  0
LINE
  5
8E
100
AcDbEntity
  8
BODEM-3_7
  6
AI9-LType2
 62
     7
100
AcDbLine
 10
-43.637991
 20
55.443644
 30
0.0
 11
71.726544
 21
-59.825978
 31
0.0
  0
LINE
  5
8C
100
AcDbEntity
  8
BODEM-3_7
 62
     7
100
AcDbLine
 10
-17.815278
 20
46.14981
 30
0.0
 11
47.683222
 21
-19.317856
 31
0.0
  0
LINE
  5
8B
100
AcDbEntity
  8
BODEM-3_7
 62
     7
100
AcDbLine
 10
25.003125
 20
-25.518339
 30
0.0
 11
-18.790412
 21
-49.607136
 31
0.0
  0
LINE
  5
8A
100
AcDbEntity
  8
BODEM-3_7
 62
     7
100
AcDbLine
 10
-27.290324
 20
22.610851
 30
0.0
 11
-47.028826
 21
-15.327747
 31
0.0
  0
LINE
  5
89
100
AcDbEntity
  8
BODEM-3_7
 62
     7
100
AcDbLine
 10
47.683222
 20
46.14981
 30
0.0
 11
-25.599471
 21
46.14981
 31
0.0
  0
LINE
  5
88
100
AcDbEntity
  8
BODEM-3_7
 62
     7
100
AcDbLine
 10
-62.933282
 20
46.14981
 30
0.0
 11
-71.530862
 21
46.14981
 31
0.0
  0
LINE
  5
87
100
AcDbEntity
  8
BODEM-3_7
 62
     7
100
AcDbLine
 10
-71.530862
 20
-8.850278
 30
0.0
 11
-48.196197
 21
-8.850278
 31
0.0
  0
LINE
  5
86
100
AcDbEntity
  8
BODEM-3_7
 62
     7
100
AcDbLine
 10
-48.196197
 20
-8.850278
 30
0.0
 11
-7.316694
 21
-8.850278
 31
0.0
  0
LINE
  5
85
100
AcDbEntity
  8
BODEM-3_7
 62
     7
100
AcDbLine
 10
-50.840308
 20
46.14981
 30
0.0
 11
47.683222
 21
-52.327383
 31
0.0
  0
LINE
  5
84
100
AcDbEntity
  8
BODEM-3_7
 62
     7
100
AcDbLine
 10
37.877791
 20
-17.504358
 30
0.0
 11
71.696916
 21
-51.096795
 31
0.0
  0
LINE
  5
83
100
AcDbEntity
  8
BODEM-3_7
 62
     7
100
AcDbLine
 10
-46.914621
 20
50.013829
 30
0.0
 11
23.657471
 21
-20.296263
 31
0.0
  0
LINE
  5
82
100
AcDbEntity
  8
BODEM-3_7
 62
     7
100
AcDbLine
 10
-37.656961
 20
58.217291
 30
0.0
 11
32.475882
 21
-11.889541
 31
0.0
  0
LINE
  5
81
100
AcDbEntity
  8
BODEM-3_7
 62
     7
100
AcDbLine
 10
29.146541
 20
-26.081268
 30
0.0
 11
62.968422
 21
-59.829423
 31
0.0
  0
SPLINE
  5
80
100
AcDbEntity
  8
BODEM-3_7
 62
     7
100
AcDbSpline
210
0.0
220
0.0
230
1.0
 70
     8
 71
     3
 72
     8
 73
     4
 74
     0
 42
0.00000001
 43
0.00000001
 40
0.0
 40
0.0
 40
0.0
 40
0.0
 40
1.0
 40
1.0
 40
1.0
 40
1.0
 10
-39.281323242187497
 20
58.540612792968744
 30
0.0
 10
-40.958395724826389
 20
57.03045518663194
 30
0.0
 10
-42.326787651909719
 20
55.209722222222219
 30
0.0
 10
-43.311051432291663
 20
53.17918294270833
 30
0.0
  0
SPLINE
  5
7F
100
AcDbEntity
  8
BODEM-3_7
 62
     7
100
AcDbSpline
210
0.0
220
0.0
230
1.0
 70
     8
 71
     3
 72
     8
 73
     4
 74
     0
 42
0.00000001
 43
0.00000001
 40
0.0
 40
0.0
 40
0.0
 40
0.0
 40
1.0
 40
1.0
 40
1.0
 40
1.0
 10
-43.311051432291663
 20
53.17918294270833
 30
0.0
 10
-42.337467447916666
 20
53.718340386284716
 30
0.0
 10
-41.387654622395829
 20
54.29952799479166
 30
0.0
 10
-40.46436903211805
 20
54.9208509657118
 30
0.0
  0
SPLINE
  5
7E
100
AcDbEntity
  8
BODEM-3_7
 62
     7
100
AcDbSpline
210
0.0
220
0.0
230
1.0
 70
     8
 71
     3
 72
     8
 73
     4
 74
     0
 42
0.00000001
 43
0.00000001
 40
0.0
 40
0.0
 40
0.0
 40
0.0
 40
1.0
 40
1.0
 40
1.0
 40
1.0
 10
-40.64385850694444
 20
54.800789388020831
 30
0.0
 10
-39.626521809895827
 20
55.46999918619791
 30
0.0
 10
-38.69944661458333
 20
56.266505262586797
 30
0.0
 10
-37.884681532118051
 20
57.171015082465274
 30
0.0
  0
SPLINE
  5
7D
100
AcDbEntity
  8
BODEM-3_7
 62
     7
100
AcDbSpline
210
0.0
220
0.0
230
1.0
 70
     8
 71
     3
 72
     8
 73
     4
 74
     0
 42
0.00000001
 43
0.00000001
 40
0.0
 40
0.0
 40
0.0
 40
0.0
 40
1.0
 40
1.0
 40
1.0
 40
1.0
 10
-38.942670355902777
 20
58.090166558159716
 30
0.0
 10
-40.632489691840277
 20
56.677332899305547
 30
0.0
 10
-42.104578993055554
 20
55.022309027777773
 30
0.0
 10
-43.311051432291663
 20
53.17918294270833
 30
0.0
  0
SPLINE
  5
7C
100
AcDbEntity
  8
BODEM-3_7
 62
     7
100
AcDbSpline
210
0.0
220
0.0
230
1.0
 70
     8
 71
     3
 72
     8
 73
     4
 74
     0
 42
0.00000001
 43
0.00000001
 40
0.0
 40
0.0
 40
0.0
 40
0.0
 40
1.0
 40
1.0
 40
1.0
 40
1.0
 10
-43.311051432291663
 20
53.17918294270833
 30
0.0
 10
-41.463446723090271
 20
54.37945421006944
 30
0.0
 10
-39.792575412326386
 20
55.832250976562491
 30
0.0
 10
-38.347357855902771
 20
57.495198567708329
 30
0.0
  0
SPLINE
  5
7B
100
AcDbEntity
  8
BODEM-3_7
 62
     7
100
AcDbSpline
210
0.0
220
0.0
230
1.0
 70
     8
 71
     3
 72
    11
 73
     7
 74
     0
 42
0.00000001
 43
0.00000001
 40
0.0
 40
0.0
 40
0.0
 40
0.0
 40
1.0
 40
1.0
 40
1.0
 40
2.0
 40
2.0
 40
2.0
 40
2.0
 10
-38.347357855902771
 20
57.495198567708329
 30
0.0
 10
-38.182682291666666
 20
57.65952962239583
 30
0.0
 10
-38.183026801215277
 20
57.92600775824652
 30
0.0
 10
-38.347357855902771
 20
58.090511067708327
 30
0.0
 10
-38.511688910590273
 20
58.254842122395829
 30
0.0
 10
-38.778339301215276
 20
58.254669867621523
 30
0.0
 10
-38.942670355902777
 20
58.090166558159716
 30
0.0
  0
SPLINE
  5
7A
100
AcDbEntity
  8
BODEM-3_7
 62
     7
100
AcDbSpline
210
0.0
220
0.0
230
1.0
 70
     8
 71
     3
 72
    11
 73
     7
 74
     0
 42
0.00000001
 43
0.00000001
 40
0.0
 40
0.0
 40
0.0
 40
0.0
 40
1.0
 40
1.0
 40
1.0
 40
2.0
 40
2.0
 40
2.0
 40
2.0
 10
-37.952549913194439
 20
57.096256510416659
 30
0.0
 10
-37.56773274739583
 20
57.478662109374994
 30
0.0
 10
-37.566010199652773
 20
58.100501844618051
 30
0.0
 10
-37.948415798611109
 20
58.485146755642354
 30
0.0
 10
-38.325998263888884
 20
58.864968532986104
 30
0.0
 10
-38.938191731770829
 20
58.872203233506937
 30
0.0
 10
-39.324731445312494
 20
58.501510959201383
 30
0.0
  0
SPLINE
  5
79
100
AcDbEntity
  8
BODEM-3_7
 62
     7
100
AcDbSpline
210
0.0
220
0.0
230
1.0
 70
     8
 71
     3
 72
     8
 73
     4
 74
     0
 42
0.00000001
 43
0.00000001
 40
0.0
 40
0.0
 40
0.0
 40
0.0
 40
1.0
 40
1.0
 40
1.0
 40
1.0
 10
-46.429896375868054
 20
51.324860297309023
 30
0.0
 10
-45.371563042534717
 20
51.911043294270826
 30
0.0
 10
-44.331488715277771
 20
52.529437934027776
 30
0.0
 10
-43.311051432291663
 20
53.17918294270833
 30
0.0
  0
SPLINE
  5
78
100
AcDbEntity
  8
BODEM-3_7
 62
     7
100
AcDbSpline
210
0.0
220
0.0
230
1.0
 70
     8
 71
     3
 72
     8
 73
     4
 74
     0
 42
0.00000001
 43
0.00000001
 40
0.0
 40
0.0
 40
0.0
 40
0.0
 40
1.0
 40
1.0
 40
1.0
 40
1.0
 10
64.299262152777771
 20
-59.882477484809023
 30
0.0
 10
65.976334635416663
 20
-58.372836642795136
 30
0.0
 10
67.3447265625
 20
-56.551759168836803
 30
0.0
 10
68.328990342881937
 20
-54.521219889322914
 30
0.0
  0
SPLINE
  5
77
100
AcDbEntity
  8
BODEM-3_7
 62
     7
100
AcDbSpline
210
0.0
220
0.0
230
1.0
 70
     8
 71
     3
 72
     8
 73
     4
 74
     0
 42
0.00000001
 43
0.00000001
 40
0.0
 40
0.0
 40
0.0
 40
0.0
 40
1.0
 40
1.0
 40
1.0
 40
1.0
 10
71.447835286458329
 20
-52.667069498697913
 30
0.0
 10
70.389501953124991
 20
-53.253424750434021
 30
0.0
 10
69.349427625868046
 20
-53.871474880642353
 30
0.0
 10
68.328990342881937
 20
-54.521219889322914
 30
0.0
  0
SPLINE
  5
76
100
AcDbEntity
  8
BODEM-3_7
 62
     7
100
AcDbSpline
210
0.0
220
0.0
230
1.0
 70
     8
 71
     3
 72
     8
 73
     4
 74
     0
 42
0.00000001
 43
0.00000001
 40
0.0
 40
0.0
 40
0.0
 40
0.0
 40
1.0
 40
1.0
 40
1.0
 40
1.0
 10
-46.38648817274305
 20
51.348803710937496
 30
0.0
 10
-46.735820855034717
 20
51.10420193142361
 30
0.0
 10
-46.946316189236107
 20
50.706982421874997
 30
0.0
 10
-46.952517361111106
 20
50.280651855468747
 30
0.0
  0
SPLINE
  5
75
100
AcDbEntity
  8
BODEM-3_7
 62
     7
100
AcDbSpline
210
0.0
220
0.0
230
1.0
 70
     8
 71
     3
 72
     8
 73
     4
 74
     0
 42
0.00000001
 43
0.00000001
 40
0.0
 40
0.0
 40
0.0
 40
0.0
 40
1.0
 40
1.0
 40
1.0
 40
1.0
 10
-46.952517361111106
 20
50.280651855468747
 30
0.0
 10
-46.917721896701387
 20
50.081353081597214
 30
0.0
 10
-46.822292751736107
 20
49.897729492187494
 30
0.0
 10
-46.678976779513881
 20
49.754758029513887
 30
0.0
  0
SPLINE
  5
74
100
AcDbEntity
  8
BODEM-3_7
 62
     7
100
AcDbSpline
210
0.0
220
0.0
230
1.0
 70
     8
 71
     3
 72
     8
 73
     4
 74
     0
 42
0.00000001
 43
0.00000001
 40
0.0
 40
0.0
 40
0.0
 40
0.0
 40
1.0
 40
1.0
 40
1.0
 40
1.0
 10
71.970111762152769
 20
-51.622516547309026
 30
0.0
 10
71.935660807291654
 20
-51.423390028211799
 30
0.0
 10
71.840231662326389
 20
-51.239421929253467
 30
0.0
 10
71.696915690104163
 20
-51.096794976128464
 30
0.0
  0
SPLINE
  5
73
100
AcDbEntity
  8
BODEM-3_7
 62
     7
100
AcDbSpline
210
0.0
220
0.0
230
1.0
 70
     8
 71
     3
 72
     8
 73
     4
 74
     0
 42
0.00000001
 43
0.00000001
 40
0.0
 40
0.0
 40
0.0
 40
0.0
 40
1.0
 40
1.0
 40
1.0
 40
1.0
 10
71.404427083333331
 20
-52.691185167100691
 30
0.0
 10
71.753759765624991
 20
-52.445894368489576
 30
0.0
 10
71.963910590277777
 20
-52.049019368489581
 30
0.0
 10
71.970111762152769
 20
-51.622516547309026
 30
0.0
  0
SPLINE
  5
72
100
AcDbEntity
  8
BODEM-3_7
 62
     7
100
AcDbSpline
210
0.0
220
0.0
230
1.0
 70
     8
 71
     3
 72
     8
 73
     4
 74
     0
 42
0.00000001
 43
0.00000001
 40
0.0
 40
0.0
 40
0.0
 40
0.0
 40
1.0
 40
1.0
 40
1.0
 40
1.0
 10
68.328990342881937
 20
-54.521219889322914
 30
0.0
 10
66.481385633680546
 20
-55.721491156684024
 30
0.0
 10
64.81051432291666
 20
-57.173943413628464
 30
0.0
 10
63.364952256944441
 20
-58.837235514322913
 30
0.0
  0
SPLINE
  5
71
100
AcDbEntity
  8
BODEM-3_7
 62
     7
100
AcDbSpline
210
0.0
220
0.0
230
1.0
 70
     8
 71
     3
 72
     8
 73
     4
 74
     0
 42
0.00000001
 43
0.00000001
 40
0.0
 40
0.0
 40
0.0
 40
0.0
 40
1.0
 40
1.0
 40
1.0
 40
1.0
 10
65.661452907986103
 20
-56.14317084418402
 30
0.0
 10
64.644460720486109
 20
-56.8122083875868
 30
0.0
 10
63.717385525173604
 20
-57.608714463975687
 30
0.0
 10
62.902620442708326
 20
-58.512707519531247
 30
0.0
  0
SPLINE
  5
70
100
AcDbEntity
  8
BODEM-3_7
 62
     7
100
AcDbSpline
210
0.0
220
0.0
230
1.0
 70
     8
 71
     3
 72
     8
 73
     4
 74
     0
 42
0.00000001
 43
0.00000001
 40
0.0
 40
0.0
 40
0.0
 40
0.0
 40
1.0
 40
1.0
 40
1.0
 40
1.0
 10
63.960609266493051
 20
-59.432548014322911
 30
0.0
 10
65.650428602430551
 20
-58.019369845920131
 30
0.0
 10
67.122517903645829
 20
-56.364345974392357
 30
0.0
 10
68.328990342881937
 20
-54.521219889322914
 30
0.0
  0
SPLINE
  5
6F
100
AcDbEntity
  8
BODEM-3_7
 62
     7
100
AcDbSpline
210
0.0
220
0.0
230
1.0
 70
     8
 71
     3
 72
     8
 73
     4
 74
     0
 42
0.00000001
 43
0.00000001
 40
0.0
 40
0.0
 40
0.0
 40
0.0
 40
1.0
 40
1.0
 40
1.0
 40
1.0
 10
68.328990342881937
 20
-54.521219889322914
 30
0.0
 10
67.35540635850694
 20
-55.060721842447911
 30
0.0
 10
66.405593532986103
 20
-55.641564941406244
 30
0.0
 10
65.48196343315972
 20
-56.26306016710069
 30
0.0
  0
SPLINE
  5
6E
100
AcDbEntity
  8
BODEM-3_7
 62
     7
100
AcDbSpline
210
0.0
220
0.0
230
1.0
 70
     8
 71
     3
 72
    11
 73
     7
 74
     0
 42
0.00000001
 43
0.00000001
 40
0.0
 40
0.0
 40
0.0
 40
0.0
 40
1.0
 40
1.0
 40
1.0
 40
2.0
 40
2.0
 40
2.0
 40
2.0
 10
63.364952256944441
 20
-58.837235514322913
 30
0.0
 10
63.20062120225694
 20
-59.001222059461803
 30
0.0
 10
63.200965711805551
 20
-59.267872450086799
 30
0.0
 10
63.365296766493053
 20
-59.432548014322911
 30
0.0
 10
63.529627821180547
 20
-59.596534559461801
 30
0.0
 10
63.79627821180555
 20
-59.596534559461801
 30
0.0
 10
63.960609266493051
 20
-59.432548014322911
 30
0.0
  0
SPLINE
  5
6D
100
AcDbEntity
  8
BODEM-3_7
 62
     7
100
AcDbSpline
210
0.0
220
0.0
230
1.0
 70
     8
 71
     3
 72
    11
 73
     7
 74
     0
 42
0.00000001
 43
0.00000001
 40
0.0
 40
0.0
 40
0.0
 40
0.0
 40
1.0
 40
1.0
 40
1.0
 40
2.0
 40
2.0
 40
2.0
 40
2.0
 10
62.970144314236109
 20
-58.438293457031243
 30
0.0
 10
62.585671657986104
 20
-58.820699055989579
 30
0.0
 10
62.583949110243047
 20
-59.442883300781247
 30
0.0
 10
62.966354709201383
 20
-59.827355957031244
 30
0.0
 10
63.343937174479159
 20
-60.207005479600689
 30
0.0
 10
63.956130642361103
 20
-60.21389567057291
 30
0.0
 10
64.342670355902769
 20
-59.843892415364579
 30
0.0
  0
LINE
  5
6C
100
AcDbEntity
  8
BODEM-3_7
 62
     7
100
AcDbLine
 10
-13.960905
 20
42.297504
 30
0.0
 11
-10.78556
 21
39.123538
 31
0.0
  0
LINE
  5
6B
100
AcDbEntity
  8
BODEM-3_7
 62
     7
100
AcDbLine
 10
-27.290324
 20
22.610851
 30
0.0
 11
-30.466013
 21
25.784817
 31
0.0
  0
LINE
  5
6A
100
AcDbEntity
  8
BODEM-3_7
 62
     7
100
AcDbLine
 10
47.683222
 20
72.259672
 30
0.0
 11
47.683222
 21
-27.094126
 31
0.0
  0
LINE
  5
69
100
AcDbEntity
  8
BODEM-3_7
 62
     7
100
AcDbLine
 10
-7.316694
 20
-66.428159
 30
0.0
 11
-7.316694
 21
-8.850278
 31
0.0
  0
LINE
  5
68
100
AcDbEntity
  8
BODEM-3_7
 62
     7
100
AcDbLine
 10
-7.316694
 20
72.259672
 30
0.0
 11
-7.316694
 21
46.14981
 31
0.0
  0
LINE
  5
67
100
AcDbEntity
  8
BODEM-3_7
 62
     7
100
AcDbLine
 10
47.683222
 20
-44.551114
 30
0.0
 11
47.683222
 21
-66.428159
 31
0.0
  0
LINE
  5
66
100
AcDbEntity
  8
BODEM-3_7
 62
     7
100
AcDbLine
 10
-43.070239
 20
46.14981
 30
0.0
 11
-62.933282
 21
46.14981
 31
0.0
  0
HATCH
  5
65
100
AcDbEntity
  8
BODEM-3_7
 62
     7
100
AcDbHatch
 10
0.0
 20
0.0
 30
0.0
210
0.0
220
0.0
230
1.0
  2
SOLID
 70
     1
 71
     0
 91
        4
 92
       16
 93
        1
 72
     4
 94
        3
 73
     0
 74
     0
 95
       17
 96
       13
 40
0.0
 40
0.0
 40
0.0
 40
0.0
 40
1.0
 40
1.0
 40
1.0
 40
2.0
 40
2.0
 40
2.0
 40
3.0
 40
3.0
 40
3.0
 40
4.0
 40
4.0
 40
4.0
 40
4.0
 10
23.162754991319442
 20
-23.332081434461802
 10
23.162754991319442
 20
-23.332081434461802
 10
21.039542643229165
 20
-25.456327311197914
 10
21.039542643229165
 20
-25.456327311197914
 10
21.039542643229165
 20
-25.456327311197914
 10
24.215231662326385
 20
-28.629949273003469
 10
24.215231662326385
 20
-28.629949273003469
 10
24.215231662326385
 20
-28.629949273003469
 10
26.338444010416666
 20
-26.505703396267357
 10
26.338444010416666
 20
-26.505703396267357
 10
26.338444010416666
 20
-26.505703396267357
 10
23.162754991319442
 20
-23.332081434461802
 10
23.162754991319442
 20
-23.332081434461802
 97
        0
 92
       16
 93
        1
 72
     4
 94
        3
 73
     0
 74
     0
 95
       17
 96
       13
 40
0.0
 40
0.0
 40
0.0
 40
0.0
 40
1.0
 40
1.0
 40
1.0
 40
2.0
 40
2.0
 40
2.0
 40
3.0
 40
3.0
 40
3.0
 40
4.0
 40
4.0
 40
4.0
 40
4.0
 10
32.465890842013884
 20
-20.375500488281247
 10
32.465890842013884
 20
-20.375500488281247
 10
29.289857313368053
 20
-17.201878526475692
 10
29.289857313368053
 20
-17.201878526475692
 10
29.289857313368053
 20
-17.201878526475692
 10
23.162754991319442
 20
-23.332081434461802
 10
23.162754991319442
 20
-23.332081434461802
 10
23.162754991319442
 20
-23.332081434461802
 10
26.338444010416666
 20
-26.505703396267357
 10
26.338444010416666
 20
-26.505703396267357
 10
26.338444010416666
 20
-26.505703396267357
 10
32.465890842013884
 20
-20.375500488281247
 10
32.465890842013884
 20
-20.375500488281247
 97
        0
 92
       16
 93
        1
 72
     4
 94
        3
 73
     0
 74
     0
 95
       17
 96
       13
 40
0.0
 40
0.0
 40
0.0
 40
0.0
 40
1.0
 40
1.0
 40
1.0
 40
2.0
 40
2.0
 40
2.0
 40
3.0
 40
3.0
 40
3.0
 40
4.0
 40
4.0
 40
4.0
 40
4.0
 10
38.596782769097217
 20
-14.241852484809026
 10
38.596782769097217
 20
-14.241852484809026
 10
35.421438259548609
 20
-11.067541503906249
 10
35.421438259548609
 20
-11.067541503906249
 10
35.421438259548609
 20
-11.067541503906249
 10
29.289857313368053
 20
-17.201878526475692
 10
29.289857313368053
 20
-17.201878526475692
 10
29.289857313368053
 20
-17.201878526475692
 10
32.465890842013884
 20
-20.375500488281247
 10
32.465890842013884
 20
-20.375500488281247
 10
32.465890842013884
 20
-20.375500488281247
 10
38.596782769097217
 20
-14.241852484809026
 10
38.596782769097217
 20
-14.241852484809026
 97
        0
 92
       16
 93
        1
 72
     4
 94
        3
 73
     0
 74
     0
 95
       20
 96
       16
 40
0.0
 40
0.0
 40
0.0
 40
0.0
 40
1.0
 40
1.0
 40
1.0
 40
2.0
 40
2.0
 40
2.0
 40
3.0
 40
3.0
 40
3.0
 40
4.0
 40
4.0
 40
4.0
 40
5.0
 40
5.0
 40
5.0
 40
5.0
 10
37.544650607638886
 20
-8.9432956271701389
 10
37.544650607638886
 20
-8.9432956271701389
 10
35.421438259548609
 20
-11.067541503906249
 10
35.421438259548609
 20
-11.067541503906249
 10
35.421438259548609
 20
-11.067541503906249
 10
38.596782769097217
 20
-14.241852484809026
 10
38.596782769097217
 20
-14.241852484809026
 10
38.596782769097217
 20
-14.241852484809026
 10
40.402701822916661
 20
-12.435244411892359
 10
40.402701822916661
 20
-12.435244411892359
 10
40.402701822916661
 20
-12.435244411892359
 10
40.719995117187494
 20
-12.117606608072915
 10
40.719995117187494
 20
-12.117606608072915
 10
40.719995117187494
 20
-12.117606608072915
 10
37.544650607638886
 20
-8.9432956271701389
 10
37.544650607638886
 20
-8.9432956271701389
 97
        0
 75
     0
 76
     1
 98
        1
 10
0.0
 20
0.0
  0
LINE
  5
64
100
AcDbEntity
  8
BODEM-3_7
  6
AI9-LType1
 62
     7
100
AcDbLine
 10
29.000469
 20
-29.167384
 30
0.0
 11
20.172412
 21
-20.343117
 31
0.0
  0
LINE
  5
63
100
AcDbEntity
  8
BODEM-3_7
 62
     7
100
AcDbLine
 10
4.826579
 20
-1.486042
 30
0.0
 11
23.657471
 21
-20.296263
 31
0.0
  0
LINE
  5
62
100
AcDbEntity
  8
BODEM-3_7
 62
     7
100
AcDbLine
 10
40.719995
 20
-12.117607
 30
0.0
 11
24.215232
 21
-28.629949
 31
0.0
  0
LINE
  5
61
100
AcDbEntity
  8
BODEM-3_7
 62
     7
100
AcDbLine
 10
25.802732
 20
-29.582174
 30
0.0
 11
41.672909
 21
-13.704418
 31
0.0
  0
LINE
  5
60
100
AcDbEntity
  8
BODEM-3_7
 62
     7
100
AcDbLine
 10
21.35718
 20
-25.13869
 30
0.0
 11
37.227013
 21
-9.260933
 31
0.0
  0
LINE
  5
5F
100
AcDbEntity
  8
BODEM-3_7
 62
     7
100
AcDbLine
 10
21.039543
 20
-25.456327
 30
0.0
 11
37.544651
 21
-8.943296
 31
0.0
  0
LINE
  5
5E
100
AcDbEntity
  8
BODEM-3_7
 62
     7
100
AcDbLine
 10
20.086974
 20
-23.868827
 30
0.0
 11
21.35718
 21
-25.13869
 31
0.0
  0
LINE
  5
5D
100
AcDbEntity
  8
BODEM-3_7
 62
     7
100
AcDbLine
 10
40.402702
 20
-12.435244
 30
0.0
 11
24.532525
 21
-28.312311
 31
0.0
  0
POLYLINE
  5
57
100
AcDbEntity
  8
BODEM-3_7
 62
     7
100
AcDb2dPolyline
 66
     1
 10
0.0
 20
0.0
 30
0.0
 70
     1
  0
VERTEX
  5
58
100
AcDbEntity
  8
BODEM-3_7
 62
     7
100
AcDbVertex
100
AcDb2dVertex
 10
20.369127
 20
-23.586329
 30
0.0
  0
VERTEX
  5
59
100
AcDbEntity
  8
BODEM-3_7
 62
     7
100
AcDbVertex
100
AcDb2dVertex
 10
23.41597
 20
-20.538109
 30
0.0
  0
VERTEX
  5
5A
100
AcDbEntity
  8
BODEM-3_7
 62
     7
100
AcDbVertex
100
AcDb2dVertex
 10
23.098676
 20
-20.220471
 30
0.0
  0
VERTEX
  5
5B
100
AcDbEntity
  8
BODEM-3_7
 62
     7
100
AcDbVertex
100
AcDb2dVertex
 10
20.051489
 20
-23.269381
 30
0.0
  0
SEQEND
  5
5C
100
AcDbEntity
  8
BODEM-3_7
 62
     7
  0
LINE
  5
56
100
AcDbEntity
  8
BODEM-3_7
 62
     7
100
AcDbLine
 10
20.914486
 20
-22.40604
 30
0.0
 11
22.23568
 21
-21.083812
 31
0.0
  0
LINE
  5
55
100
AcDbEntity
  8
BODEM-3_7
 62
     7
100
AcDbLine
 10
20.120391
 20
-21.61229
 30
0.0
 11
21.441585
 21
-20.290751
 31
0.0
  0
SPLINE
  5
54
100
AcDbEntity
  8
BODEM-3_7
 62
     7
100
AcDbSpline
210
0.0
220
0.0
230
1.0
 70
     8
 71
     3
 72
     8
 73
     4
 74
     0
 42
0.00000001
 43
0.00000001
 40
0.0
 40
0.0
 40
0.0
 40
0.0
 40
1.0
 40
1.0
 40
1.0
 40
1.0
 10
21.297235785590274
 20
-20.586340332031249
 30
0.0
 10
20.911385091145831
 20
-20.770997450086803
 30
0.0
 10
20.600637478298609
 20
-21.081745062934026
 30
0.0
 10
20.416324869791666
 20
-21.467595757378469
 30
0.0
  0
SPLINE
  5
53
100
AcDbEntity
  8
BODEM-3_7
 62
     7
100
AcDbSpline
210
0.0
220
0.0
230
1.0
 70
     8
 71
     3
 72
     8
 73
     4
 74
     0
 42
0.00000001
 43
0.00000001
 40
0.0
 40
0.0
 40
0.0
 40
0.0
 40
1.0
 40
1.0
 40
1.0
 40
1.0
 10
21.059179687499999
 20
-22.109761555989582
 30
0.0
 10
21.44468587239583
 20
-21.925793457031247
 30
0.0
 10
21.755777994791664
 20
-21.614356825086805
 30
0.0
 10
21.939746093749999
 20
-21.228506130642359
 30
0.0
  0
LINE
  5
52
100
AcDbEntity
  8
BODEM-3_7
 62
     7
100
AcDbLine
 10
19.976042
 20
-21.908568
 30
0.0
 11
20.618552
 21
-22.550734
 31
0.0
  0
SPLINE
  5
51
100
AcDbEntity
  8
BODEM-3_7
 62
     7
100
AcDbSpline
210
0.0
220
0.0
230
1.0
 70
     8
 71
     3
 72
     8
 73
     4
 74
     0
 42
0.00000001
 43
0.00000001
 40
0.0
 40
0.0
 40
0.0
 40
0.0
 40
1.0
 40
1.0
 40
1.0
 40
1.0
 10
20.416324869791666
 20
-21.467595757378469
 30
0.0
 10
20.186192491319442
 20
-21.496534559461804
 30
0.0
 10
20.004635959201387
 20
-21.677746582031247
 30
0.0
 10
19.976041666666664
 20
-21.908567979600694
 30
0.0
  0
LINE
  5
50
100
AcDbEntity
  8
BODEM-3_7
 62
     7
100
AcDbLine
 10
20.416325
 20
-21.467596
 30
0.0
 11
21.05918
 21
-22.109762
 31
0.0
  0
SPLINE
  5
4F
100
AcDbEntity
  8
BODEM-3_7
 62
     7
100
AcDbSpline
210
0.0
220
0.0
230
1.0
 70
     8
 71
     3
 72
     8
 73
     4
 74
     0
 42
0.00000001
 43
0.00000001
 40
0.0
 40
0.0
 40
0.0
 40
0.0
 40
1.0
 40
1.0
 40
1.0
 40
1.0
 10
20.618551974826389
 20
-22.550733778211804
 30
0.0
 10
20.84902886284722
 20
-22.521794976128469
 30
0.0
 10
21.030240885416664
 20
-22.340582953559025
 30
0.0
 10
21.059179687499999
 20
-22.109761555989582
 30
0.0
  0
LINE
  5
4E
100
AcDbEntity
  8
BODEM-3_7
 62
     7
100
AcDbLine
 10
21.297236
 20
-20.58634
 30
0.0
 11
21.939746
 21
-21.228506
 31
0.0
  0
SPLINE
  5
4D
100
AcDbEntity
  8
BODEM-3_7
 62
     7
100
AcDbSpline
210
0.0
220
0.0
230
1.0
 70
     8
 71
     3
 72
     8
 73
     4
 74
     0
 42
0.00000001
 43
0.00000001
 40
0.0
 40
0.0
 40
0.0
 40
0.0
 40
1.0
 40
1.0
 40
1.0
 40
1.0
 10
21.737518988715276
 20
-20.146057128906246
 30
0.0
 10
21.507386610243053
 20
-20.174995930989581
 30
0.0
 10
21.325830078124998
 20
-20.356207953559025
 30
0.0
 10
21.297235785590274
 20
-20.586340332031249
 30
0.0
  0
SPLINE
  5
4C
100
AcDbEntity
  8
BODEM-3_7
 62
     7
100
AcDbSpline
210
0.0
220
0.0
230
1.0
 70
     8
 71
     3
 72
     8
 73
     4
 74
     0
 42
0.00000001
 43
0.00000001
 40
0.0
 40
0.0
 40
0.0
 40
0.0
 40
1.0
 40
1.0
 40
1.0
 40
1.0
 10
21.939746093749999
 20
-21.228506130642359
 30
0.0
 10
22.170222981770831
 20
-21.200256347656246
 30
0.0
 10
22.351435004340274
 20
-21.01835530598958
 30
0.0
 10
22.380373806423609
 20
-20.78822292751736
 30
0.0
  0
LINE
  5
4B
100
AcDbEntity
  8
BODEM-3_7
 62
     7
100
AcDbLine
 10
21.737519
 20
-20.146057
 30
0.0
 11
22.380374
 21
-20.788223
 31
0.0
  0
LINE
  5
4A
100
AcDbEntity
  8
BODEM-3_7
 62
     7
100
AcDbLine
 10
33.996202
 20
-7.881517
 30
0.0
 11
34.638713
 21
-8.523683
 31
0.0
  0
SPLINE
  5
49
100
AcDbEntity
  8
BODEM-3_7
 62
     7
100
AcDbSpline
210
0.0
220
0.0
230
1.0
 70
     8
 71
     3
 72
     8
 73
     4
 74
     0
 42
0.00000001
 43
0.00000001
 40
0.0
 40
0.0
 40
0.0
 40
0.0
 40
1.0
 40
1.0
 40
1.0
 40
1.0
 10
34.638712565104164
 20
-8.5236829969618046
 30
0.0
 10
34.610118272569444
 20
-8.7545043945312493
 30
0.0
 10
34.428561740451386
 20
-8.9357164171006929
 30
0.0
 10
34.198429361979166
 20
-8.9646552191840261
 30
0.0
  0
SPLINE
  5
48
100
AcDbEntity
  8
BODEM-3_7
 62
     7
100
AcDbSpline
210
0.0
220
0.0
230
1.0
 70
     8
 71
     3
 72
     8
 73
     4
 74
     0
 42
0.00000001
 43
0.00000001
 40
0.0
 40
0.0
 40
0.0
 40
0.0
 40
1.0
 40
1.0
 40
1.0
 40
1.0
 10
33.31751844618055
 20
-9.8459106445312496
 30
0.0
 10
33.28892415364583
 20
-10.076043023003471
 30
0.0
 10
33.107712131076383
 20
-10.257255045572915
 30
0.0
 10
32.877235243055551
 20
-10.286193847656248
 30
0.0
  0
LINE
  5
47
100
AcDbEntity
  8
BODEM-3_7
  6
AI9-LType1
 62
     7
100
AcDbLine
 10
41.259153
 20
-16.902844
 30
0.0
 11
32.431095
 21
-8.078577
 31
0.0
  0
LINE
  5
45
100
AcDbEntity
  8
BODEM-3_7
 62
     7
100
AcDbLine
 10
37.227013
 20
-9.260933
 30
0.0
 11
35.956806
 21
-7.99176
 31
0.0
  0
LINE
  5
44
100
AcDbEntity
  8
BODEM-3_7
 62
     7
100
AcDbLine
 10
24.532525
 20
-28.312311
 30
0.0
 11
25.802732
 21
-29.582174
 31
0.0
  0
POLYLINE
  5
3E
100
AcDbEntity
  8
BODEM-3_7
 62
     7
100
AcDb2dPolyline
 66
     1
 10
0.0
 20
0.0
 30
0.0
 70
     1
  0
VERTEX
  5
3F
100
AcDbEntity
  8
BODEM-3_7
 62
     7
100
AcDbVertex
100
AcDb2dVertex
 10
35.674653
 20
-8.273569
 30
0.0
  0
VERTEX
  5
40
100
AcDbEntity
  8
BODEM-3_7
 62
     7
100
AcDbVertex
100
AcDb2dVertex
 10
32.62781
 20
-11.322479
 30
0.0
  0
VERTEX
  5
41
100
AcDbEntity
  8
BODEM-3_7
 62
     7
100
AcDbVertex
100
AcDb2dVertex
 10
32.310173
 20
-11.004841
 30
0.0
  0
VERTEX
  5
42
100
AcDbEntity
  8
BODEM-3_7
 62
     7
100
AcDbVertex
100
AcDb2dVertex
 10
35.357015
 20
-7.95662
 30
0.0
  0
SEQEND
  5
43
100
AcDbEntity
  8
BODEM-3_7
 62
     7
  0
LINE
  5
3D
100
AcDbEntity
  8
BODEM-3_7
 62
     7
100
AcDbLine
 10
34.494363
 20
-8.819961
 30
0.0
 11
33.173169
 21
-10.1415
 31
0.0
  0
LINE
  5
3C
100
AcDbEntity
  8
BODEM-3_7
 62
     7
100
AcDbLine
 10
33.700269
 20
-8.026211
 30
0.0
 11
32.379074
 21
-9.34775
 31
0.0
  0
SPLINE
  5
3B
100
AcDbEntity
  8
BODEM-3_7
 62
     7
100
AcDbSpline
210
0.0
220
0.0
230
1.0
 70
     8
 71
     3
 72
     8
 73
     4
 74
     0
 42
0.00000001
 43
0.00000001
 40
0.0
 40
0.0
 40
0.0
 40
0.0
 40
1.0
 40
1.0
 40
1.0
 40
1.0
 10
32.675008138020829
 20
-9.203055826822915
 30
0.0
 10
32.858976236979167
 20
-8.8172051323784721
 30
0.0
 10
33.170068359374994
 20
-8.5064575195312493
 30
0.0
 10
33.555574544270833
 20
-8.3218004014756932
 30
0.0
  0
SPLINE
  5
3A
100
AcDbEntity
  8
BODEM-3_7
 62
     7
100
AcDbSpline
210
0.0
220
0.0
230
1.0
 70
     8
 71
     3
 72
     8
 73
     4
 74
     0
 42
0.00000001
 43
0.00000001
 40
0.0
 40
0.0
 40
0.0
 40
0.0
 40
1.0
 40
1.0
 40
1.0
 40
1.0
 10
34.198429361979166
 20
-8.9646552191840261
 30
0.0
 10
34.014116753472216
 20
-9.3505059136284707
 30
0.0
 10
33.703369140625
 20
-9.6612535264756936
 30
0.0
 10
33.31751844618055
 20
-9.8459106445312496
 30
0.0
  0
LINE
  5
39
100
AcDbEntity
  8
BODEM-3_7
 62
     7
100
AcDbLine
 10
33.555575
 20
-8.3218
 30
0.0
 11
34.198429
 21
-8.964655
 31
0.0
  0
LINE
  5
38
100
AcDbEntity
  8
BODEM-3_7
 62
     7
100
AcDbLine
 10
32.675008
 20
-9.203056
 30
0.0
 11
33.317518
 21
-9.845911
 31
0.0
  0
SPLINE
  5
37
100
AcDbEntity
  8
BODEM-3_7
 62
     7
100
AcDbSpline
210
0.0
220
0.0
230
1.0
 70
     8
 71
     3
 72
     8
 73
     4
 74
     0
 42
0.00000001
 43
0.00000001
 40
0.0
 40
0.0
 40
0.0
 40
0.0
 40
1.0
 40
1.0
 40
1.0
 40
1.0
 10
32.234380425347219
 20
-9.6440280490451382
 30
0.0
 10
32.26331922743055
 20
-9.4138956705729164
 30
0.0
 10
32.444531249999997
 20
-9.23199462890625
 30
0.0
 10
32.675008138020829
 20
-9.203055826822915
 30
0.0
  0
LINE
  5
36
100
AcDbEntity
  8
BODEM-3_7
 62
     7
100
AcDbLine
 10
32.23438
 20
-9.644028
 30
0.0
 11
32.877235
 21
-10.286194
 31
0.0
  0
LINE
  5
35
100
AcDbEntity
  8
BODEM-3_7
 62
     7
100
AcDbLine
 10
35.956806
 20
-7.99176
 30
0.0
 11
20.086974
 21
-23.868827
 31
0.0
  0
LINE
  5
34
100
AcDbEntity
  8
BODEM-3_7
 62
     7
100
AcDbLine
 10
41.672909
 20
-13.704418
 30
0.0
 11
40.402702
 21
-12.435244
 31
0.0
  0
SPLINE
  5
33
100
AcDbEntity
  8
BODEM-3_7
 62
     7
100
AcDbSpline
210
0.0
220
0.0
230
1.0
 70
     8
 71
     3
 72
     8
 73
     4
 74
     0
 42
0.00000001
 43
0.00000001
 40
0.0
 40
0.0
 40
0.0
 40
0.0
 40
1.0
 40
1.0
 40
1.0
 40
1.0
 10
33.555574544270833
 20
-8.3218004014756932
 30
0.0
 10
33.584513346354164
 20
-8.0916680230034714
 30
0.0
 10
33.765725368923611
 20
-7.910456000434027
 30
0.0
 10
33.996202256944443
 20
-7.8815171983506938
 30
0.0
  0
ENDBLK
  5
163
100
AcDbEntity
  8
BODEM-3_7
100
AcDbBlockEnd
  0
ENDSEC
  0
SECTION
  2
ENTITIES
  0
INSERT
  5
31
100
AcDbEntity
  8
BODEM-3_7
 62
     7
100
AcDbBlockReference
  2
AI9-BLK1
 10
103.822776
 20
137.196621
 30
0.0
  0
POLYLINE
  5
29
100
AcDbEntity
  8
RAHMEN
 62
     7
100
AcDb2dPolyline
 66
     1
 10
0.0
 20
0.0
 30
0.0
 70
     1
  0
VERTEX
  5
2A
100
AcDbEntity
  8
RAHMEN
 62
     7
100
AcDbVertex
100
AcDb2dVertex
 10
14.676624
 20
221.977493
 30
0.0
  0
VERTEX
  5
2B
100
AcDbEntity
  8
RAHMEN
 62
     7
100
AcDbVertex
100
AcDb2dVertex
 10
14.676624
 20
49.146699
 30
0.0
  0
VERTEX
  5
2C
100
AcDbEntity
  8
RAHMEN
 62
     7
100
AcDbVertex
100
AcDb2dVertex
 10
180.980512
 20
49.146699
 30
0.0
  0
VERTEX
  5
2D
100
AcDbEntity
  8
RAHMEN
 62
     7
100
AcDbVertex
100
AcDb2dVertex
 10
180.980512
 20
221.977493
 30
0.0
  0
SEQEND
  5
2E
100
AcDbEntity
  8
RAHMEN
 62
     7
  0
ENDSEC
  0
SECTION
  2
OBJECTS
  0
DICTIONARY
  5
19
100
AcDbDictionary
280
     0
281
     1
  3
ACAD_GROUP
350
1A
  3
ACAD_MLINESTYLE
350
1B
  3
ACAD_LAYOUT
350
1E
  3
ACAD_PLOTSETTINGS
350
22
  3
ACAD_PLOTSTYLENAME
350
1F
  3
ACAD_WIPEOUT_VARS
350
23
  0
DICTIONARY
  5
1A
102
{ACAD_REACTORS
330
19
102
}
100
AcDbDictionary
280
     0
281
     1
  0
DICTIONARY
  5
1B
102
{ACAD_REACTORS
330
19
102
}
100
AcDbDictionary
280
     0
281
     1
  3
Standard
350
1C
  0
MLINESTYLE
  5
1C
102
{ACAD_REACTORS
330
1B
102
}
100
AcDbMlineStyle
  2
Standard
 70
     0
  3

 62
     0
 51
90.0
 52
90.0
 71
     2
 49
0.5
 62
   256
  6
ByLayer
 49
-0.5
 62
   256
  6
ByLayer
  0
ACDBDICTIONARYWDFLT
  5
1F
102
{ACAD_REACTORS
330
19
102
}
100
AcDbDictionary
281
     1
  3
Normal
350
1D
100
AcDbDictionaryWithDefault
340
1D
  0
ACDBPLACEHOLDER
  5
1D
102
{ACAD_REACTORS
330
1F
102
}
  0
LAYOUT
  5
20
102
{ACAD_REACTORS
330
1E
102
}
100
AcDbPlotSettings
  1

  2

  4

  6

 40
0.0
 41
0.0
 42
0.0
 43
0.0
 44
0.0
 45
0.0
 46
0.0
 47
0.0
 48
0.0
 49
0.0
140
0.0
141
0.0
142
1.0
143
1.0
 70
  1024
 72
     0
 73
     0
 74
     0
  7

 75
     0
147
1.0
148
0.0
149
0.0
100
AcDbLayout
  1
Model
 70
     0
 71
     0
 10
0.0
 20
0.0
 11
0.0
 21
0.0
 12
0.0
 22
0.0
 32
0.0
 14
0.0
 24
0.0
 34
0.0
 15
0.0
 25
0.0
 35
0.0
146
0.0
 13
0.0
 23
0.0
 33
0.0
 16
0.0
 26
0.0
 36
0.0
 17
0.0
 27
0.0
 37
0.0
 76
     0
330
A
331
0
345
0
346
0
  0
LAYOUT
  5
21
102
{ACAD_REACTORS
330
1E
102
}
100
AcDbPlotSettings
  1

  2

  4

  6

 40
0.0
 41
0.0
 42
0.0
 43
0.0
 44
0.0
 45
0.0
 46
0.0
 47
0.0
 48
0.0
 49
0.0
140
0.0
141
0.0
142
1.0
143
1.0
 70
     0
 72
     0
 73
     0
 74
     0
  7

 75
     0
147
1.0
148
0.0
149
0.0
100
AcDbLayout
  1
Layout1
 70
     0
 71
     0
 10
0.0
 20
0.0
 11
0.0
 21
0.0
 12
0.0
 22
0.0
 32
0.0
 14
0.0
 24
0.0
 34
0.0
 15
0.0
 25
0.0
 35
0.0
146
0.0
 13
0.0
 23
0.0
 33
0.0
 16
0.0
 26
0.0
 36
0.0
 17
0.0
 27
0.0
 37
0.0
 76
     0
330
B
331
0
345
0
346
0
  0
DICTIONARY
  5
1E
102
{ACAD_REACTORS
330
19
102
}
100
AcDbDictionary
280
     0
281
     1
  3
Layout1
350
21
  3
Model
350
20
  0
DICTIONARY
  5
22
102
{ACAD_REACTORS
330
19
102
}
100
AcDbDictionary
280
     0
281
     1
  0
WIPEOUTVARIABLES
  5
23
100
AcDbWipeoutVariables
 70
     1
  0
ENDSEC
  0
EOF
