  0
SECTION
  2
HEADER
  9
$ACADVER
  1
AC1015
  9
$ACADMAINTVER
 70
     6
  9
$DWGCODEPAGE
  3
ANSI_932
  9
$INSBASE
 10
0.0
 20
0.0
 30
0.0
  9
$EXTMIN
 10
14.500235
 20
48.97031
 30
1.000000E+20
  9
$EXTMAX
 10
181.156901
 20
222.153882
 30
-1.000000E+20
  9
$LIMMIN
 10
14.500235
 20
48.97031
  9
$LIMMAX
 10
181.156901
 20
222.153882
  9
$ORTHOMODE
 70
     0
  9
$REGENMODE
 70
     1
  9
$FILLMODE
 70
     1
  9
$QTEXTMODE
 70
     0
  9
$MIRRTEXT
 70
     1
  9
$LTSCALE
 40
1.0
  9
$ATTMODE
 70
     1
  9
$TEXTSIZE
 40
0.2
  9
$TRACEWID
 40
0.05
  9
$TEXTSTYLE
  7
Standard
  9
$CLAYER
  8
0
  9
$CELTYPE
  6
Continuous
  9
$CECOLOR
 62
   256
  9
$CELTSCALE
 40
1.0
  9
$DISPSILH
 70
     0
  9
$DIMSCALE
 40
1.0
  9
$DIMASZ
 40
0.18
  9
$DIMEXO
 40
0.0625
  9
$DIMDLI
 40
0.38
  9
$DIMRND
 40
0.0
  9
$DIMDLE
 40
0.0
  9
$DIMEXE
 40
0.18
  9
$DIMTP
 40
0.0
  9
$DIMTM
 40
0.0
  9
$DIMTXT
 40
0.18
  9
$DIMCEN
 40
0.09
  9
$DIMTSZ
 40
0.0
  9
$DIMTOL
 70
     0
  9
$DIMLIM
 70
     0
  9
$DIMTIH
 70
     1
  9
$DIMTOH
 70
     1
  9
$DIMSE1
 70
     0
  9
$DIMSE2
 70
     0
  9
$DIMTAD
 70
     0
  9
$DIMZIN
 70
     0
  9
$DIMBLK
  1

  9
$DIMASO
 70
     1
  9
$DIMSHO
 70
     1
  9
$DIMPOST
  1

  9
$DIMAPOST
  1

  9
$DIMALT
 70
     0
  9
$DIMALTD
 70
     2
  9
$DIMALTF
 40
25.4
  9
$DIMLFAC
 40
1.0
  9
$DIMTOFL
 70
     0
  9
$DIMTVP
 40
0.0
  9
$DIMTIX
 70
     0
  9
$DIMSOXD
 70
     0
  9
$DIMSAH
 70
     0
  9
$DIMBLK1
  1

  9
$DIMBLK2
  1

  9
$DIMSTYLE
  2
Standard
  9
$DIMCLRD
 70
     0
  9
$DIMCLRE
 70
     0
  9
$DIMCLRT
 70
     0
  9
$DIMTFAC
 40
1.0
  9
$DIMGAP
 40
0.09
  9
$DIMJUST
 70
     0
  9
$DIMSD1
 70
     0
  9
$DIMSD2
 70
     0
  9
$DIMTOLJ
 70
     1
  9
$DIMTZIN
 70
     0
  9
$DIMALTZ
 70
     0
  9
$DIMALTTZ
 70
     0
  9
$DIMUPT
 70
     0
  9
$DIMDEC
 70
     4
  9
$DIMTDEC
 70
     4
  9
$DIMALTU
 70
     2
  9
$DIMALTTD
 70
     2
  9
$DIMTXSTY
  7
Standard
  9
$DIMAUNIT
 70
     0
  9
$DIMADEC
 70
     0
  9
$DIMALTRND
 40
0.0
  9
$DIMAZIN
 70
     0
  9
$DIMDSEP
 70
     0
  9
$DIMATFIT
 70
     3
  9
$DIMFRAC
 70
     0
  9
$DIMLDRBLK
  1

  9
$DIMLUNIT
 70
     2
  9
$DIMLWD
 70
     0
  9
$DIMLWE
 70
     0
  9
$DIMTMOVE
 70
     0
  9
$LUNITS
 70
     2
  9
$LUPREC
 70
     4
  9
$SKETCHINC
 40
0.1
  9
$FILLETRAD
 40
0.0
  9
$AUNITS
 70
     0
  9
$AUPREC
 70
     0
  9
$MENU
  1
acad
  9
$ELEVATION
 40
0.0
  9
$PELEVATION
 40
0.0
  9
$THICKNESS
 40
0.0
  9
$LIMCHECK
 70
     0
  9
$CHAMFERA
 40
0.0
  9
$CHAMFERB
 40
0.0
  9
$CHAMFERC
 40
0.0
  9
$CHAMFERD
 40
0.0
  9
$SKPOLY
 70
     0
  9
$TDCREATE
 40
0.000000000
  9
$TDUCREATE
 40
0.000000000
  9
$TDUPDATE
 40
0.000000000
  9
$TDUUPDATE
 40
0.000000000
  9
$TDINDWG
 40
0.0000000000
  9
$TDUSRTIMER
 40
0.0000000000
  9
$USRTIMER
 70
     1
  9
$ANGBASE
 50
0.0
  9
$ANGDIR
 70
     0
  9
$PDMODE
 70
     0
  9
$PDSIZE
 40
0.0
  9
$PLINEWID
 40
0.0
  9
$SPLFRAME
 70
     0
  9
$SPLINETYPE
 70
     6
  9
$SPLINESEGS
 70
     8
  9
$HANDSEED
  5
18A
  9
$SURFTAB1
 70
     6
  9
$SURFTAB2
 70
     6
  9
$SURFTYPE
 70
     6
  9
$SURFU
 70
     6
  9
$SURFV
 70
     6
  9
$UCSBASE
  2

  9
$UCSNAME
  2

  9
$UCSORG
 10
0.0
 20
0.0
 30
0.0
  9
$UCSXDIR
 10
1.0
 20
0.0
 30
0.0
  9
$UCSYDIR
 10
0.0
 20
1.0
 30
0.0
  9
$UCSORTHOREF
  2

  9
$UCSORTHOVIEW
 70
     0
  9
$UCSORGTOP
 10
0.0
 20
0.0
 30
0.0
  9
$UCSORGBOTTOM
 10
0.0
 20
0.0
 30
0.0
  9
$UCSORGLEFT
 10
0.0
 20
0.0
 30
0.0
  9
$UCSORGRIGHT
 10
0.0
 20
0.0
 30
0.0
  9
$UCSORGFRONT
 10
0.0
 20
0.0
 30
0.0
  9
$UCSORGBACK
 10
0.0
 20
0.0
 30
0.0
  9
$PUCSBASE
  2

  9
$PUCSNAME
  2

  9
$PUCSORG
 10
0.0
 20
0.0
 30
0.0
  9
$PUCSXDIR
 10
1.0
 20
0.0
 30
0.0
  9
$PUCSYDIR
 10
0.0
 20
1.0
 30
0.0
  9
$PUCSORTHOREF
  2

  9
$PUCSORTHOVIEW
 70
     0
  9
$PUCSORGTOP
 10
0.0
 20
0.0
 30
0.0
  9
$PUCSORGBOTTOM
 10
0.0
 20
0.0
 30
0.0
  9
$PUCSORGLEFT
 10
0.0
 20
0.0
 30
0.0
  9
$PUCSORGRIGHT
 10
0.0
 20
0.0
 30
0.0
  9
$PUCSORGFRONT
 10
0.0
 20
0.0
 30
0.0
  9
$PUCSORGBACK
 10
0.0
 20
0.0
 30
0.0
  9
$USERI1
 70
     0
  9
$USERI2
 70
     0
  9
$USERI3
 70
     0
  9
$USERI4
 70
     0
  9
$USERI5
 70
     0
  9
$USERR1
 40
0.0
  9
$USERR2
 40
0.0
  9
$USERR3
 40
0.0
  9
$USERR4
 40
0.0
  9
$USERR5
 40
0.0
  9
$WORLDVIEW
 70
     1
  9
$SHADEDGE
 70
     3
  9
$SHADEDIF
 70
    70
  9
$TILEMODE
 70
     1
  9
$MAXACTVP
 70
    16
  9
$PINSBASE
 10
0.0
 20
0.0
 30
0.0
  9
$PLIMCHECK
 70
     0
  9
$PEXTMIN
 10
1.000000E+20
 20
1.000000E+20
 30
1.000000E+20
  9
$PEXTMAX
 10
-1.000000E+20
 20
-1.000000E+20
 30
-1.000000E+20
  9
$PLIMMIN
 10
0.0
 20
0.0
  9
$PLIMMAX
 10
12.0
 20
9.0
  9
$UNITMODE
 70
     0
  9
$VISRETAIN
 70
     0
  9
$PLINEGEN
 70
     1
  9
$PSLTSCALE
 70
     0
  9
$TREEDEPTH
 70
  3020
  9
$CMLSTYLE
  2
Standard
  9
$CMLJUST
 70
     0
  9
$CMLSCALE
 40
1.0
  9
$PROXYGRAPHICS
 70
     0
  9
$MEASUREMENT
 70
     1
  9
$CELWEIGHT
370
     0
  9
$ENDCAPS
280
     0
  9
$JOINSTYLE
280
     0
  9
$LWDISPLAY
290
     0
  9
$INSUNITS
 70
     0
  9
$HYPERLINKBASE
  1

  9
$STYLESHEET
  1

  9
$XEDIT
290
     1
  9
$CEPSNTYPE
380
     0
  9
$PSTYLEMODE
290
     1
  9
$FINGERPRINTGUID
  2

  9
$VERSIONGUID
  2

  9
$EXTNAMES
290
     1
  9
$PSVPSCALE
 40
0.0
  0
ENDSEC
  0
SECTION
  2
CLASSES
  0
CLASS
  1
LWPOLYLINE
  2
AcDbPolyline
  3
AutoCAD 2000
 90
    32768
280
     0
281
     1
  0
CLASS
  1
IMAGE
  2
AcDbRasterImage
  3
ISM
 90
    32895
280
     0
281
     1
  0
CLASS
  1
OLE2FRAME
  2
AcDbOle2Frame
  3
AutoCAD 2000
 90
    32768
280
     0
281
     1
  0
CLASS
  1
HATCH
  2
AcDbHatch
  3
AutoCAD 2000
 90
        0
280
     0
281
     1
  0
CLASS
  1
DICTIONARYVAR
  2
AcDbDictionaryVar
  3
AutoCAD 2000
 90
    32768
280
     0
281
     0
  0
CLASS
  1
RASTERVARIABLES
  2
AcDbRasterVariables
  3
ISM
 90
    32768
280
     0
281
     0
  0
CLASS
  1
IMAGEDEF
  2
AcDbRasterImageDef
  3
ISM
 90
    32768
280
     0
281
     0
  0
CLASS
  1
IMAGEDEF_REACTOR
  2
AcDbRasterImageDefReactor
  3
ISM
 90
    32769
280
     0
281
     0
  0
CLASS
  1
IDBUFFER
  2
AcDbIdBuffer
  3
AutoCAD 2000
 90
    32768
280
     0
281
     0
  0
CLASS
  1
SPATIAL_FILTER
  2
AcDbSpatialFilter
  3
AutoCAD 2000
 90
    32768
280
     0
281
     0
  0
CLASS
  1
XRECORD
  2
AcDbXrecord
  3
AutoCAD 2000
 90
    32768
280
     0
281
     0
  0
CLASS
  1
SORTENTSTABLE
  2
AcDbSortentsTable
  3
AutoCAD 2000
 90
    32768
280
     0
281
     0
  0
CLASS
  1
LAYER_INDEX
  2
AcDbLayerIndex
  3
AutoCAD 2000
 90
    32768
280
     0
281
     0
  0
CLASS
  1
SPATIAL_INDEX
  2
AcDbSpatialIndex
  3
AutoCAD 2000
 90
    32768
280
     0
281
     0
  0
CLASS
  1
OBJECT_PTR
  2
CAseDLPNTableRecord
  3
"ASE-LPNTableRecord"
 90
    32769
280
     0
281
     0
  0
CLASS
  1
LAYOUT
  2
AcDbLayout
  3
AutoCAD 2000
 90
        0
280
     0
281
     0
  0
CLASS
  1
PLOTSETTINGS
  2
AcDbPlotSettings
  3
AutoCAD 2000
 90
    32768
280
     0
281
     0
  0
CLASS
  1
ACDBDICTIONARYWDFLT
  2
AcDbDictionaryWithDefault
  3
AutoCAD 2000
 90
        0
280
     0
281
     0
  0
CLASS
  1
ACDBPLACEHOLDER
  2
AcDbPlaceHolder
  3
AutoCAD 2000
 90
        0
280
     0
281
     0
  0
CLASS
  1
VBA_PROJECT
  2
AcDbVbaProject
  3
acadvba
 90
    32768
280
     0
281
     0
  0
CLASS
  1
WIPEOUT
  2
AcDbWipeout
  3
WipeOut|AutoCAD Express Tool|expresstools@autodesk.com
 90
    32895
280
     0
281
     1
  0
CLASS
  1
WIPEOUTVARIABLES
  2
AcDbWipeoutVariables
  3
WipeOut|AutoCAD Express Tool|expresstools@autodesk.com
 90
        0
280
     0
281
     0
  0
CLASS
  1
RTEXT
  2
RText
  3
RText|AutoCAD Express Tool|expresstools@autodesk.com
 90
    32768
280
     0
281
     1
  0
CLASS
  1
ARCALIGNEDTEXT
  2
AcDbArcAlignedText
  3
ATEXT|AutoCAD Express Tool|expresstools@autodesk.com
 90
    32768
280
     0
281
     1
  0
ENDSEC
  0
SECTION
  2
TABLES
  0
TABLE
  2
VPORT
  5
7
100
AcDbSymbolTable
 70
     1
  0
VPORT
  5
15
100
AcDbSymbolTableRecord
100
AcDbViewportTableRecord
  2
*ACTIVE
 70
     0
 10
0.0
 20
0.0
 11
1.0
 21
1.0
 12
6.591288
 22
4.579184
 13
0.0
 23
0.0
 14
1.0
 24
1.0
 15
0.0
 25
0.0
 16
0.0
 26
0.0
 36
1.0
 17
0.0
 27
0.0
 37
0.0
 40
9.158369
 41
0.688564
 42
50.0
 43
0.0
 44
0.0
 50
0.0
 51
0.0
 71
     0
 72
   100
 73
     1
 74
     1
 75
     0
 76
     0
 77
     0
 78
     0
281
     0
 65
     0
110
0.0
120
0.0
130
0.0
111
1.0
121
0.0
131
0.0
112
0.0
122
1.0
132
0.0
345
0
346
0
 79
     0
146
0.0
  0
ENDTAB
  0
TABLE
  2
LTYPE
  5
4
100
AcDbSymbolTable
 70
     6
  0
LTYPE
  5
11
100
AcDbSymbolTableRecord
100
AcDbLinetypeTableRecord
  2
ByBlock
 70
    64
  3

 72
    65
 73
     0
 40
0.0
  0
LTYPE
  5
12
100
AcDbSymbolTableRecord
100
AcDbLinetypeTableRecord
  2
ByLayer
 70
    64
  3

 72
    65
 73
     0
 40
0.0
  0
LTYPE
  5
13
100
AcDbSymbolTableRecord
100
AcDbLinetypeTableRecord
  2
Continuous
 70
    64
  3
Solid line
 72
    65
 73
     0
 40
0.0
  0
LTYPE
  5
33
100
AcDbSymbolTableRecord
100
AcDbLinetypeTableRecord
  2
AI9-LType1
 70
    64
  3
Illustrator Dash Style No.1
 72
    65
 73
     4
 40
0.9525
 49
0.595312
 74
     0
 49
-0.119063
 74
     0
 49
0.119063
 74
     0
 49
-0.119063
 74
     0
  0
LTYPE
  5
7E
100
AcDbSymbolTableRecord
100
AcDbLinetypeTableRecord
  2
AI9-LType2
 70
    64
  3
Illustrator Dash Style No.2
 72
    65
 73
     4
 40
8.819444
 49
5.644444
 74
     0
 49
-1.411111
 74
     0
 49
0.352778
 74
     0
 49
-1.411111
 74
     0
  0
LTYPE
  5
15C
100
AcDbSymbolTableRecord
100
AcDbLinetypeTableRecord
  2
AI9-LType3
 70
    64
  3
Illustrator Dash Style No.3
 72
    65
 73
     6
 40
11.641667
 49
5.644444
 74
     0
 49
-1.763889
 74
     0
 49
0.352778
 74
     0
 49
-1.763889
 74
     0
 49
0.352778
 74
     0
 49
-1.763889
 74
     0
  0
ENDTAB
  0
TABLE
  2
LAYER
  5
2
100
AcDbSymbolTable
 70
     3
  0
LAYER
  5
14
100
AcDbSymbolTableRecord
100
AcDbLayerTableRecord
  2
0
 70
     0
 62
     7
  6
Continuous
290
     1
370
    -3
390
1D
  0
LAYER
  5
28
100
AcDbSymbolTableRecord
100
AcDbLayerTableRecord
  2
RAHMEN
 70
     0
 62
     1
  6
Continuous
290
     1
370
    -3
390
1D
  0
LAYER
  5
2F
100
AcDbSymbolTableRecord
100
AcDbLayerTableRecord
  2
BODEN-4-7
 70
     0
 62
   160
  6
Continuous
290
     1
370
    -3
390
1D
  0
ENDTAB
  0
TABLE
  2
STYLE
  5
3
100
AcDbSymbolTable
 70
     5
  0
STYLE
  5
17
100
AcDbSymbolTableRecord
100
AcDbTextStyleTableRecord
  2
Standard
 70
     0
 40
0.0
 41
1.0
 50
0.0
 71
     0
 42
0.0
  3
txt
  4

  0
STYLE
  5
24
100
AcDbSymbolTableRecord
100
AcDbTextStyleTableRecord
  2
STD
 70
     0
 40
0.0
 41
1.0
 50
0.0
 71
     0
 42
0.0
  3
txt
  4

  0
STYLE
  5
25
100
AcDbSymbolTableRecord
100
AcDbTextStyleTableRecord
  2
TATESTD
 70
     4
 40
0.0
 41
1.0
 50
0.0
 71
     0
 42
0.0
  3
txt
  4

  0
STYLE
  5
26
100
AcDbSymbolTableRecord
100
AcDbTextStyleTableRecord
  2
KANJISTD
 70
     0
 40
0.0
 41
1.0
 50
0.0
 71
     0
 42
0.0
  3
txt
  4
extfont
  0
STYLE
  5
27
100
AcDbSymbolTableRecord
100
AcDbTextStyleTableRecord
  2
KANJITATE
 70
     4
 40
0.0
 41
1.0
 50
0.0
 71
     0
 42
0.0
  3
txt
  4
extfont
  0
ENDTAB
  0
TABLE
  2
VIEW
  5
5
100
AcDbSymbolTable
 70
     0
  0
ENDTAB
  0
TABLE
  2
UCS
  5
6
100
AcDbSymbolTable
 70
     0
  0
ENDTAB
  0
TABLE
  2
APPID
  5
8
100
AcDbSymbolTable
 70
     1
  0
APPID
  5
16
100
AcDbSymbolTableRecord
100
AcDbRegAppTableRecord
  2
ACAD
 70
     0
  0
ENDTAB
  0
TABLE
  2
DIMSTYLE
  5
9
100
AcDbSymbolTable
 70
     1
100
AcDbDimStyleTable
 71
     0
  0
DIMSTYLE
105
18
100
AcDbSymbolTableRecord
100
AcDbDimStyleTableRecord
  2
Standard
 70
     0
  3

  4

 40
1.0
 41
0.18
 42
0.0625
 43
0.38
 44
0.18
 45
0.0
 46
0.0
 47
0.0
 48
0.0
 71
     0
 72
     0
 73
     1
 74
     1
 75
     0
 76
     0
 77
     0
 78
     0
 79
     0
140
0.18
141
0.09
142
0.0
143
25.4
144
1.0
145
0.0
146
1.0
147
0.09
148
0.0
170
     0
171
     2
172
     0
173
     0
174
     0
175
     0
176
     0
177
     0
178
     0
179
     0
271
     4
272
     4
273
     2
274
     2
275
     0
276
     0
277
     2
278
    46
279
     0
280
     0
281
     0
282
     0
283
     1
284
     0
285
     0
286
     0
288
     0
340
17
341
0
342
0
343
0
344
0
371
    -2
372
    -2
  0
ENDTAB
  0
TABLE
  2
BLOCK_RECORD
  5
1
100
AcDbSymbolTable
 70
     9
  0
BLOCK_RECORD
  5
A
100
AcDbSymbolTableRecord
100
AcDbBlockTableRecord
  2
*MODEL_SPACE
340
20
  0
BLOCK_RECORD
  5
B
100
AcDbSymbolTableRecord
100
AcDbBlockTableRecord
  2
*PAPER_SPACE
340
21
  0
BLOCK_RECORD
  5
30
100
AcDbSymbolTableRecord
100
AcDbBlockTableRecord
  2
AI9-BLK1
340
0
102
{BLKREFS
331
31
102
}
  0
BLOCK_RECORD
  5
6D
100
AcDbSymbolTableRecord
100
AcDbBlockTableRecord
  2
AI9-BLK2
340
0
102
{BLKREFS
331
6E
102
}
  0
BLOCK_RECORD
  5
75
100
AcDbSymbolTableRecord
100
AcDbBlockTableRecord
  2
AI9-BLK3
340
0
102
{BLKREFS
331
76
102
}
  0
BLOCK_RECORD
  5
7B
100
AcDbSymbolTableRecord
100
AcDbBlockTableRecord
  2
AI9-BLK4
340
0
102
{BLKREFS
331
7C
102
}
  0
BLOCK_RECORD
  5
81
100
AcDbSymbolTableRecord
100
AcDbBlockTableRecord
  2
AI9-BLK5
340
0
102
{BLKREFS
331
82
102
}
  0
BLOCK_RECORD
  5
FC
100
AcDbSymbolTableRecord
100
AcDbBlockTableRecord
  2
AI9-BLK6
340
0
102
{BLKREFS
331
FD
102
}
  0
BLOCK_RECORD
  5
104
100
AcDbSymbolTableRecord
100
AcDbBlockTableRecord
  2
AI9-BLK7
340
0
102
{BLKREFS
331
105
102
}
  0
BLOCK_RECORD
  5
159
100
AcDbSymbolTableRecord
100
AcDbBlockTableRecord
  2
AI9-BLK8
340
0
102
{BLKREFS
331
15A
102
}
  0
BLOCK_RECORD
  5
161
100
AcDbSymbolTableRecord
100
AcDbBlockTableRecord
  2
AI9-BLK9
340
0
102
{BLKREFS
331
162
102
}
  0
ENDTAB
  0
ENDSEC
  0
SECTION
  2
BLOCKS
  0
BLOCK
  5
D
100
AcDbEntity
  8
0
100
AcDbBlockBegin
  2
*MODEL_SPACE
 70
     0
 10
0.0
 20
0.0
 30
0.0
  3
*MODEL_SPACE
  1

  0
ENDBLK
  5
E
100
AcDbEntity
  8
0
100
AcDbBlockEnd
  0
BLOCK
  5
F
100
AcDbEntity
 67
     1
  8
0
100
AcDbBlockBegin
  2
*PAPER_SPACE
 70
     0
 10
0.0
 20
0.0
 30
0.0
  3
*PAPER_SPACE
  1

  0
ENDBLK
  5
10
100
AcDbEntity
 67
     1
  8
0
100
AcDbBlockEnd
  0
BLOCK
  5
32
100
AcDbEntity
  8
BODEN-4-7
 62
     7
100
AcDbBlockBegin
  2
AI9-BLK1
 70
     0
 10
0.0
 20
0.0
 30
0.0
  3
AI9-BLK1
  1

  0
LINE
  5
6B
100
AcDbEntity
  8
BODEN-4-7
 62
     7
100
AcDbLine
 10
8.796362
 20
7.693759
 30
0.0
 11
-7.708401
 21
-8.818928
 31
0.0
  0
LINE
  5
6A
100
AcDbEntity
  8
BODEN-4-7
 62
     7
100
AcDbLine
 10
-6.120901
 20
-9.770808
 30
0.0
 11
9.749276
 21
6.106604
 31
0.0
  0
LINE
  5
69
100
AcDbEntity
  8
BODEN-4-7
 62
     7
100
AcDbLine
 10
-10.566452
 20
-5.327323
 30
0.0
 11
5.30338
 21
10.550433
 31
0.0
  0
LINE
  5
68
100
AcDbEntity
  8
BODEN-4-7
 62
     7
100
AcDbLine
 10
4.033173
 20
11.81995
 30
0.0
 11
-11.837004
 21
-4.057806
 31
0.0
  0
LINE
  5
67
100
AcDbEntity
  8
BODEN-4-7
 62
     7
100
AcDbLine
 10
-10.88409
 20
-5.644961
 30
0.0
 11
5.620673
 21
10.867726
 31
0.0
  0
LINE
  5
66
100
AcDbEntity
  8
BODEN-4-7
 62
     7
100
AcDbLine
 10
-11.837004
 20
-4.057806
 30
0.0
 11
-10.566452
 21
-5.327323
 31
0.0
  0
LINE
  5
65
100
AcDbEntity
  8
BODEN-4-7
 62
     7
100
AcDbLine
 10
5.30338
 20
10.550433
 30
0.0
 11
4.033173
 21
11.81995
 31
0.0
  0
LINE
  5
64
100
AcDbEntity
  8
BODEN-4-7
 62
     7
100
AcDbLine
 10
5.620673
 20
10.867726
 30
0.0
 11
8.796362
 21
7.693759
 31
0.0
  0
LINE
  5
63
100
AcDbEntity
  8
BODEN-4-7
 62
     7
100
AcDbLine
 10
-7.708401
 20
-8.818928
 30
0.0
 11
-10.88409
 21
-5.644961
 31
0.0
  0
LINE
  5
62
100
AcDbEntity
  8
BODEN-4-7
 62
     7
100
AcDbLine
 10
8.478725
 20
7.376122
 30
0.0
 11
-7.391108
 21
-8.50129
 31
0.0
  0
LINE
  5
61
100
AcDbEntity
  8
BODEN-4-7
 62
     7
100
AcDbLine
 10
9.749276
 20
6.106604
 30
0.0
 11
8.478725
 21
7.376122
 31
0.0
  0
LINE
  5
60
100
AcDbEntity
  8
BODEN-4-7
 62
     7
100
AcDbLine
 10
-7.391108
 20
-8.50129
 30
0.0
 11
-6.120901
 21
-9.770808
 31
0.0
  0
POLYLINE
  5
5A
100
AcDbEntity
  8
BODEN-4-7
 62
     7
100
AcDb2dPolyline
 66
     1
 10
0.0
 20
0.0
 30
0.0
 70
     1
  0
VERTEX
  5
5B
100
AcDbEntity
  8
BODEN-4-7
 62
     7
100
AcDbVertex
100
AcDb2dVertex
 10
-11.554506
 20
-3.775308
 30
0.0
  0
VERTEX
  5
5C
100
AcDbEntity
  8
BODEN-4-7
 62
     7
100
AcDbVertex
100
AcDb2dVertex
 10
-8.507663
 20
-0.726743
 30
0.0
  0
VERTEX
  5
5D
100
AcDbEntity
  8
BODEN-4-7
 62
     7
100
AcDbVertex
100
AcDb2dVertex
 10
-8.825301
 20
-0.40945
 30
0.0
  0
VERTEX
  5
5E
100
AcDbEntity
  8
BODEN-4-7
 62
     7
100
AcDbVertex
100
AcDb2dVertex
 10
-11.872144
 20
-3.458015
 30
0.0
  0
SEQEND
  5
5F
100
AcDbEntity
  8
BODEN-4-7
 62
     7
  0
LINE
  5
59
100
AcDbEntity
  8
BODEN-4-7
 62
     7
100
AcDbLine
 10
-11.009492
 20
-2.594674
 30
0.0
 11
-9.687953
 21
-1.272791
 31
0.0
  0
LINE
  5
58
100
AcDbEntity
  8
BODEN-4-7
 62
     7
100
AcDbLine
 10
-11.803242
 20
-1.800924
 30
0.0
 11
-10.481703
 21
-0.479385
 31
0.0
  0
SPLINE
  5
57
100
AcDbEntity
  8
BODEN-4-7
 62
     7
100
AcDbSpline
210
0.0
220
0.0
230
1.0
 70
     8
 71
     3
 72
     8
 73
     4
 74
     0
 42
0.00000001
 43
0.00000001
 40
0.0
 40
0.0
 40
0.0
 40
0.0
 40
1.0
 40
1.0
 40
1.0
 40
1.0
 10
-10.626397026909721
 20
-0.7749742296006944
 30
0.0
 10
-11.012247721354166
 20
-0.9596313476562499
 30
0.0
 10
-11.322995334201387
 20
-1.2703789605034721
 30
0.0
 10
-11.507307942708332
 20
-1.6562296549479165
 30
0.0
  0
SPLINE
  5
56
100
AcDbEntity
  8
BODEN-4-7
 62
     7
100
AcDbSpline
210
0.0
220
0.0
230
1.0
 70
     8
 71
     3
 72
     8
 73
     4
 74
     0
 42
0.00000001
 43
0.00000001
 40
0.0
 40
0.0
 40
0.0
 40
0.0
 40
1.0
 40
1.0
 40
1.0
 40
1.0
 10
-10.86479763454861
 20
-2.2987399631076388
 30
0.0
 10
-10.478946940104166
 20
-2.1144273546006942
 30
0.0
 10
-10.168199327256943
 20
-1.803335232204861
 30
0.0
 10
-9.9838867187499982
 20
-1.4174845377604166
 30
0.0
  0
LINE
  5
55
100
AcDbEntity
  8
BODEN-4-7
 62
     7
100
AcDbLine
 10
-11.947936
 20
-2.096857
 30
0.0
 11
-11.305081
 21
-2.739368
 31
0.0
  0
SPLINE
  5
54
100
AcDbEntity
  8
BODEN-4-7
 62
     7
100
AcDbSpline
210
0.0
220
0.0
230
1.0
 70
     8
 71
     3
 72
     8
 73
     4
 74
     0
 42
0.00000001
 43
0.00000001
 40
0.0
 40
0.0
 40
0.0
 40
0.0
 40
1.0
 40
1.0
 40
1.0
 40
1.0
 10
-11.507307942708332
 20
-1.6562296549479165
 30
0.0
 10
-11.737784830729165
 20
-1.68516845703125
 30
0.0
 10
-11.91899685329861
 20
-1.8667249891493054
 30
0.0
 10
-11.947935655381944
 20
-2.0968573676215274
 30
0.0
  0
LINE
  5
53
100
AcDbEntity
  8
BODEN-4-7
 62
     7
100
AcDbLine
 10
-11.507308
 20
-1.65623
 30
0.0
 11
-10.864798
 21
-2.29874
 31
0.0
  0
SPLINE
  5
52
100
AcDbEntity
  8
BODEN-4-7
 62
     7
100
AcDbSpline
210
0.0
220
0.0
230
1.0
 70
     8
 71
     3
 72
     8
 73
     4
 74
     0
 42
0.00000001
 43
0.00000001
 40
0.0
 40
0.0
 40
0.0
 40
0.0
 40
1.0
 40
1.0
 40
1.0
 40
1.0
 10
-11.305080837673611
 20
-2.7393676757812497
 30
0.0
 10
-11.074948459201387
 20
-2.7104288736979165
 30
0.0
 10
-10.893391927083332
 20
-2.5288723415798611
 30
0.0
 10
-10.86479763454861
 20
-2.2987399631076388
 30
0.0
  0
LINE
  5
51
100
AcDbEntity
  8
BODEN-4-7
 62
     7
100
AcDbLine
 10
-10.626397
 20
-0.774974
 30
0.0
 11
-9.983887
 21
-1.417485
 31
0.0
  0
SPLINE
  5
50
100
AcDbEntity
  8
BODEN-4-7
 62
     7
100
AcDbSpline
210
0.0
220
0.0
230
1.0
 70
     8
 71
     3
 72
     8
 73
     4
 74
     0
 42
0.00000001
 43
0.00000001
 40
0.0
 40
0.0
 40
0.0
 40
0.0
 40
1.0
 40
1.0
 40
1.0
 40
1.0
 10
-10.186113823784721
 20
-0.3346910264756944
 30
0.0
 10
-10.416246202256943
 20
-0.3632853190104166
 30
0.0
 10
-10.597802734375
 20
-0.5448418511284722
 30
0.0
 10
-10.626397026909721
 20
-0.7749742296006944
 30
0.0
  0
SPLINE
  5
4F
100
AcDbEntity
  8
BODEN-4-7
 62
     7
100
AcDbSpline
210
0.0
220
0.0
230
1.0
 70
     8
 71
     3
 72
     8
 73
     4
 74
     0
 42
0.00000001
 43
0.00000001
 40
0.0
 40
0.0
 40
0.0
 40
0.0
 40
1.0
 40
1.0
 40
1.0
 40
1.0
 10
-9.9838867187499982
 20
-1.4174845377604166
 30
0.0
 10
-9.753409830729165
 20
-1.3885457356770832
 30
0.0
 10
-9.5721978081597214
 20
-1.2073337131076387
 30
0.0
 10
-9.5432590060763882
 20
-0.9768568250868055
 30
0.0
  0
LINE
  5
4E
100
AcDbEntity
  8
BODEN-4-7
 62
     7
100
AcDbLine
 10
-10.186114
 20
-0.334691
 30
0.0
 11
-9.543259
 21
-0.976857
 31
0.0
  0
LINE
  5
4D
100
AcDbEntity
  8
BODEN-4-7
 62
     7
100
AcDbLine
 10
-3.966338
 20
-11.923992
 30
0.0
 11
11.903838
 21
3.953419
 31
0.0
  0
LINE
  5
4C
100
AcDbEntity
  8
BODEN-4-7
 62
     7
100
AcDbLine
 10
11.903838
 20
3.953419
 30
0.0
 11
10.633287
 21
5.223282
 31
0.0
  0
LINE
  5
4B
100
AcDbEntity
  8
BODEN-4-7
 62
     7
100
AcDbLine
 10
-5.23689
 20
-10.654475
 30
0.0
 11
-3.966338
 21
-11.923992
 31
0.0
  0
LINE
  5
4A
100
AcDbEntity
  8
BODEN-4-7
 62
     7
100
AcDbLine
 10
-3.966683
 20
-11.924337
 30
0.0
 11
11.903149
 21
3.953419
 31
0.0
  0
POLYLINE
  5
44
100
AcDbEntity
  8
BODEN-4-7
 62
     7
100
AcDb2dPolyline
 66
     1
 10
0.0
 20
0.0
 30
0.0
 70
     1
  0
VERTEX
  5
45
100
AcDbEntity
  8
BODEN-4-7
 62
     7
100
AcDbVertex
100
AcDb2dVertex
 10
0.616328
 20
8.571914
 30
0.0
  0
VERTEX
  5
46
100
AcDbEntity
  8
BODEN-4-7
 62
     7
100
AcDbVertex
100
AcDb2dVertex
 10
3.66317
 20
11.620479
 30
0.0
  0
VERTEX
  5
47
100
AcDbEntity
  8
BODEN-4-7
 62
     7
100
AcDbVertex
100
AcDb2dVertex
 10
3.345532
 20
11.937773
 30
0.0
  0
VERTEX
  5
48
100
AcDbEntity
  8
BODEN-4-7
 62
     7
100
AcDbVertex
100
AcDb2dVertex
 10
0.29869
 20
8.889208
 30
0.0
  0
SEQEND
  5
49
100
AcDbEntity
  8
BODEN-4-7
 62
     7
  0
LINE
  5
43
100
AcDbEntity
  8
BODEN-4-7
 62
     7
100
AcDbLine
 10
1.161342
 20
9.752549
 30
0.0
 11
2.48288
 21
11.074432
 31
0.0
  0
LINE
  5
42
100
AcDbEntity
  8
BODEN-4-7
 62
     7
100
AcDbLine
 10
0.367592
 20
10.546299
 30
0.0
 11
1.68913
 21
11.867837
 31
0.0
  0
SPLINE
  5
41
100
AcDbEntity
  8
BODEN-4-7
 62
     7
100
AcDbSpline
210
0.0
220
0.0
230
1.0
 70
     8
 71
     3
 72
     8
 73
     4
 74
     0
 42
0.00000001
 43
0.00000001
 40
0.0
 40
0.0
 40
0.0
 40
0.0
 40
1.0
 40
1.0
 40
1.0
 40
1.0
 10
1.5444363064236111
 20
11.572247992621527
 30
0.0
 10
1.1585856119791667
 20
11.387590874565971
 30
0.0
 10
0.8478379991319444
 20
11.076843261718748
 30
0.0
 10
0.6635253906249999
 20
10.690992567274305
 30
0.0
  0
SPLINE
  5
40
100
AcDbEntity
  8
BODEN-4-7
 62
     7
100
AcDbSpline
210
0.0
220
0.0
230
1.0
 70
     8
 71
     3
 72
     8
 73
     4
 74
     0
 42
0.00000001
 43
0.00000001
 40
0.0
 40
0.0
 40
0.0
 40
0.0
 40
1.0
 40
1.0
 40
1.0
 40
1.0
 10
1.3060356987847221
 20
10.048482259114582
 30
0.0
 10
1.6918863932291666
 20
10.232794867621527
 30
0.0
 10
2.0026340060763888
 20
10.543886990017359
 30
0.0
 10
2.1869466145833329
 20
10.929737684461804
 30
0.0
  0
LINE
  5
3F
100
AcDbEntity
  8
BODEN-4-7
 62
     7
100
AcDbLine
 10
0.222898
 20
10.250365
 30
0.0
 11
0.865752
 21
9.607855
 31
0.0
  0
SPLINE
  5
3E
100
AcDbEntity
  8
BODEN-4-7
 62
     7
100
AcDbSpline
210
0.0
220
0.0
230
1.0
 70
     8
 71
     3
 72
     8
 73
     4
 74
     0
 42
0.00000001
 43
0.00000001
 40
0.0
 40
0.0
 40
0.0
 40
0.0
 40
1.0
 40
1.0
 40
1.0
 40
1.0
 10
0.6635253906249999
 20
10.690992567274305
 30
0.0
 10
0.4330485026041666
 20
10.66205376519097
 30
0.0
 10
0.2518364800347222
 20
10.480497233072915
 30
0.0
 10
0.2228976779513889
 20
10.250364854600694
 30
0.0
  0
LINE
  5
3D
100
AcDbEntity
  8
BODEN-4-7
 62
     7
100
AcDbLine
 10
0.663525
 20
10.690993
 30
0.0
 11
1.306036
 21
10.048482
 31
0.0
  0
SPLINE
  5
3C
100
AcDbEntity
  8
BODEN-4-7
 62
     7
100
AcDbSpline
210
0.0
220
0.0
230
1.0
 70
     8
 71
     3
 72
     8
 73
     4
 74
     0
 42
0.00000001
 43
0.00000001
 40
0.0
 40
0.0
 40
0.0
 40
0.0
 40
1.0
 40
1.0
 40
1.0
 40
1.0
 10
0.8657524956597221
 20
9.6078545464409721
 30
0.0
 10
1.0958848741319442
 20
9.6367933485243054
 30
0.0
 10
1.2774414062499999
 20
9.8183498806423604
 30
0.0
 10
1.3060356987847221
 20
10.048482259114582
 30
0.0
  0
LINE
  5
3B
100
AcDbEntity
  8
BODEN-4-7
 62
     7
100
AcDbLine
 10
1.544436
 20
11.572248
 30
0.0
 11
2.186947
 21
10.929738
 31
0.0
  0
SPLINE
  5
3A
100
AcDbEntity
  8
BODEN-4-7
 62
     7
100
AcDbSpline
210
0.0
220
0.0
230
1.0
 70
     8
 71
     3
 72
     8
 73
     4
 74
     0
 42
0.00000001
 43
0.00000001
 40
0.0
 40
0.0
 40
0.0
 40
0.0
 40
1.0
 40
1.0
 40
1.0
 40
1.0
 10
1.984719509548611
 20
12.012531195746528
 30
0.0
 10
1.7545871310763888
 20
11.983936903211804
 30
0.0
 10
1.5730305989583331
 20
11.802380371093749
 30
0.0
 10
1.5444363064236111
 20
11.572247992621527
 30
0.0
  0
SPLINE
  5
39
100
AcDbEntity
  8
BODEN-4-7
 62
     7
100
AcDbSpline
210
0.0
220
0.0
230
1.0
 70
     8
 71
     3
 72
     8
 73
     4
 74
     0
 42
0.00000001
 43
0.00000001
 40
0.0
 40
0.0
 40
0.0
 40
0.0
 40
1.0
 40
1.0
 40
1.0
 40
1.0
 10
2.1869466145833329
 20
10.929737684461804
 30
0.0
 10
2.4174235026041666
 20
10.958676486545137
 30
0.0
 10
2.5986355251736111
 20
11.139888509114583
 30
0.0
 10
2.6275743272569443
 20
11.370365397135416
 30
0.0
  0
LINE
  5
38
100
AcDbEntity
  8
BODEN-4-7
 62
     7
100
AcDbLine
 10
1.98472
 20
12.012531
 30
0.0
 11
2.627574
 21
11.370365
 31
0.0
  0
HATCH
  5
37
100
AcDbEntity
  8
BODEN-4-7
 62
     7
100
AcDbHatch
 10
0.0
 20
0.0
 30
0.0
210
0.0
220
0.0
230
1.0
  2
SOLID
 70
     1
 71
     0
 91
        4
 92
       16
 93
        1
 72
     4
 94
        3
 73
     0
 74
     0
 95
       17
 96
       13
 40
0.0
 40
0.0
 40
0.0
 40
0.0
 40
1.0
 40
1.0
 40
1.0
 40
2.0
 40
2.0
 40
2.0
 40
3.0
 40
3.0
 40
3.0
 40
4.0
 40
4.0
 40
4.0
 40
4.0
 10
-8.7608778211805554
 20
-3.5207153320312496
 10
-8.7608778211805554
 20
-3.5207153320312496
 10
-10.884090169270833
 20
-5.6449612087673602
 10
-10.884090169270833
 20
-5.6449612087673602
 10
-10.884090169270833
 20
-5.6449612087673602
 10
-7.7084011501736107
 20
-8.8189276801215275
 10
-7.7084011501736107
 20
-8.8189276801215275
 10
-7.7084011501736107
 20
-8.8189276801215275
 10
-5.5855333116319441
 20
-6.6946818033854161
 10
-5.5855333116319441
 20
-6.6946818033854161
 10
-5.5855333116319441
 20
-6.6946818033854161
 10
-8.7608778211805554
 20
-3.5207153320312496
 10
-8.7608778211805554
 20
-3.5207153320312496
 97
        0
 92
       16
 93
        1
 72
     4
 94
        3
 73
     0
 74
     0
 95
       17
 96
       13
 40
0.0
 40
0.0
 40
0.0
 40
0.0
 40
1.0
 40
1.0
 40
1.0
 40
2.0
 40
2.0
 40
2.0
 40
3.0
 40
3.0
 40
3.0
 40
4.0
 40
4.0
 40
4.0
 40
4.0
 10
0.5422580295138888
 20
-0.5641343858506944
 10
0.5422580295138888
 20
-0.5641343858506944
 10
-2.6337754991319442
 20
2.6091430664062498
 10
-2.6337754991319442
 20
2.6091430664062498
 10
-2.6337754991319442
 20
2.6091430664062498
 10
-8.7608778211805554
 20
-3.5207153320312496
 10
-8.7608778211805554
 20
-3.5207153320312496
 10
-8.7608778211805554
 20
-3.5207153320312496
 10
-5.5855333116319441
 20
-6.6946818033854161
 10
-5.5855333116319441
 20
-6.6946818033854161
 10
-5.5855333116319441
 20
-6.6946818033854161
 10
0.5422580295138888
 20
-0.5641343858506944
 10
0.5422580295138888
 20
-0.5641343858506944
 97
        0
 92
       16
 93
        1
 72
     4
 94
        3
 73
     0
 74
     0
 95
       17
 96
       13
 40
0.0
 40
0.0
 40
0.0
 40
0.0
 40
1.0
 40
1.0
 40
1.0
 40
2.0
 40
2.0
 40
2.0
 40
3.0
 40
3.0
 40
3.0
 40
4.0
 40
4.0
 40
4.0
 40
4.0
 10
6.6731499565972214
 20
5.569513617621527
 10
6.6731499565972214
 20
5.569513617621527
 10
3.4978054470486106
 20
8.7438245985243039
 10
3.4978054470486106
 20
8.7438245985243039
 10
3.4978054470486106
 20
8.7438245985243039
 10
-2.6337754991319442
 20
2.6091430664062498
 10
-2.6337754991319442
 20
2.6091430664062498
 10
-2.6337754991319442
 20
2.6091430664062498
 10
0.5422580295138888
 20
-0.5641343858506944
 10
0.5422580295138888
 20
-0.5641343858506944
 10
0.5422580295138888
 20
-0.5641343858506944
 10
6.6731499565972214
 20
5.569513617621527
 10
6.6731499565972214
 20
5.569513617621527
 97
        0
 92
       16
 93
        1
 72
     4
 94
        3
 73
     0
 74
     0
 95
       20
 96
       16
 40
0.0
 40
0.0
 40
0.0
 40
0.0
 40
1.0
 40
1.0
 40
1.0
 40
2.0
 40
2.0
 40
2.0
 40
3.0
 40
3.0
 40
3.0
 40
4.0
 40
4.0
 40
4.0
 40
5.0
 40
5.0
 40
5.0
 40
5.0
 10
5.6206732855902777
 20
10.867725965711804
 10
5.6206732855902777
 20
10.867725965711804
 10
3.4978054470486106
 20
8.7438245985243039
 10
3.4978054470486106
 20
8.7438245985243039
 10
3.4978054470486106
 20
8.7438245985243039
 10
6.6731499565972214
 20
5.569513617621527
 10
6.6731499565972214
 20
5.569513617621527
 10
6.6731499565972214
 20
5.569513617621527
 10
8.4787245008680543
 20
7.3761216905381941
 10
8.4787245008680543
 20
7.3761216905381941
 10
8.4787245008680543
 20
7.3761216905381941
 10
8.7963623046874986
 20
7.6937594943576384
 10
8.7963623046874986
 20
7.6937594943576384
 10
8.7963623046874986
 20
7.6937594943576384
 10
5.6206732855902777
 20
10.867725965711804
 10
5.6206732855902777
 20
10.867725965711804
 97
        0
 75
     0
 76
     1
 98
        1
 10
0.0
 20
0.0
  0
HATCH
  5
36
100
AcDbEntity
  8
BODEN-4-7
 62
     7
100
AcDbHatch
 10
0.0
 20
0.0
 30
0.0
210
0.0
220
0.0
230
1.0
  2
SOLID
 70
     1
 71
     0
 91
        4
 92
       16
 93
        1
 72
     4
 94
        3
 73
     0
 74
     0
 95
       17
 96
       13
 40
0.0
 40
0.0
 40
0.0
 40
0.0
 40
1.0
 40
1.0
 40
1.0
 40
2.0
 40
2.0
 40
2.0
 40
3.0
 40
3.0
 40
3.0
 40
4.0
 40
4.0
 40
4.0
 40
4.0
 10
-6.6066596137152773
 20
-5.6739000108506943
 10
-6.6066596137152773
 20
-5.6739000108506943
 10
-8.7295274522569439
 20
-7.7978013780381934
 10
-8.7295274522569439
 20
-7.7978013780381934
 10
-8.7295274522569439
 20
-7.7978013780381934
 10
-5.5538384331597221
 20
-10.97211235894097
 10
-5.5538384331597221
 20
-10.97211235894097
 10
-5.5538384331597221
 20
-10.97211235894097
 10
-3.4309705946180551
 20
-8.8478664822048607
 10
-3.4309705946180551
 20
-8.8478664822048607
 10
-3.4309705946180551
 20
-8.8478664822048607
 10
-6.6066596137152773
 20
-5.6739000108506943
 10
-6.6066596137152773
 20
-5.6739000108506943
 97
        0
 92
       16
 93
        1
 72
     4
 94
        3
 73
     0
 74
     0
 95
       17
 96
       13
 40
0.0
 40
0.0
 40
0.0
 40
0.0
 40
1.0
 40
1.0
 40
1.0
 40
2.0
 40
2.0
 40
2.0
 40
3.0
 40
3.0
 40
3.0
 40
4.0
 40
4.0
 40
4.0
 40
4.0
 10
2.6964762369791666
 20
-2.7173190646701388
 10
2.6964762369791666
 20
-2.7173190646701388
 10
-0.4792127821180555
 20
0.4563028971354166
 10
-0.4792127821180555
 20
0.4563028971354166
 10
-0.4792127821180555
 20
0.4563028971354166
 10
-6.6066596137152773
 20
-5.6739000108506943
 10
-6.6066596137152773
 20
-5.6739000108506943
 10
-6.6066596137152773
 20
-5.6739000108506943
 10
-3.4309705946180551
 20
-8.8478664822048607
 10
-3.4309705946180551
 20
-8.8478664822048607
 10
-3.4309705946180551
 20
-8.8478664822048607
 10
2.6964762369791666
 20
-2.7173190646701388
 10
2.6964762369791666
 20
-2.7173190646701388
 97
        0
 92
       16
 93
        1
 72
     4
 94
        3
 73
     0
 74
     0
 95
       17
 96
       13
 40
0.0
 40
0.0
 40
0.0
 40
0.0
 40
1.0
 40
1.0
 40
1.0
 40
2.0
 40
2.0
 40
2.0
 40
3.0
 40
3.0
 40
3.0
 40
4.0
 40
4.0
 40
4.0
 40
4.0
 10
8.8273681640624986
 20
3.4166734483506942
 10
8.8273681640624986
 20
3.4166734483506942
 10
5.6523681640624996
 20
6.5906399197048602
 10
5.6523681640624996
 20
6.5906399197048602
 10
5.6523681640624996
 20
6.5906399197048602
 10
-0.4792127821180555
 20
0.4563028971354166
 10
-0.4792127821180555
 20
0.4563028971354166
 10
-0.4792127821180555
 20
0.4563028971354166
 10
2.6964762369791666
 20
-2.7173190646701388
 10
2.6964762369791666
 20
-2.7173190646701388
 10
2.6964762369791666
 20
-2.7173190646701388
 10
8.8273681640624986
 20
3.4166734483506942
 10
8.8273681640624986
 20
3.4166734483506942
 97
        0
 92
       16
 93
        1
 72
     4
 94
        3
 73
     0
 74
     0
 95
       20
 96
       16
 40
0.0
 40
0.0
 40
0.0
 40
0.0
 40
1.0
 40
1.0
 40
1.0
 40
2.0
 40
2.0
 40
2.0
 40
3.0
 40
3.0
 40
3.0
 40
4.0
 40
4.0
 40
4.0
 40
5.0
 40
5.0
 40
5.0
 40
5.0
 10
7.7752360026041663
 20
8.7145412868923611
 10
7.7752360026041663
 20
8.7145412868923611
 10
5.6523681640624996
 20
6.5906399197048602
 10
5.6523681640624996
 20
6.5906399197048602
 10
5.6523681640624996
 20
6.5906399197048602
 10
8.8273681640624986
 20
3.4166734483506942
 10
8.8273681640624986
 20
3.4166734483506942
 10
8.8273681640624986
 20
3.4166734483506942
 10
10.633287217881943
 20
5.2232815212673609
 10
10.633287217881943
 20
5.2232815212673609
 10
10.633287217881943
 20
5.2232815212673609
 10
10.950925021701387
 20
5.5405748155381938
 10
10.950925021701387
 20
5.5405748155381938
 10
10.950925021701387
 20
5.5405748155381938
 10
7.7752360026041663
 20
8.7145412868923611
 10
7.7752360026041663
 20
8.7145412868923611
 97
        0
 75
     0
 76
     1
 98
        1
 10
0.0
 20
0.0
  0
LINE
  5
35
100
AcDbEntity
  8
BODEN-4-7
  6
AI9-LType1
 62
     7
100
AcDbLine
 10
-2.923164
 20
-9.355674
 30
0.0
 11
-11.751221
 21
-0.53175
 31
0.0
  0
LINE
  5
34
100
AcDbEntity
  8
BODEN-4-7
  6
AI9-LType1
 62
     7
100
AcDbLine
 10
9.335175
 20
2.908522
 30
0.0
 11
0.507463
 21
11.732445
 31
0.0
  0
ENDBLK
  5
6C
100
AcDbEntity
  8
BODEN-4-7
100
AcDbBlockEnd
  0
BLOCK
  5
6F
100
AcDbEntity
  8
BODEN-4-7
 62
     7
100
AcDbBlockBegin
  2
AI9-BLK2
 70
     0
 10
0.0
 20
0.0
 30
0.0
  3
AI9-BLK2
  1

  0
MTEXT
  5
73
100
AcDbEntity
  8
BODEN-4-7
 62
     7
100
AcDbMText
 10
-30.316496
 20
23.570966
 30
0.0
 40
5.774636
 41
0.0
 71
     1
 72
     2
  1
\fArial|b0|i0;\H5.7746;\C7;\U+004B\U+0065\U+0072\U+006E\U+0062\U+006F\U+0068\U+0072\U+0075\U+006E\U+0067
  7
STD
210
0.0
220
0.0
230
1.0
 73
     1
 44
1.0
  0
MTEXT
  5
72
100
AcDbEntity
  8
BODEN-4-7
 62
     7
100
AcDbMText
 10
-8.578977
 20
-15.530179
 30
0.0
 40
5.774636
 41
0.0
 71
     1
 72
     2
  1
\fArial|b0|i0;\H5.7746;\C7;\U+0033\U+0030
  7
STD
210
0.0
220
0.0
230
1.0
 73
     1
 44
1.0
  0
MTEXT
  5
71
100
AcDbEntity
  8
BODEN-4-7
 62
     7
100
AcDbMText
 10
-8.578977
 20
-5.380239
 30
0.0
 40
5.774636
 41
0.0
 71
     1
 72
     2
  1
\fArial|b0|i0;\H5.7746;\C7;\U+0053\U+0074\U+0061\U+006E\U+0064\U+0061\U+0072\U+0064
  7
STD
210
0.0
220
0.0
230
1.0
 73
     1
 44
1.0
  0
MTEXT
  5
70
100
AcDbEntity
  8
BODEN-4-7
 62
     7
100
AcDbMText
 10
-8.578977
 20
4.769702
 30
0.0
 40
5.774636
 41
0.0
 71
     1
 72
     2
  1
\fArial|b0|i0;\H5.7746;\C7;\U+0046\U+0048\U+0052\U+004B\U+002D
  7
STD
210
0.0
220
0.0
230
1.0
 73
     1
 44
1.0
  0
ENDBLK
  5
74
100
AcDbEntity
  8
BODEN-4-7
100
AcDbBlockEnd
  0
BLOCK
  5
77
100
AcDbEntity
  8
BODEN-4-7
 62
     7
100
AcDbBlockBegin
  2
AI9-BLK3
 70
     0
 10
0.0
 20
0.0
 30
0.0
  3
AI9-BLK3
  1

  0
LINE
  5
79
100
AcDbEntity
  8
BODEN-4-7
 62
     7
100
AcDbLine
 10
38.755257
 20
-15.529801
 30
0.0
 11
-1.986442
 21
-32.246783
 31
0.0
  0
LINE
  5
78
100
AcDbEntity
  8
BODEN-4-7
 62
     7
100
AcDbLine
 10
-14.251326
 20
32.246783
 30
0.0
 11
-38.755257
 21
-8.813243
 31
0.0
  0
ENDBLK
  5
7A
100
AcDbEntity
  8
BODEN-4-7
100
AcDbBlockEnd
  0
BLOCK
  5
7D
100
AcDbEntity
  8
BODEN-4-7
 62
     7
100
AcDbBlockBegin
  2
AI9-BLK4
 70
     0
 10
0.0
 20
0.0
 30
0.0
  3
AI9-BLK4
  1

  0
LINE
  5
7F
100
AcDbEntity
  8
BODEN-4-7
  6
AI9-LType2
 62
     7
100
AcDbLine
 10
-57.682267
 20
57.634553
 30
0.0
 11
57.682267
 21
-57.634553
 31
0.0
  0
ENDBLK
  5
80
100
AcDbEntity
  8
BODEN-4-7
100
AcDbBlockEnd
  0
BLOCK
  5
83
100
AcDbEntity
  8
BODEN-4-7
  6
AI9-LType2
 62
     7
100
AcDbBlockBegin
  2
AI9-BLK5
 70
     0
 10
0.0
 20
0.0
 30
0.0
  3
AI9-BLK5
  1

  0
LINE
  5
FA
100
AcDbEntity
  8
BODEN-4-7
 62
     7
100
AcDbLine
 10
-54.881318
 20
55.176391
 30
0.0
 11
-54.881491
 21
55.540882
 31
0.0
  0
LINE
  5
F9
100
AcDbEntity
  8
BODEN-4-7
 62
     7
100
AcDbLine
 10
-55.582568
 20
53.982665
 30
0.0
 11
-55.58274
 21
54.006436
 31
0.0
  0
LINE
  5
F8
100
AcDbEntity
  8
BODEN-4-7
 62
     7
100
AcDbLine
 10
-54.004714
 20
56.253328
 30
0.0
 11
-54.004886
 21
56.805577
 31
0.0
  0
LINE
  5
F7
100
AcDbEntity
  8
BODEN-4-7
 62
     7
100
AcDbLine
 10
-53.130349
 20
55.486794
 30
0.0
 11
-53.130521
 21
55.884014
 31
0.0
  0
LINE
  5
F6
100
AcDbEntity
  8
BODEN-4-7
 62
     7
100
AcDbLine
 10
-51.549567
 20
56.697401
 30
0.0
 11
-51.549567
 21
57.402612
 31
0.0
  0
LINE
  5
F5
100
AcDbEntity
  8
BODEN-4-7
 62
     7
100
AcDbLine
 10
-51.374211
 20
56.854841
 30
0.0
 11
-51.374211
 21
57.589336
 31
0.0
  0
LINE
  5
F4
100
AcDbEntity
  8
BODEN-4-7
 62
     7
100
AcDbLine
 10
-52.602043
 20
57.729896
 30
0.0
 11
-52.602216
 21
58.431662
 31
0.0
  0
LINE
  5
F3
100
AcDbEntity
  8
BODEN-4-7
 62
     7
100
AcDbLine
 10
-52.426688
 20
57.896294
 30
0.0
 11
-52.42686
 21
58.60874
 31
0.0
  0
LINE
  5
F2
100
AcDbEntity
  8
BODEN-4-7
 62
     7
100
AcDbLine
 10
-51.198856
 20
57.017794
 30
0.0
 11
-51.198856
 21
57.780194
 31
0.0
  0
LINE
  5
F1
100
AcDbEntity
  8
BODEN-4-7
 62
     7
100
AcDbLine
 10
-51.023501
 20
57.185915
 30
0.0
 11
-51.023673
 21
57.975531
 31
0.0
  0
LINE
  5
F0
100
AcDbEntity
  8
BODEN-4-7
 62
     7
100
AcDbLine
 10
-50.848145
 20
57.360237
 30
0.0
 11
-50.848317
 21
58.174313
 31
0.0
  0
LINE
  5
EF
100
AcDbEntity
  8
BODEN-4-7
 62
     7
100
AcDbLine
 10
-50.67279
 20
57.54076
 30
0.0
 11
-50.673134
 21
59.320152
 31
0.0
  0
LINE
  5
EE
100
AcDbEntity
  8
BODEN-4-7
 62
     7
100
AcDbLine
 10
-50.497434
 20
57.727829
 30
0.0
 11
-50.497779
 21
59.194406
 31
0.0
  0
LINE
  5
ED
100
AcDbEntity
  8
BODEN-4-7
 62
     7
100
AcDbLine
 10
-50.322079
 20
57.941425
 30
0.0
 11
-50.322424
 21
58.986322
 31
0.0
  0
LINE
  5
EC
100
AcDbEntity
  8
BODEN-4-7
 62
     7
100
AcDbLine
 10
-52.251333
 20
58.059591
 30
0.0
 11
-52.251505
 21
58.780994
 31
0.0
  0
LINE
  5
EB
100
AcDbEntity
  8
BODEN-4-7
 62
     7
100
AcDbLine
 10
-52.075977
 20
58.219099
 30
0.0
 11
-52.076149
 21
58.948426
 31
0.0
  0
LINE
  5
EA
100
AcDbEntity
  8
BODEN-4-7
 62
     7
100
AcDbLine
 10
-51.900622
 20
58.375507
 30
0.0
 11
-51.900794
 21
59.111379
 31
0.0
  0
LINE
  5
E9
100
AcDbEntity
  8
BODEN-4-7
 62
     7
100
AcDbLine
 10
-51.725267
 20
58.528469
 30
0.0
 11
-51.725439
 21
59.262274
 31
0.0
  0
LINE
  5
E8
100
AcDbEntity
  8
BODEN-4-7
 62
     7
100
AcDbLine
 10
-51.549911
 20
58.678675
 30
0.0
 11
-51.550083
 21
59.362182
 31
0.0
  0
LINE
  5
E7
100
AcDbEntity
  8
BODEN-4-7
 62
     7
100
AcDbLine
 10
-51.374556
 20
58.821991
 30
0.0
 11
-51.374728
 21
59.420749
 31
0.0
  0
LINE
  5
E6
100
AcDbEntity
  8
BODEN-4-7
 62
     7
100
AcDbLine
 10
-51.1992
 20
58.88228
 30
0.0
 11
-51.199373
 21
59.444864
 31
0.0
  0
LINE
  5
E5
100
AcDbEntity
  8
BODEN-4-7
 62
     7
100
AcDbLine
 10
-51.023845
 20
58.864021
 30
0.0
 11
-51.024017
 21
59.437285
 31
0.0
  0
LINE
  5
E4
100
AcDbEntity
  8
BODEN-4-7
 62
     7
100
AcDbLine
 10
-52.952237
 20
55.605994
 30
0.0
 11
-52.95241
 21
56.041454
 31
0.0
  0
LINE
  5
E3
100
AcDbEntity
  8
BODEN-4-7
 62
     7
100
AcDbLine
 10
-52.776882
 20
55.727606
 30
0.0
 11
-52.777054
 21
56.199584
 31
0.0
  0
LINE
  5
E2
100
AcDbEntity
  8
BODEN-4-7
 62
     7
100
AcDbLine
 10
-52.601527
 20
55.853352
 30
0.0
 11
-52.601699
 21
56.361159
 31
0.0
  0
LINE
  5
E1
100
AcDbEntity
  8
BODEN-4-7
 62
     7
100
AcDbLine
 10
-52.426171
 20
55.982888
 30
0.0
 11
-52.426343
 21
56.525835
 31
0.0
  0
LINE
  5
E0
100
AcDbEntity
  8
BODEN-4-7
 62
     7
100
AcDbLine
 10
-52.250816
 20
56.116557
 30
0.0
 11
-52.250988
 21
56.693955
 31
0.0
  0
LINE
  5
DF
100
AcDbEntity
  8
BODEN-4-7
 62
     7
100
AcDbLine
 10
-52.07546
 20
56.25505
 30
0.0
 11
-52.075633
 21
56.865521
 31
0.0
  0
LINE
  5
DE
100
AcDbEntity
  8
BODEN-4-7
 62
     7
100
AcDbLine
 10
-51.900105
 20
56.397677
 30
0.0
 11
-51.900277
 21
57.040877
 31
0.0
  0
LINE
  5
DD
100
AcDbEntity
  8
BODEN-4-7
 62
     7
100
AcDbLine
 10
-51.72475
 20
56.545127
 30
0.0
 11
-51.724922
 21
57.219677
 31
0.0
  0
LINE
  5
DC
100
AcDbEntity
  8
BODEN-4-7
 62
     7
100
AcDbLine
 10
-53.303465
 20
57.025029
 30
0.0
 11
-53.303465
 21
57.669262
 31
0.0
  0
LINE
  5
DB
100
AcDbEntity
  8
BODEN-4-7
 62
     7
100
AcDbLine
 10
-53.478648
 20
56.838994
 30
0.0
 11
-53.47882
 21
57.46359
 31
0.0
  0
LINE
  5
DA
100
AcDbEntity
  8
BODEN-4-7
 62
     7
100
AcDbLine
 10
-53.654003
 20
56.648136
 30
0.0
 11
-53.654175
 21
57.251372
 31
0.0
  0
LINE
  5
D9
100
AcDbEntity
  8
BODEN-4-7
 62
     7
100
AcDbLine
 10
-53.829359
 20
56.453143
 30
0.0
 11
-53.829531
 21
57.032264
 31
0.0
  0
LINE
  5
D8
100
AcDbEntity
  8
BODEN-4-7
 62
     7
100
AcDbLine
 10
-53.128109
 20
57.207275
 30
0.0
 11
-53.128109
 21
57.868389
 31
0.0
  0
LINE
  5
D7
100
AcDbEntity
  8
BODEN-4-7
 62
     7
100
AcDbLine
 10
-52.952754
 20
57.385386
 30
0.0
 11
-52.952754
 21
58.061658
 31
0.0
  0
LINE
  5
D6
100
AcDbEntity
  8
BODEN-4-7
 62
     7
100
AcDbLine
 10
-52.777399
 20
57.559363
 30
0.0
 11
-52.777399
 21
58.249416
 31
0.0
  0
LINE
  5
D5
100
AcDbEntity
  8
BODEN-4-7
 62
     7
100
AcDbLine
 10
-55.056502
 20
54.284456
 30
0.0
 11
-55.056674
 21
54.367483
 31
0.0
  0
LINE
  5
D4
100
AcDbEntity
  8
BODEN-4-7
 62
     7
100
AcDbLine
 10
-55.407385
 20
54.458433
 30
0.0
 11
-55.407385
 21
54.648258
 31
0.0
  0
LINE
  5
D3
100
AcDbEntity
  8
BODEN-4-7
 62
     7
100
AcDbLine
 10
-53.302948
 20
55.372417
 30
0.0
 11
-53.30312
 21
55.734496
 31
0.0
  0
LINE
  5
D2
100
AcDbEntity
  8
BODEN-4-7
 62
     7
100
AcDbLine
 10
-53.478303
 20
55.257695
 30
0.0
 11
-53.478476
 21
55.585668
 31
0.0
  0
LINE
  5
D1
100
AcDbEntity
  8
BODEN-4-7
 62
     7
100
AcDbLine
 10
-53.653659
 20
55.144352
 30
0.0
 11
-53.653831
 21
55.439596
 31
0.0
  0
LINE
  5
D0
100
AcDbEntity
  8
BODEN-4-7
 62
     7
100
AcDbLine
 10
-53.829014
 20
55.032386
 30
0.0
 11
-53.829186
 21
55.29628
 31
0.0
  0
LINE
  5
CF
100
AcDbEntity
  8
BODEN-4-7
 62
     7
100
AcDbLine
 10
-54.004369
 20
54.921454
 30
0.0
 11
-54.004542
 21
55.15572
 31
0.0
  0
LINE
  5
CE
100
AcDbEntity
  8
BODEN-4-7
 62
     7
100
AcDbLine
 10
-54.179725
 20
54.812244
 30
0.0
 11
-54.179897
 21
55.017917
 31
0.0
  0
LINE
  5
CD
100
AcDbEntity
  8
BODEN-4-7
 62
     7
100
AcDbLine
 10
-54.35508
 20
54.704068
 30
0.0
 11
-54.355252
 21
54.882869
 31
0.0
  0
LINE
  5
CC
100
AcDbEntity
  8
BODEN-4-7
 62
     7
100
AcDbLine
 10
-54.530436
 20
54.59727
 30
0.0
 11
-54.530608
 21
54.750233
 31
0.0
  0
LINE
  5
CB
100
AcDbEntity
  8
BODEN-4-7
 62
     7
100
AcDbLine
 10
-54.705791
 20
54.49185
 30
0.0
 11
-54.705963
 21
54.620008
 31
0.0
  0
LINE
  5
CA
100
AcDbEntity
  8
BODEN-4-7
 62
     7
100
AcDbLine
 10
-54.881146
 20
54.387464
 30
0.0
 11
-54.881318
 21
54.492539
 31
0.0
  0
LINE
  5
C9
100
AcDbEntity
  8
BODEN-4-7
 62
     7
100
AcDbLine
 10
-55.232029
 20
54.704413
 30
0.0
 11
-55.232029
 21
54.95935
 31
0.0
  0
LINE
  5
C8
100
AcDbEntity
  8
BODEN-4-7
 62
     7
100
AcDbLine
 10
-54.180069
 20
56.048689
 30
0.0
 11
-54.180242
 21
56.570966
 31
0.0
  0
LINE
  5
C7
100
AcDbEntity
  8
BODEN-4-7
 62
     7
100
AcDbLine
 10
-54.355425
 20
55.838883
 30
0.0
 11
-54.355597
 21
56.327742
 31
0.0
  0
LINE
  5
C6
100
AcDbEntity
  8
BODEN-4-7
 62
     7
100
AcDbLine
 10
-54.53078
 20
55.623564
 30
0.0
 11
-54.53078
 21
56.075561
 31
0.0
  0
LINE
  5
C5
100
AcDbEntity
  8
BODEN-4-7
 62
     7
100
AcDbLine
 10
-54.705963
 20
55.402734
 30
0.0
 11
-54.706135
 21
55.813389
 31
0.0
  0
LINE
  5
C4
100
AcDbEntity
  8
BODEN-4-7
 62
     7
100
AcDbLine
 10
-55.056674
 20
54.943502
 30
0.0
 11
-55.056674
 21
55.256662
 31
0.0
  0
LINE
  5
C3
100
AcDbEntity
  8
BODEN-4-7
 62
     7
100
AcDbLine
 10
-55.231857
 20
54.182481
 30
0.0
 11
-55.232029
 21
54.244837
 31
0.0
  0
LINE
  5
C2
100
AcDbEntity
  8
BODEN-4-7
 62
     7
100
AcDbLine
 10
-55.58274
 20
54.205219
 30
0.0
 11
-55.58274
 21
54.321318
 31
0.0
  0
LINE
  5
C1
100
AcDbEntity
  8
BODEN-4-7
 62
     7
100
AcDbLine
 10
-55.407212
 20
54.081884
 30
0.0
 11
-55.407385
 21
54.124259
 31
0.0
  0
LINE
  5
C0
100
AcDbEntity
  8
BODEN-4-7
 62
     7
100
AcDbLine
 10
-55.758095
 20
53.94408
 30
0.0
 11
-55.758095
 21
53.976464
 31
0.0
  0
LINE
  5
BF
100
AcDbEntity
  8
BODEN-4-7
 62
     7
100
AcDbLine
 10
53.303293
 20
-57.025546
 30
0.0
 11
53.303637
 21
-57.66909
 31
0.0
  0
LINE
  5
BE
100
AcDbEntity
  8
BODEN-4-7
 62
     7
100
AcDbLine
 10
53.478648
 20
-56.838822
 30
0.0
 11
53.478992
 21
-57.463762
 31
0.0
  0
LINE
  5
BD
100
AcDbEntity
  8
BODEN-4-7
 62
     7
100
AcDbLine
 10
52.250816
 20
-56.11673
 30
0.0
 11
52.25116
 21
-56.694128
 31
0.0
  0
LINE
  5
BC
100
AcDbEntity
  8
BODEN-4-7
 62
     7
100
AcDbLine
 10
54.530436
 20
-54.597443
 30
0.0
 11
54.530436
 21
-54.750405
 31
0.0
  0
LINE
  5
BB
100
AcDbEntity
  8
BODEN-4-7
 62
     7
100
AcDbLine
 10
52.426171
 20
-55.98306
 30
0.0
 11
52.426171
 21
-56.526007
 31
0.0
  0
LINE
  5
BA
100
AcDbEntity
  8
BODEN-4-7
 62
     7
100
AcDbLine
 10
55.231857
 20
-54.182653
 30
0.0
 11
55.231857
 21
-54.244665
 31
0.0
  0
LINE
  5
B9
100
AcDbEntity
  8
BODEN-4-7
 62
     7
100
AcDbLine
 10
54.179725
 20
-54.812417
 30
0.0
 11
54.179725
 21
-55.017744
 31
0.0
  0
LINE
  5
B8
100
AcDbEntity
  8
BODEN-4-7
 62
     7
100
AcDbLine
 10
54.35508
 20
-54.704241
 30
0.0
 11
54.35508
 21
-54.882697
 31
0.0
  0
LINE
  5
B7
100
AcDbEntity
  8
BODEN-4-7
 62
     7
100
AcDbLine
 10
54.881146
 20
-54.387292
 30
0.0
 11
54.881146
 21
-54.492712
 31
0.0
  0
LINE
  5
B6
100
AcDbEntity
  8
BODEN-4-7
 62
     7
100
AcDbLine
 10
54.705791
 20
-54.492023
 30
0.0
 11
54.705791
 21
-54.62018
 31
0.0
  0
LINE
  5
B5
100
AcDbEntity
  8
BODEN-4-7
 62
     7
100
AcDbLine
 10
55.407557
 20
-54.458261
 30
0.0
 11
55.407557
 21
-54.64843
 31
0.0
  0
LINE
  5
B4
100
AcDbEntity
  8
BODEN-4-7
 62
     7
100
AcDbLine
 10
55.056502
 20
-54.284628
 30
0.0
 11
55.056502
 21
-54.36731
 31
0.0
  0
LINE
  5
B3
100
AcDbEntity
  8
BODEN-4-7
 62
     7
100
AcDbLine
 10
55.407212
 20
-54.082056
 30
0.0
 11
55.407212
 21
-54.124776
 31
0.0
  0
LINE
  5
B2
100
AcDbEntity
  8
BODEN-4-7
 62
     7
100
AcDbLine
 10
55.231857
 20
-54.704241
 30
0.0
 11
55.232201
 21
-54.959867
 31
0.0
  0
LINE
  5
B1
100
AcDbEntity
  8
BODEN-4-7
 62
     7
100
AcDbLine
 10
55.582568
 20
-53.982838
 30
0.0
 11
55.582568
 21
-54.006264
 31
0.0
  0
LINE
  5
B0
100
AcDbEntity
  8
BODEN-4-7
 62
     7
100
AcDbLine
 10
52.076149
 20
-58.219616
 30
0.0
 11
52.076149
 21
-58.948598
 31
0.0
  0
LINE
  5
AF
100
AcDbEntity
  8
BODEN-4-7
 62
     7
100
AcDbLine
 10
55.582568
 20
-54.205391
 30
0.0
 11
55.582568
 21
-54.321146
 31
0.0
  0
LINE
  5
AE
100
AcDbEntity
  8
BODEN-4-7
 62
     7
100
AcDbLine
 10
54.881491
 20
-55.176219
 30
0.0
 11
54.881491
 21
-55.54071
 31
0.0
  0
LINE
  5
AD
100
AcDbEntity
  8
BODEN-4-7
 62
     7
100
AcDbLine
 10
55.757923
 20
-53.944253
 30
0.0
 11
55.757923
 21
-53.976636
 31
0.0
  0
LINE
  5
AC
100
AcDbEntity
  8
BODEN-4-7
 62
     7
100
AcDbLine
 10
53.302948
 20
-55.372589
 30
0.0
 11
53.303293
 21
-55.734324
 31
0.0
  0
LINE
  5
AB
100
AcDbEntity
  8
BODEN-4-7
 62
     7
100
AcDbLine
 10
53.654003
 20
-56.648652
 30
0.0
 11
53.654003
 21
-57.251544
 31
0.0
  0
LINE
  5
AA
100
AcDbEntity
  8
BODEN-4-7
 62
     7
100
AcDbLine
 10
55.056846
 20
-54.944019
 30
0.0
 11
55.056846
 21
-55.256834
 31
0.0
  0
LINE
  5
A9
100
AcDbEntity
  8
BODEN-4-7
 62
     7
100
AcDbLine
 10
53.478303
 20
-55.257523
 30
0.0
 11
53.478303
 21
-55.585496
 31
0.0
  0
LINE
  5
A8
100
AcDbEntity
  8
BODEN-4-7
 62
     7
100
AcDbLine
 10
53.829014
 20
-55.032214
 30
0.0
 11
53.829014
 21
-55.296108
 31
0.0
  0
LINE
  5
A7
100
AcDbEntity
  8
BODEN-4-7
 62
     7
100
AcDbLine
 10
53.653659
 20
-55.144524
 30
0.0
 11
53.654003
 21
-55.439424
 31
0.0
  0
LINE
  5
A6
100
AcDbEntity
  8
BODEN-4-7
 62
     7
100
AcDbLine
 10
51.900105
 20
-56.39785
 30
0.0
 11
51.90045
 21
-57.040704
 31
0.0
  0
LINE
  5
A5
100
AcDbEntity
  8
BODEN-4-7
 62
     7
100
AcDbLine
 10
54.004369
 20
-54.921971
 30
0.0
 11
54.004369
 21
-55.155548
 31
0.0
  0
LINE
  5
A4
100
AcDbEntity
  8
BODEN-4-7
 62
     7
100
AcDbLine
 10
52.952237
 20
-55.606167
 30
0.0
 11
52.952582
 21
-56.041627
 31
0.0
  0
LINE
  5
A3
100
AcDbEntity
  8
BODEN-4-7
 62
     7
100
AcDbLine
 10
52.776882
 20
-55.728123
 30
0.0
 11
52.776882
 21
-56.200101
 31
0.0
  0
LINE
  5
A2
100
AcDbEntity
  8
BODEN-4-7
 62
     7
100
AcDbLine
 10
52.601527
 20
-55.853524
 30
0.0
 11
52.601871
 21
-56.361332
 31
0.0
  0
LINE
  5
A1
100
AcDbEntity
  8
BODEN-4-7
 62
     7
100
AcDbLine
 10
53.130349
 20
-55.486966
 30
0.0
 11
53.130349
 21
-55.88453
 31
0.0
  0
LINE
  5
A0
100
AcDbEntity
  8
BODEN-4-7
 62
     7
100
AcDbLine
 10
53.829359
 20
-56.452971
 30
0.0
 11
53.829703
 21
-57.032436
 31
0.0
  0
LINE
  5
9F
100
AcDbEntity
  8
BODEN-4-7
 62
     7
100
AcDbLine
 10
54.004714
 20
-56.253156
 30
0.0
 11
54.004714
 21
-56.805749
 31
0.0
  0
LINE
  5
9E
100
AcDbEntity
  8
BODEN-4-7
 62
     7
100
AcDbLine
 10
54.180069
 20
-56.048517
 30
0.0
 11
54.180414
 21
-56.570793
 31
0.0
  0
LINE
  5
9D
100
AcDbEntity
  8
BODEN-4-7
 62
     7
100
AcDbLine
 10
54.355425
 20
-55.839055
 30
0.0
 11
54.355425
 21
-56.328259
 31
0.0
  0
LINE
  5
9C
100
AcDbEntity
  8
BODEN-4-7
 62
     7
100
AcDbLine
 10
54.53078
 20
-55.624081
 30
0.0
 11
54.53078
 21
-56.075389
 31
0.0
  0
LINE
  5
9B
100
AcDbEntity
  8
BODEN-4-7
 62
     7
100
AcDbLine
 10
54.706135
 20
-55.402906
 30
0.0
 11
54.706135
 21
-55.813561
 31
0.0
  0
LINE
  5
9A
100
AcDbEntity
  8
BODEN-4-7
 62
     7
100
AcDbLine
 10
50.848317
 20
-57.360409
 30
0.0
 11
50.848317
 21
-58.174141
 31
0.0
  0
LINE
  5
99
100
AcDbEntity
  8
BODEN-4-7
 62
     7
100
AcDbLine
 10
50.672618
 20
-57.540932
 30
0.0
 11
50.673307
 21
-59.31998
 31
0.0
  0
LINE
  5
98
100
AcDbEntity
  8
BODEN-4-7
 62
     7
100
AcDbLine
 10
51.725439
 20
-58.528986
 30
0.0
 11
51.725439
 21
-59.262791
 31
0.0
  0
LINE
  5
97
100
AcDbEntity
  8
BODEN-4-7
 62
     7
100
AcDbLine
 10
51.549739
 20
-58.678503
 30
0.0
 11
51.550083
 21
-59.362699
 31
0.0
  0
LINE
  5
96
100
AcDbEntity
  8
BODEN-4-7
 62
     7
100
AcDbLine
 10
53.127937
 20
-57.207447
 30
0.0
 11
53.128282
 21
-57.868216
 31
0.0
  0
LINE
  5
95
100
AcDbEntity
  8
BODEN-4-7
 62
     7
100
AcDbLine
 10
52.952582
 20
-57.385214
 30
0.0
 11
52.952926
 21
-58.061831
 31
0.0
  0
LINE
  5
94
100
AcDbEntity
  8
BODEN-4-7
 62
     7
100
AcDbLine
 10
52.777571
 20
-57.559536
 30
0.0
 11
52.777571
 21
-58.249933
 31
0.0
  0
LINE
  5
93
100
AcDbEntity
  8
BODEN-4-7
 62
     7
100
AcDbLine
 10
52.601871
 20
-57.729723
 30
0.0
 11
52.602216
 21
-58.431834
 31
0.0
  0
LINE
  5
92
100
AcDbEntity
  8
BODEN-4-7
 62
     7
100
AcDbLine
 10
52.42686
 20
-57.896466
 30
0.0
 11
52.42686
 21
-58.608912
 31
0.0
  0
LINE
  5
91
100
AcDbEntity
  8
BODEN-4-7
 62
     7
100
AcDbLine
 10
52.25116
 20
-58.059764
 30
0.0
 11
52.251505
 21
-58.781167
 31
0.0
  0
LINE
  5
90
100
AcDbEntity
  8
BODEN-4-7
 62
     7
100
AcDbLine
 10
51.72475
 20
-56.5453
 30
0.0
 11
51.72475
 21
-57.219849
 31
0.0
  0
LINE
  5
8F
100
AcDbEntity
  8
BODEN-4-7
 62
     7
100
AcDbLine
 10
52.07546
 20
-56.255223
 30
0.0
 11
52.07546
 21
-56.865693
 31
0.0
  0
LINE
  5
8E
100
AcDbEntity
  8
BODEN-4-7
 62
     7
100
AcDbLine
 10
51.549394
 20
-56.697573
 30
0.0
 11
51.549739
 21
-57.402439
 31
0.0
  0
LINE
  5
8D
100
AcDbEntity
  8
BODEN-4-7
 62
     7
100
AcDbLine
 10
51.023328
 20
-57.186087
 30
0.0
 11
51.023673
 21
-57.975703
 31
0.0
  0
LINE
  5
8C
100
AcDbEntity
  8
BODEN-4-7
 62
     7
100
AcDbLine
 10
51.374039
 20
-56.854669
 30
0.0
 11
51.374384
 21
-57.589164
 31
0.0
  0
LINE
  5
8B
100
AcDbEntity
  8
BODEN-4-7
 62
     7
100
AcDbLine
 10
51.374728
 20
-58.822508
 30
0.0
 11
51.374728
 21
-59.420576
 31
0.0
  0
LINE
  5
8A
100
AcDbEntity
  8
BODEN-4-7
 62
     7
100
AcDbLine
 10
51.90045
 20
-58.375334
 30
0.0
 11
51.900794
 21
-59.111207
 31
0.0
  0
LINE
  5
89
100
AcDbEntity
  8
BODEN-4-7
 62
     7
100
AcDbLine
 10
51.198684
 20
-57.017967
 30
0.0
 11
51.199028
 21
-57.780711
 31
0.0
  0
LINE
  5
88
100
AcDbEntity
  8
BODEN-4-7
 62
     7
100
AcDbLine
 10
50.848317
 20
-58.753606
 30
0.0
 11
50.848662
 21
-59.39715
 31
0.0
  0
LINE
  5
87
100
AcDbEntity
  8
BODEN-4-7
 62
     7
100
AcDbLine
 10
50.497607
 20
-57.728345
 30
0.0
 11
50.497607
 21
-59.194578
 31
0.0
  0
LINE
  5
86
100
AcDbEntity
  8
BODEN-4-7
 62
     7
100
AcDbLine
 10
50.321907
 20
-57.941252
 30
0.0
 11
50.322251
 21
-58.986494
 31
0.0
  0
LINE
  5
85
100
AcDbEntity
  8
BODEN-4-7
 62
     7
100
AcDbLine
 10
51.024017
 20
-58.863849
 30
0.0
 11
51.024017
 21
-59.437113
 31
0.0
  0
LINE
  5
84
100
AcDbEntity
  8
BODEN-4-7
 62
     7
100
AcDbLine
 10
51.199028
 20
-58.882452
 30
0.0
 11
51.199373
 21
-59.444692
 31
0.0
  0
ENDBLK
  5
FB
100
AcDbEntity
  8
BODEN-4-7
100
AcDbBlockEnd
  0
BLOCK
  5
FE
100
AcDbEntity
  8
BODEN-4-7
 62
     7
100
AcDbBlockBegin
  2
AI9-BLK6
 70
     0
 10
0.0
 20
0.0
 30
0.0
  3
AI9-BLK6
  1

  0
HATCH
  5
102
100
AcDbEntity
  8
BODEN-4-7
 62
   154
100
AcDbHatch
 10
0.0
 20
0.0
 30
0.0
210
0.0
220
0.0
230
1.0
  2
SOLID
 70
     1
 71
     0
 91
        1
 92
        1
 93
        1
 72
     4
 94
        3
 73
     0
 74
     0
 95
       23
 96
       19
 40
0.0
 40
0.0
 40
0.0
 40
0.0
 40
1.0
 40
1.0
 40
1.0
 40
2.0
 40
2.0
 40
2.0
 40
3.0
 40
3.0
 40
3.0
 40
4.0
 40
4.0
 40
4.0
 40
5.0
 40
5.0
 40
5.0
 40
6.0
 40
6.0
 40
6.0
 40
6.0
 10
5.1767727322048609
 20
4.2483194986979163
 10
5.1767727322048609
 20
4.2483194986979163
 10
4.7340779622395832
 20
4.5211710611979159
 10
4.1318752712673605
 20
4.809181043836805
 10
-0.8331963433159721
 20
7.1842298719618052
 10
0.3774102105034722
 20
2.3721204969618053
 10
-4.5370185004340273
 20
5.3969143337673602
 10
-5.2298272026909718
 20
5.8227281358506939
 10
-5.8699259440104159
 20
4.7836873372395825
 10
-5.1767727322048609
 20
4.3571845160590277
 10
-5.1767727322048609
 20
4.3571845160590277
 10
-4.7337334526909718
 20
4.0843329535590271
 10
-4.132219780815972
 20
3.7963229709201385
 10
0.8269951714409721
 20
1.4226521809895831
 10
-0.3780992296006944
 20
6.2258043077256939
 10
4.5373630099826388
 20
3.2092787000868053
 10
5.2301717122395832
 20
2.7827758789062496
 10
5.8695814344618054
 20
3.8225056966145829
 10
5.1767727322048609
 20
4.2483194986979163
 97
        0
 75
     0
 76
     1
 98
        1
 10
0.0
 20
0.0
  0
HATCH
  5
101
100
AcDbEntity
  8
BODEN-4-7
 62
   154
100
AcDbHatch
 10
0.0
 20
0.0
 30
0.0
210
0.0
220
0.0
230
1.0
  2
SOLID
 70
     1
 71
     0
 91
        1
 92
        1
 93
        1
 72
     4
 94
        3
 73
     0
 74
     0
 95
       23
 96
       19
 40
0.0
 40
0.0
 40
0.0
 40
0.0
 40
1.0
 40
1.0
 40
1.0
 40
2.0
 40
2.0
 40
2.0
 40
3.0
 40
3.0
 40
3.0
 40
4.0
 40
4.0
 40
4.0
 40
5.0
 40
5.0
 40
5.0
 40
6.0
 40
6.0
 40
6.0
 40
6.0
 10
5.1767727322048609
 20
1.3833780924479167
 10
5.1767727322048609
 20
1.3833780924479167
 10
4.7340779622395832
 20
1.6562296549479165
 10
4.1318752712673605
 20
1.9442396375868054
 10
-0.8331963433159721
 20
4.3185994466145825
 10
0.3774102105034722
 20
-0.4935099283854166
 10
-4.5370185004340273
 20
2.5312839084201388
 10
-5.2298272026909718
 20
2.9577867296006941
 10
-5.8699259440104159
 20
1.9187459309895831
 10
-5.1767727322048609
 20
1.4922431098090276
 10
-5.1767727322048609
 20
1.4922431098090276
 10
-4.7337334526909718
 20
1.2187025282118054
 10
-4.132219780815972
 20
0.9306925455729166
 10
0.8269951714409721
 20
-1.4422892252604165
 10
-0.3780992296006944
 20
3.3608629014756941
 10
4.5373630099826388
 20
0.3436482747395833
 10
5.2301717122395832
 20
-0.0828545464409722
 10
5.8695814344618054
 20
0.9568752712673611
 10
5.1767727322048609
 20
1.3833780924479167
 97
        0
 75
     0
 76
     1
 98
        1
 10
0.0
 20
0.0
  0
HATCH
  5
100
100
AcDbEntity
  8
BODEN-4-7
 62
   154
100
AcDbHatch
 10
0.0
 20
0.0
 30
0.0
210
0.0
220
0.0
230
1.0
  2
SOLID
 70
     1
 71
     0
 91
        1
 92
        1
 93
        1
 72
     4
 94
        3
 73
     0
 74
     0
 95
       23
 96
       19
 40
0.0
 40
0.0
 40
0.0
 40
0.0
 40
1.0
 40
1.0
 40
1.0
 40
2.0
 40
2.0
 40
2.0
 40
3.0
 40
3.0
 40
3.0
 40
4.0
 40
4.0
 40
4.0
 40
5.0
 40
5.0
 40
5.0
 40
6.0
 40
6.0
 40
6.0
 40
6.0
 10
5.1767727322048609
 20
-1.4870754665798609
 10
5.1767727322048609
 20
-1.4870754665798609
 10
4.7340779622395832
 20
-1.214223904079861
 10
4.1318752712673605
 20
-0.9262139214409721
 10
-0.8331963433159721
 20
1.4488349066840276
 10
0.3774102105034722
 20
-3.3639634874131943
 10
-4.5370185004340273
 20
-0.3391696506076389
 10
-5.2298272026909718
 20
0.0873331705729167
 10
-5.8699259440104159
 20
-0.9517076280381943
 10
-5.1767727322048609
 20
-1.3782104492187499
 10
-5.1767727322048609
 20
-1.3782104492187499
 10
-4.7337334526909718
 20
-1.6510620117187498
 10
-4.132219780815972
 20
-1.9390719943576387
 10
0.8269951714409721
 20
-4.3127427842881945
 10
-0.3780992296006944
 20
0.4904093424479166
 10
4.5373630099826388
 20
-2.5268052842881943
 10
5.2301717122395832
 20
-2.9526190863715276
 10
5.8695814344618054
 20
-1.9135782877604164
 10
5.1767727322048609
 20
-1.4870754665798609
 97
        0
 75
     0
 76
     1
 98
        1
 10
0.0
 20
0.0
  0
HATCH
  5
FF
100
AcDbEntity
  8
BODEN-4-7
 62
   154
100
AcDbHatch
 10
0.0
 20
0.0
 30
0.0
210
0.0
220
0.0
230
1.0
  2
SOLID
 70
     1
 71
     0
 91
        1
 92
        1
 93
        1
 72
     4
 94
        3
 73
     0
 74
     0
 95
       23
 96
       19
 40
0.0
 40
0.0
 40
0.0
 40
0.0
 40
1.0
 40
1.0
 40
1.0
 40
2.0
 40
2.0
 40
2.0
 40
3.0
 40
3.0
 40
3.0
 40
4.0
 40
4.0
 40
4.0
 40
5.0
 40
5.0
 40
5.0
 40
6.0
 40
6.0
 40
6.0
 40
6.0
 10
5.1767727322048609
 20
-4.3575290256076382
 10
5.1767727322048609
 20
-4.3575290256076382
 10
4.7340779622395832
 20
-4.0846774631076386
 10
4.1318752712673605
 20
-3.7966674804687495
 10
-0.8331963433159721
 20
-1.42161865234375
 10
0.3774102105034722
 20
-6.2337280273437496
 10
-4.5370185004340273
 20
-3.2096232096354163
 10
-5.2298272026909718
 20
-2.783120388454861
 10
-5.8699259440104159
 20
-3.822161187065972
 10
-5.1767727322048609
 20
-4.2486640082465277
 10
-5.1767727322048609
 20
-4.2486640082465277
 10
-4.7337334526909718
 20
-4.5215155707465273
 10
-4.132219780815972
 20
-4.8095255533854164
 10
0.8269951714409721
 20
-7.1831963433159718
 10
-0.3780992296006944
 20
-2.380044216579861
 10
4.5373630099826388
 20
-5.3972588433159716
 10
5.2301717122395832
 20
-5.8230726453993054
 10
5.8695814344618054
 20
-4.783342827690972
 10
5.1767727322048609
 20
-4.3575290256076382
 97
        0
 75
     0
 76
     1
 98
        1
 10
0.0
 20
0.0
  0
ENDBLK
  5
103
100
AcDbEntity
  8
BODEN-4-7
100
AcDbBlockEnd
  0
BLOCK
  5
106
100
AcDbEntity
  8
BODEN-4-7
 62
     7
100
AcDbBlockBegin
  2
AI9-BLK7
 70
     0
 10
0.0
 20
0.0
 30
0.0
  3
AI9-BLK7
  1

  0
LINE
  5
157
100
AcDbEntity
  8
BODEN-4-7
 62
     7
100
AcDbLine
 10
-26.4157
 20
55.166831
 30
0.0
 11
-26.4157
 21
55.810719
 31
0.0
  0
LINE
  5
156
100
AcDbEntity
  8
BODEN-4-7
 62
     7
100
AcDbLine
 10
-59.606956
 20
31.937241
 30
0.0
 11
-48.309971
 21
43.234054
 31
0.0
  0
LINE
  5
155
100
AcDbEntity
  8
BODEN-4-7
 62
     7
100
AcDbLine
 10
-59.606956
 20
9.486587
 30
0.0
 11
-32.386395
 21
36.706976
 31
0.0
  0
LINE
  5
154
100
AcDbEntity
  8
BODEN-4-7
 62
     7
100
AcDbLine
 10
-58.40858
 20
-11.765518
 30
0.0
 11
-21.158485
 21
25.484233
 31
0.0
  0
LINE
  5
153
100
AcDbEntity
  8
BODEN-4-7
 62
     7
100
AcDbLine
 10
-4.649759
 20
41.99313
 30
0.0
 11
-3.408664
 21
43.234054
 31
0.0
  0
LINE
  5
152
100
AcDbEntity
  8
BODEN-4-7
 62
     7
100
AcDbLine
 10
-35.957926
 20
-11.765518
 30
0.0
 11
-23.136142
 21
1.056094
 31
0.0
  0
LINE
  5
151
100
AcDbEntity
  8
BODEN-4-7
 62
     7
100
AcDbLine
 10
6.578324
 20
30.770387
 30
0.0
 11
19.04199
 21
43.234054
 31
0.0
  0
LINE
  5
150
100
AcDbEntity
  8
BODEN-4-7
 62
     7
100
AcDbLine
 10
-23.136142
 20
1.056094
 30
0.0
 11
-9.930574
 21
14.261834
 31
0.0
  0
LINE
  5
14F
100
AcDbEntity
  8
BODEN-4-7
 62
     7
100
AcDbLine
 10
-13.507444
 20
-11.765518
 30
0.0
 11
1.297337
 21
3.039091
 31
0.0
  0
LINE
  5
14E
100
AcDbEntity
  8
BODEN-4-7
 62
     7
100
AcDbLine
 10
17.806234
 20
19.547644
 30
0.0
 11
41.492644
 21
43.234054
 31
0.0
  0
LINE
  5
14D
100
AcDbEntity
  8
BODEN-4-7
 62
     7
100
AcDbLine
 10
4.60704
 20
-16.102204
 30
0.0
 11
12.525248
 21
-8.183997
 31
0.0
  0
LINE
  5
14C
100
AcDbEntity
  8
BODEN-4-7
 62
     7
100
AcDbLine
 10
29.034145
 20
8.324901
 30
0.0
 11
59.606956
 21
38.898056
 31
0.0
  0
LINE
  5
14B
100
AcDbEntity
  8
BODEN-4-7
 62
     7
100
AcDbLine
 10
4.60704
 20
-38.552513
 30
0.0
 11
23.753503
 21
-19.406051
 31
0.0
  0
LINE
  5
14A
100
AcDbEntity
  8
BODEN-4-7
 62
     7
100
AcDbLine
 10
40.262056
 20
-2.897842
 30
0.0
 11
59.606956
 21
16.447403
 31
0.0
  0
LINE
  5
149
100
AcDbEntity
  8
BODEN-4-7
 62
     7
100
AcDbLine
 10
4.60704
 20
-61.003512
 30
0.0
 11
34.066052
 21
-31.5445
 31
0.0
  0
LINE
  5
148
100
AcDbEntity
  8
BODEN-4-7
 62
     7
100
AcDbLine
 10
51.489966
 20
-14.120585
 30
0.0
 11
59.606956
 21
-6.003251
 31
0.0
  0
LINE
  5
147
100
AcDbEntity
  8
BODEN-4-7
 62
     7
100
AcDbLine
 10
34.066052
 20
-31.5445
 30
0.0
 11
34.981069
 21
-30.628794
 31
0.0
  0
LINE
  5
146
100
AcDbEntity
  8
BODEN-4-7
 62
     7
100
AcDbLine
 10
18.716773
 20
-69.344088
 30
0.0
 11
32.19192
 21
-55.868941
 31
0.0
  0
LINE
  5
145
100
AcDbEntity
  8
BODEN-4-7
 62
     7
100
AcDbLine
 10
32.19192
 20
-55.868941
 30
0.0
 11
46.209324
 21
-41.851537
 31
0.0
  0
LINE
  5
144
100
AcDbEntity
  8
BODEN-4-7
 62
     7
100
AcDbLine
 10
41.167771
 20
-69.344088
 30
0.0
 11
57.437235
 21
-53.07428
 31
0.0
  0
LINE
  5
143
100
AcDbEntity
  8
BODEN-4-7
 62
     7
100
AcDbLine
 10
-59.606956
 20
20.711742
 30
0.0
 11
-57.961062
 21
22.357808
 31
0.0
  0
LINE
  5
142
100
AcDbEntity
  8
BODEN-4-7
 62
     7
100
AcDbLine
 10
-55.154687
 20
25.164183
 30
0.0
 11
-49.541937
 21
30.776933
 31
0.0
  0
LINE
  5
141
100
AcDbEntity
  8
BODEN-4-7
 62
     7
100
AcDbLine
 10
-46.735735
 20
33.582963
 30
0.0
 11
-41.122985
 21
39.195713
 31
0.0
  0
LINE
  5
140
100
AcDbEntity
  8
BODEN-4-7
 62
     7
100
AcDbLine
 10
-38.316783
 20
42.002087
 30
0.0
 11
-38.000351
 21
42.318347
 31
0.0
  0
LINE
  5
13F
100
AcDbEntity
  8
BODEN-4-7
 62
     7
100
AcDbLine
 10
-59.606956
 20
-1.738912
 30
0.0
 11
-55.154687
 21
2.713529
 31
0.0
  0
LINE
  5
13E
100
AcDbEntity
  8
BODEN-4-7
 62
     7
100
AcDbLine
 10
-52.348312
 20
5.519904
 30
0.0
 11
-46.735735
 21
11.132309
 31
0.0
  0
LINE
  5
13D
100
AcDbEntity
  8
BODEN-4-7
 62
     7
100
AcDbLine
 10
-43.92936
 20
13.938684
 30
0.0
 11
-38.316783
 21
19.551434
 31
0.0
  0
LINE
  5
13C
100
AcDbEntity
  8
BODEN-4-7
 62
     7
100
AcDbLine
 10
-35.510408
 20
22.357808
 30
0.0
 11
-29.897658
 21
27.970558
 31
0.0
  0
LINE
  5
13B
100
AcDbEntity
  8
BODEN-4-7
 62
     7
100
AcDbLine
 10
-27.091284
 20
30.776933
 30
0.0
 11
-26.77244
 21
31.095604
 31
0.0
  0
LINE
  5
13A
100
AcDbEntity
  8
BODEN-4-7
 62
     7
100
AcDbLine
 10
-47.183425
 20
-11.765518
 30
0.0
 11
-43.92936
 21
-8.51197
 31
0.0
  0
LINE
  5
139
100
AcDbEntity
  8
BODEN-4-7
 62
     7
100
AcDbLine
 10
-41.122985
 20
-5.705595
 30
0.0
 11
-35.510408
 21
-0.092845
 31
0.0
  0
LINE
  5
138
100
AcDbEntity
  8
BODEN-4-7
 62
     7
100
AcDbLine
 10
-32.704033
 20
2.713529
 30
0.0
 11
-27.091284
 21
8.326279
 31
0.0
  0
LINE
  5
137
100
AcDbEntity
  8
BODEN-4-7
 62
     7
100
AcDbLine
 10
-24.285081
 20
11.132309
 30
0.0
 11
-18.672331
 21
16.745059
 31
0.0
  0
LINE
  5
136
100
AcDbEntity
  8
BODEN-4-7
 62
     7
100
AcDbLine
 10
-15.866129
 20
19.551434
 30
0.0
 11
-15.544529
 21
19.872861
 31
0.0
  0
LINE
  5
135
100
AcDbEntity
  8
BODEN-4-7
 62
     7
100
AcDbLine
 10
0.971775
 20
36.389338
 30
0.0
 11
6.584525
 21
42.002087
 31
0.0
  0
LINE
  5
134
100
AcDbEntity
  8
BODEN-4-7
 62
     7
100
AcDbLine
 10
-24.732771
 20
-11.765518
 30
0.0
 11
-24.285081
 21
-11.318344
 31
0.0
  0
LINE
  5
133
100
AcDbEntity
  8
BODEN-4-7
 62
     7
100
AcDbLine
 10
-21.478706
 20
-8.51197
 30
0.0
 11
-15.866129
 21
-2.89922
 31
0.0
  0
LINE
  5
132
100
AcDbEntity
  8
BODEN-4-7
 62
     7
100
AcDbLine
 10
-13.059754
 20
-0.092845
 30
0.0
 11
-7.447005
 21
5.519904
 31
0.0
  0
LINE
  5
131
100
AcDbEntity
  8
BODEN-4-7
 62
     7
100
AcDbLine
 10
-4.640802
 20
8.326279
 30
0.0
 11
-4.316446
 21
8.650463
 31
0.0
  0
LINE
  5
130
100
AcDbEntity
  8
BODEN-4-7
 62
     7
100
AcDbLine
 10
12.197274
 20
25.164183
 30
0.0
 11
17.810024
 21
30.776933
 31
0.0
  0
LINE
  5
12F
100
AcDbEntity
  8
BODEN-4-7
 62
     7
100
AcDbLine
 10
20.616399
 20
33.582963
 30
0.0
 11
26.228804
 21
39.195713
 31
0.0
  0
LINE
  5
12E
100
AcDbEntity
  8
BODEN-4-7
 62
     7
100
AcDbLine
 10
29.035179
 20
42.002087
 30
0.0
 11
30.267489
 21
43.234054
 31
0.0
  0
LINE
  5
12D
100
AcDbEntity
  8
BODEN-4-7
 62
     7
100
AcDbLine
 10
-1.834427
 20
-11.318344
 30
0.0
 11
3.77815
 21
-5.705595
 31
0.0
  0
LINE
  5
12C
100
AcDbEntity
  8
BODEN-4-7
 62
     7
100
AcDbLine
 10
6.584525
 20
-2.89922
 30
0.0
 11
6.911464
 21
-2.572625
 31
0.0
  0
LINE
  5
12B
100
AcDbEntity
  8
BODEN-4-7
 62
     7
100
AcDbLine
 10
23.422774
 20
13.938684
 30
0.0
 11
29.035179
 21
19.551434
 31
0.0
  0
LINE
  5
12A
100
AcDbEntity
  8
BODEN-4-7
 62
     7
100
AcDbLine
 10
31.841553
 20
22.357808
 30
0.0
 11
37.454303
 21
27.970558
 31
0.0
  0
LINE
  5
129
100
AcDbEntity
  8
BODEN-4-7
 62
     7
100
AcDbLine
 10
40.260333
 20
30.776933
 30
0.0
 11
45.873083
 21
36.389338
 31
0.0
  0
LINE
  5
128
100
AcDbEntity
  8
BODEN-4-7
 62
     7
100
AcDbLine
 10
48.679458
 20
39.195713
 30
0.0
 11
52.717799
 21
43.234054
 31
0.0
  0
LINE
  5
127
100
AcDbEntity
  8
BODEN-4-7
 62
     7
100
AcDbLine
 10
4.60704
 20
-27.327703
 30
0.0
 11
6.584525
 21
-25.349529
 31
0.0
  0
LINE
  5
126
100
AcDbEntity
  8
BODEN-4-7
 62
     7
100
AcDbLine
 10
9.3909
 20
-22.543844
 30
0.0
 11
15.003649
 21
-16.931094
 31
0.0
  0
LINE
  5
125
100
AcDbEntity
  8
BODEN-4-7
 62
     7
100
AcDbLine
 10
17.810024
 20
-14.124719
 30
0.0
 11
18.139375
 21
-13.795368
 31
0.0
  0
LINE
  5
124
100
AcDbEntity
  8
BODEN-4-7
 62
     7
100
AcDbLine
 10
34.648273
 20
2.713874
 30
0.0
 11
40.260333
 21
8.326279
 31
0.0
  0
LINE
  5
123
100
AcDbEntity
  8
BODEN-4-7
 62
     7
100
AcDbLine
 10
43.066708
 20
11.132309
 30
0.0
 11
48.679458
 21
16.745059
 31
0.0
  0
LINE
  5
122
100
AcDbEntity
  8
BODEN-4-7
 62
     7
100
AcDbLine
 10
51.485832
 20
19.551434
 30
0.0
 11
57.098582
 21
25.164183
 31
0.0
  0
LINE
  5
121
100
AcDbEntity
  8
BODEN-4-7
 62
     7
100
AcDbLine
 10
4.60704
 20
-49.778012
 30
0.0
 11
9.3909
 21
-44.994153
 31
0.0
  0
LINE
  5
120
100
AcDbEntity
  8
BODEN-4-7
 62
     7
100
AcDbLine
 10
12.197274
 20
-42.187778
 30
0.0
 11
17.810024
 21
-36.575028
 31
0.0
  0
LINE
  5
11F
100
AcDbEntity
  8
BODEN-4-7
 62
     7
100
AcDbLine
 10
20.616399
 20
-33.768654
 30
0.0
 11
26.228804
 21
-28.155904
 31
0.0
  0
LINE
  5
11E
100
AcDbEntity
  8
BODEN-4-7
 62
     7
100
AcDbLine
 10
29.035179
 20
-25.349529
 30
0.0
 11
29.367286
 21
-25.017422
 31
0.0
  0
LINE
  5
11D
100
AcDbEntity
  8
BODEN-4-7
 62
     7
100
AcDbLine
 10
45.876183
 20
-8.509214
 30
0.0
 11
51.485832
 21
-2.89922
 31
0.0
  0
LINE
  5
11C
100
AcDbEntity
  8
BODEN-4-7
 62
     7
100
AcDbLine
 10
54.292207
 20
-0.092845
 30
0.0
 11
59.606956
 21
5.221903
 31
0.0
  0
LINE
  5
11B
100
AcDbEntity
  8
BODEN-4-7
 62
     7
100
AcDbLine
 10
7.491619
 20
-69.344088
 30
0.0
 11
12.197274
 21
-64.638776
 31
0.0
  0
LINE
  5
11A
100
AcDbEntity
  8
BODEN-4-7
 62
     7
100
AcDbLine
 10
15.003649
 20
-61.832402
 30
0.0
 11
20.616399
 21
-56.219652
 31
0.0
  0
LINE
  5
119
100
AcDbEntity
  8
BODEN-4-7
 62
     7
100
AcDbLine
 10
23.422774
 20
-53.413277
 30
0.0
 11
29.035179
 21
-47.800528
 31
0.0
  0
LINE
  5
118
100
AcDbEntity
  8
BODEN-4-7
 62
     7
100
AcDbLine
 10
31.841553
 20
-44.994153
 30
0.0
 11
33.128986
 21
-43.706376
 31
0.0
  0
LINE
  5
117
100
AcDbEntity
  8
BODEN-4-7
 62
     7
100
AcDbLine
 10
57.104094
 20
-19.731957
 30
0.0
 11
59.606956
 21
-17.22875
 31
0.0
  0
LINE
  5
116
100
AcDbEntity
  8
BODEN-4-7
 62
     7
100
AcDbLine
 10
33.128986
 20
-43.706376
 30
0.0
 11
37.454303
 21
-39.381403
 31
0.0
  0
LINE
  5
115
100
AcDbEntity
  8
BODEN-4-7
 62
     7
100
AcDbLine
 10
40.260333
 20
-36.575028
 30
0.0
 11
40.595197
 21
-36.240165
 31
0.0
  0
LINE
  5
114
100
AcDbEntity
  8
BODEN-4-7
 62
     7
100
AcDbLine
 10
29.942272
 20
-69.344088
 30
0.0
 11
31.254854
 21
-68.031506
 31
0.0
  0
LINE
  5
113
100
AcDbEntity
  8
BODEN-4-7
 62
     7
100
AcDbLine
 10
31.254854
 20
-68.031506
 30
0.0
 11
31.841553
 21
-67.444462
 31
0.0
  0
LINE
  5
112
100
AcDbEntity
  8
BODEN-4-7
 62
     7
100
AcDbLine
 10
34.647928
 20
-64.638776
 30
0.0
 11
40.260333
 21
-59.026027
 31
0.0
  0
LINE
  5
111
100
AcDbEntity
  8
BODEN-4-7
 62
     7
100
AcDbLine
 10
43.066708
 20
-56.219652
 30
0.0
 11
48.679458
 21
-50.606902
 31
0.0
  0
LINE
  5
110
100
AcDbEntity
  8
BODEN-4-7
 62
     7
100
AcDbLine
 10
51.485832
 20
-47.800528
 30
0.0
 11
51.823452
 21
-47.462908
 31
0.0
  0
LINE
  5
10F
100
AcDbEntity
  8
BODEN-4-7
 62
     7
100
AcDbLine
 10
54.292207
 20
-67.444462
 30
0.0
 11
59.606956
 21
-62.130058
 31
0.0
  0
LINE
  5
10E
100
AcDbEntity
  8
BODEN-4-7
 62
     7
100
AcDbLine
 10
5.352559
 20
43.234054
 30
0.0
 11
4.60704
 21
43.979572
 31
0.0
  0
LINE
  5
10D
100
AcDbEntity
  8
BODEN-4-7
 62
     7
100
AcDbLine
 10
16.577713
 20
43.234054
 30
0.0
 11
4.60704
 21
55.205071
 31
0.0
  0
LINE
  5
10C
100
AcDbEntity
  8
BODEN-4-7
 62
     7
100
AcDbLine
 10
27.803212
 20
43.234054
 30
0.0
 11
4.60704
 21
66.430226
 31
0.0
  0
LINE
  5
10B
100
AcDbEntity
  8
BODEN-4-7
 62
     7
100
AcDbLine
 10
39.028367
 20
43.234054
 30
0.0
 11
12.918677
 21
69.344088
 31
0.0
  0
LINE
  5
10A
100
AcDbEntity
  8
BODEN-4-7
 62
     7
100
AcDbLine
 10
50.253866
 20
43.234054
 30
0.0
 11
24.143832
 21
69.344088
 31
0.0
  0
LINE
  5
109
100
AcDbEntity
  8
BODEN-4-7
 62
     7
100
AcDbLine
 10
59.606956
 20
45.106118
 30
0.0
 11
35.368987
 21
69.344088
 31
0.0
  0
LINE
  5
108
100
AcDbEntity
  8
BODEN-4-7
 62
     7
100
AcDbLine
 10
59.606956
 20
56.331618
 30
0.0
 11
46.594486
 21
69.344088
 31
0.0
  0
LINE
  5
107
100
AcDbEntity
  8
BODEN-4-7
 62
     7
100
AcDbLine
 10
59.606956
 20
67.556772
 30
0.0
 11
57.819985
 21
69.344088
 31
0.0
  0
ENDBLK
  5
158
100
AcDbEntity
  8
BODEN-4-7
100
AcDbBlockEnd
  0
BLOCK
  5
15B
100
AcDbEntity
  8
BODEN-4-7
 62
     7
100
AcDbBlockBegin
  2
AI9-BLK8
 70
     0
 10
0.0
 20
0.0
 30
0.0
  3
AI9-BLK8
  1

  0
LINE
  5
15F
100
AcDbEntity
  8
BODEN-4-7
  6
AI9-LType3
 62
     7
100
AcDbLine
 10
-59.606956
 20
43.234054
 30
0.0
 11
-59.606956
 21
-11.765518
 31
0.0
  0
LINE
  5
15E
100
AcDbEntity
  8
BODEN-4-7
  6
AI9-LType3
 62
     7
100
AcDbLine
 10
4.60704
 20
69.344088
 30
0.0
 11
59.606956
 21
69.344088
 31
0.0
  0
LINE
  5
15D
100
AcDbEntity
  8
BODEN-4-7
  6
AI9-LType3
 62
     7
100
AcDbLine
 10
4.60704
 20
-69.344088
 30
0.0
 11
59.606956
 21
-69.344088
 31
0.0
  0
ENDBLK
  5
160
100
AcDbEntity
  8
BODEN-4-7
100
AcDbBlockEnd
  0
BLOCK
  5
163
100
AcDbEntity
  8
BODEN-4-7
  6
AI9-LType3
 62
     7
100
AcDbBlockBegin
  2
AI9-BLK9
 70
     0
 10
0.0
 20
0.0
 30
0.0
  3
AI9-BLK9
  1

  0
LINE
  5
188
100
AcDbEntity
  8
BODEN-4-7
 62
     7
100
AcDbLine
 10
47.463339
 20
43.234054
 30
0.0
 11
-25.81901
 21
43.234054
 31
0.0
  0
LINE
  5
187
100
AcDbEntity
  8
BODEN-4-7
 62
     7
100
AcDbLine
 10
-43.28995
 20
43.234054
 30
0.0
 11
-63.153165
 21
43.234054
 31
0.0
  0
LINE
  5
186
100
AcDbEntity
  8
BODEN-4-7
 62
     7
100
AcDbLine
 10
-63.153165
 20
43.234054
 30
0.0
 11
-71.750573
 21
43.234054
 31
0.0
  0
LINE
  5
185
100
AcDbEntity
  8
BODEN-4-7
 62
     7
100
AcDbLine
 10
-71.750573
 20
-11.765518
 30
0.0
 11
-48.415908
 21
-11.765518
 31
0.0
  0
LINE
  5
184
100
AcDbEntity
  8
BODEN-4-7
 62
     7
100
AcDbLine
 10
-48.415908
 20
-11.765518
 30
0.0
 11
-7.536577
 21
-11.765518
 31
0.0
  0
LINE
  5
183
100
AcDbEntity
  8
BODEN-4-7
 62
     7
100
AcDbLine
 10
-51.060191
 20
43.234054
 30
0.0
 11
47.463339
 21
-55.243312
 31
0.0
  0
LINE
  5
182
100
AcDbEntity
  8
BODEN-4-7
 62
     7
100
AcDbLine
 10
-51.060191
 20
43.234054
 30
0.0
 11
47.463339
 21
-55.243312
 31
0.0
  0
LINE
  5
181
100
AcDbEntity
  8
BODEN-4-7
 62
     7
100
AcDbLine
 10
39.766996
 20
-22.27616
 30
0.0
 11
71.477377
 21
-54.012724
 31
0.0
  0
LINE
  5
180
100
AcDbEntity
  8
BODEN-4-7
 62
     7
100
AcDbLine
 10
-51.060191
 20
43.234054
 30
0.0
 11
47.463339
 21
-55.243312
 31
0.0
  0
LINE
  5
17F
100
AcDbEntity
  8
BODEN-4-7
 62
     7
100
AcDbLine
 10
-38.16761
 20
55.540624
 30
0.0
 11
31.741301
 21
-14.309376
 31
0.0
  0
LINE
  5
17E
100
AcDbEntity
  8
BODEN-4-7
 62
     7
100
AcDbLine
 10
30.844543
 20
-30.845835
 30
0.0
 11
62.728212
 21
-62.723303
 31
0.0
  0
LINE
  5
17D
100
AcDbEntity
  8
BODEN-4-7
 62
     7
100
AcDbLine
 10
-46.693532
 20
46.6571
 30
0.0
 11
23.054148
 21
-23.114007
 31
0.0
  0
SPLINE
  5
17C
100
AcDbEntity
  8
BODEN-4-7
 62
     7
100
AcDbSpline
210
0.0
220
0.0
230
1.0
 70
     8
 71
     3
 72
     8
 73
     4
 74
     0
 42
0.00000001
 43
0.00000001
 40
0.0
 40
0.0
 40
0.0
 40
0.0
 40
1.0
 40
1.0
 40
1.0
 40
1.0
 10
-39.501206461588538
 20
55.62502848307291
 30
0.0
 10
-41.178106689453124
 20
54.115043131510411
 30
0.0
 10
-42.546498616536454
 20
52.29431016710069
 30
0.0
 10
-43.530762396918398
 20
50.26342637803819
 30
0.0
  0
SPLINE
  5
17B
100
AcDbEntity
  8
BODEN-4-7
 62
     7
100
AcDbSpline
210
0.0
220
0.0
230
1.0
 70
     8
 71
     3
 72
     8
 73
     4
 74
     0
 42
0.00000001
 43
0.00000001
 40
0.0
 40
0.0
 40
0.0
 40
0.0
 40
1.0
 40
1.0
 40
1.0
 40
1.0
 10
-43.530762396918398
 20
50.26342637803819
 30
0.0
 10
-42.557178412543401
 20
50.802928331163187
 30
0.0
 10
-41.607365587022564
 20
51.38377143012152
 30
0.0
 10
-40.683907741970479
 20
52.005266655815966
 30
0.0
  0
SPLINE
  5
17A
100
AcDbEntity
  8
BODEN-4-7
 62
     7
100
AcDbSpline
210
0.0
220
0.0
230
1.0
 70
     8
 71
     3
 72
     8
 73
     4
 74
     0
 42
0.00000001
 43
0.00000001
 40
0.0
 40
0.0
 40
0.0
 40
0.0
 40
1.0
 40
1.0
 40
1.0
 40
1.0
 10
-40.863397216796869
 20
51.885377332899303
 30
0.0
 10
-39.846405029296868
 20
52.554414876302076
 30
0.0
 10
-38.919329833984371
 20
53.35092095269097
 30
0.0
 10
-38.104392496744786
 20
54.255258517795134
 30
0.0
  0
SPLINE
  5
179
100
AcDbEntity
  8
BODEN-4-7
 62
     7
100
AcDbSpline
210
0.0
220
0.0
230
1.0
 70
     8
 71
     3
 72
     8
 73
     4
 74
     0
 42
0.00000001
 43
0.00000001
 40
0.0
 40
0.0
 40
0.0
 40
0.0
 40
1.0
 40
1.0
 40
1.0
 40
1.0
 10
-39.162381320529512
 20
55.174754503038187
 30
0.0
 10
-40.852372911241318
 20
53.761576334635414
 30
0.0
 10
-42.324289957682289
 20
52.106896972656244
 30
0.0
 10
-43.530762396918398
 20
50.26342637803819
 30
0.0
  0
SPLINE
  5
178
100
AcDbEntity
  8
BODEN-4-7
 62
     7
100
AcDbSpline
210
0.0
220
0.0
230
1.0
 70
     8
 71
     3
 72
     8
 73
     4
 74
     0
 42
0.00000001
 43
0.00000001
 40
0.0
 40
0.0
 40
0.0
 40
0.0
 40
1.0
 40
1.0
 40
1.0
 40
1.0
 10
-43.530762396918398
 20
50.26342637803819
 30
0.0
 10
-41.682985432942708
 20
51.464042154947911
 30
0.0
 10
-40.012286376953121
 20
52.916494411892359
 30
0.0
 10
-38.566896565755208
 20
54.579442003038189
 30
0.0
  0
SPLINE
  5
177
100
AcDbEntity
  8
BODEN-4-7
 62
     7
100
AcDbSpline
210
0.0
220
0.0
230
1.0
 70
     8
 71
     3
 72
    11
 73
     7
 74
     0
 42
0.00000001
 43
0.00000001
 40
0.0
 40
0.0
 40
0.0
 40
0.0
 40
1.0
 40
1.0
 40
1.0
 40
2.0
 40
2.0
 40
2.0
 40
2.0
 10
-38.566896565755208
 20
54.579442003038189
 30
0.0
 10
-38.402565511067706
 20
54.74377305772569
 30
0.0
 10
-38.402737765842012
 20
55.010423448350693
 30
0.0
 10
-38.567068820529514
 20
55.174754503038187
 30
0.0
 10
-38.731572129991314
 20
55.339085557725689
 30
0.0
 10
-38.998050265842011
 20
55.339085557725689
 30
0.0
 10
-39.162381320529512
 20
55.174754503038187
 30
0.0
  0
SPLINE
  5
176
100
AcDbEntity
  8
BODEN-4-7
 62
     7
100
AcDbSpline
210
0.0
220
0.0
230
1.0
 70
     8
 71
     3
 72
    11
 73
     7
 74
     0
 42
0.00000001
 43
0.00000001
 40
0.0
 40
0.0
 40
0.0
 40
0.0
 40
1.0
 40
1.0
 40
1.0
 40
2.0
 40
2.0
 40
2.0
 40
2.0
 10
-38.172088623046875
 20
54.180499945746526
 30
0.0
 10
-37.787615966796871
 20
54.563250054253466
 30
0.0
 10
-37.785721164279508
 20
55.185089789496523
 30
0.0
 10
-38.168299018012149
 20
55.56956244574652
 30
0.0
 10
-38.545881483289925
 20
55.949211968315964
 30
0.0
 10
-39.158074951171869
 20
55.956446668836797
 30
0.0
 10
-39.544442409939229
 20
55.586098904079854
 30
0.0
  0
SPLINE
  5
175
100
AcDbEntity
  8
BODEN-4-7
 62
     7
100
AcDbSpline
210
0.0
220
0.0
230
1.0
 70
     8
 71
     3
 72
     8
 73
     4
 74
     0
 42
0.00000001
 43
0.00000001
 40
0.0
 40
0.0
 40
0.0
 40
0.0
 40
1.0
 40
1.0
 40
1.0
 40
1.0
 10
-46.649607340494789
 20
48.409275987413189
 30
0.0
 10
-45.591446261935758
 20
48.995631239149304
 30
0.0
 10
-44.551371934678812
 20
49.614025878906247
 30
0.0
 10
-43.530762396918398
 20
50.26342637803819
 30
0.0
  0
SPLINE
  5
174
100
AcDbEntity
  8
BODEN-4-7
 62
     7
100
AcDbSpline
210
0.0
220
0.0
230
1.0
 70
     8
 71
     3
 72
     8
 73
     4
 74
     0
 42
0.00000001
 43
0.00000001
 40
0.0
 40
0.0
 40
0.0
 40
0.0
 40
1.0
 40
1.0
 40
1.0
 40
1.0
 10
64.079378933376731
 20
-62.798406304253469
 30
0.0
 10
65.756451416015622
 20
-61.288076443142359
 30
0.0
 10
67.124843343098959
 20
-59.467687988281241
 30
0.0
 10
68.109107123480896
 20
-57.437148708767353
 30
0.0
  0
SPLINE
  5
173
100
AcDbEntity
  8
BODEN-4-7
 62
     7
100
AcDbSpline
210
0.0
220
0.0
230
1.0
 70
     8
 71
     3
 72
     8
 73
     4
 74
     0
 42
0.00000001
 43
0.00000001
 40
0.0
 40
0.0
 40
0.0
 40
0.0
 40
1.0
 40
1.0
 40
1.0
 40
1.0
 10
71.227952067057288
 20
-55.582309299045136
 30
0.0
 10
70.169618733723951
 20
-56.168664550781244
 30
0.0
 10
69.129544406467005
 20
-56.787403700086799
 30
0.0
 10
68.109107123480896
 20
-57.437148708767353
 30
0.0
  0
SPLINE
  5
172
100
AcDbEntity
  8
BODEN-4-7
 62
     7
100
AcDbSpline
210
0.0
220
0.0
230
1.0
 70
     8
 71
     3
 72
     8
 73
     4
 74
     0
 42
0.00000001
 43
0.00000001
 40
0.0
 40
0.0
 40
0.0
 40
0.0
 40
1.0
 40
1.0
 40
1.0
 40
1.0
 10
-46.606371392144091
 20
48.433391655815967
 30
0.0
 10
-46.955531819661452
 20
48.18844536675347
 30
0.0
 10
-47.165854899088536
 20
47.791225857204857
 30
0.0
 10
-47.172056070963535
 20
47.365067545572913
 30
0.0
  0
SPLINE
  5
171
100
AcDbEntity
  8
BODEN-4-7
 62
     7
100
AcDbSpline
210
0.0
220
0.0
230
1.0
 70
     8
 71
     3
 72
     8
 73
     4
 74
     0
 42
0.00000001
 43
0.00000001
 40
0.0
 40
0.0
 40
0.0
 40
0.0
 40
1.0
 40
1.0
 40
1.0
 40
1.0
 10
-47.172056070963535
 20
47.365067545572913
 30
0.0
 10
-47.137432861328122
 20
47.165596516927081
 30
0.0
 10
-47.042003716362842
 20
46.981972927517354
 30
0.0
 10
-46.898859998914929
 20
46.839001464843747
 30
0.0
  0
SPLINE
  5
170
100
AcDbEntity
  8
BODEN-4-7
 62
     7
100
AcDbSpline
210
0.0
220
0.0
230
1.0
 70
     8
 71
     3
 72
     8
 73
     4
 74
     0
 42
0.00000001
 43
0.00000001
 40
0.0
 40
0.0
 40
0.0
 40
0.0
 40
1.0
 40
1.0
 40
1.0
 40
1.0
 10
71.750573052300339
 20
-54.538445366753464
 30
0.0
 10
71.715777587890614
 20
-54.339318847656244
 30
0.0
 10
71.620348442925334
 20
-54.155350748697913
 30
0.0
 10
71.477376980251734
 20
-54.01272379557291
 30
0.0
  0
SPLINE
  5
16F
100
AcDbEntity
  8
BODEN-4-7
 62
     7
100
AcDbSpline
210
0.0
220
0.0
230
1.0
 70
     8
 71
     3
 72
     8
 73
     4
 74
     0
 42
0.00000001
 43
0.00000001
 40
0.0
 40
0.0
 40
0.0
 40
0.0
 40
1.0
 40
1.0
 40
1.0
 40
1.0
 10
71.184543863932291
 20
-55.606424967447914
 30
0.0
 10
71.533876546223951
 20
-55.361823187934021
 30
0.0
 10
71.744371880425334
 20
-54.964259168836797
 30
0.0
 10
71.750573052300339
 20
-54.538445366753464
 30
0.0
  0
SPLINE
  5
16E
100
AcDbEntity
  8
BODEN-4-7
 62
     7
100
AcDbSpline
210
0.0
220
0.0
230
1.0
 70
     8
 71
     3
 72
     8
 73
     4
 74
     0
 42
0.00000001
 43
0.00000001
 40
0.0
 40
0.0
 40
0.0
 40
0.0
 40
1.0
 40
1.0
 40
1.0
 40
1.0
 10
68.109107123480896
 20
-57.437148708767353
 30
0.0
 10
66.261502414279505
 20
-58.63741997612847
 30
0.0
 10
64.590631103515619
 20
-60.08987223307291
 30
0.0
 10
63.145413547092005
 20
-61.753164333767359
 30
0.0
  0
SPLINE
  5
16D
100
AcDbEntity
  8
BODEN-4-7
 62
     7
100
AcDbSpline
210
0.0
220
0.0
230
1.0
 70
     8
 71
     3
 72
     8
 73
     4
 74
     0
 42
0.00000001
 43
0.00000001
 40
0.0
 40
0.0
 40
0.0
 40
0.0
 40
1.0
 40
1.0
 40
1.0
 40
1.0
 10
65.441914198133674
 20
-59.058410644531243
 30
0.0
 10
64.424922010633679
 20
-59.727448187934023
 30
0.0
 10
63.497502305772564
 20
-60.52395426432291
 30
0.0
 10
62.682737223307285
 20
-61.428636338975686
 30
0.0
  0
SPLINE
  5
16C
100
AcDbEntity
  8
BODEN-4-7
 62
     7
100
AcDbSpline
210
0.0
220
0.0
230
1.0
 70
     8
 71
     3
 72
     8
 73
     4
 74
     0
 42
0.00000001
 43
0.00000001
 40
0.0
 40
0.0
 40
0.0
 40
0.0
 40
1.0
 40
1.0
 40
1.0
 40
1.0
 10
63.740726047092011
 20
-62.347787814670134
 30
0.0
 10
65.430545383029511
 20
-60.934609646267354
 30
0.0
 10
66.902634684244788
 20
-59.280274793836803
 30
0.0
 10
68.109107123480896
 20
-57.437148708767353
 30
0.0
  0
SPLINE
  5
16B
100
AcDbEntity
  8
BODEN-4-7
 62
     7
100
AcDbSpline
210
0.0
220
0.0
230
1.0
 70
     8
 71
     3
 72
     8
 73
     4
 74
     0
 42
0.00000001
 43
0.00000001
 40
0.0
 40
0.0
 40
0.0
 40
0.0
 40
1.0
 40
1.0
 40
1.0
 40
1.0
 10
68.109107123480896
 20
-57.437148708767353
 30
0.0
 10
67.135523139105899
 20
-57.975961642795134
 30
0.0
 10
66.185710313585062
 20
-58.55749376085069
 30
0.0
 10
65.262424723307291
 20
-59.178299967447913
 30
0.0
  0
SPLINE
  5
16A
100
AcDbEntity
  8
BODEN-4-7
 62
     7
100
AcDbSpline
210
0.0
220
0.0
230
1.0
 70
     8
 71
     3
 72
    11
 73
     7
 74
     0
 42
0.00000001
 43
0.00000001
 40
0.0
 40
0.0
 40
0.0
 40
0.0
 40
1.0
 40
1.0
 40
1.0
 40
2.0
 40
2.0
 40
2.0
 40
2.0
 10
63.145413547092005
 20
-61.753164333767359
 30
0.0
 10
62.981082492404511
 20
-61.917150878906241
 30
0.0
 10
62.981082492404511
 20
-62.183801269531244
 30
0.0
 10
63.145413547092005
 20
-62.347787814670134
 30
0.0
 10
63.309744601779506
 20
-62.512463378906247
 30
0.0
 10
63.576394992404509
 20
-62.512463378906247
 30
0.0
 10
63.740726047092011
 20
-62.347787814670134
 30
0.0
  0
SPLINE
  5
169
100
AcDbEntity
  8
BODEN-4-7
 62
     7
100
AcDbSpline
210
0.0
220
0.0
230
1.0
 70
     8
 71
     3
 72
    11
 73
     7
 74
     0
 42
0.00000001
 43
0.00000001
 40
0.0
 40
0.0
 40
0.0
 40
0.0
 40
1.0
 40
1.0
 40
1.0
 40
2.0
 40
2.0
 40
2.0
 40
2.0
 10
62.750605604383672
 20
-61.354222276475689
 30
0.0
 10
62.365788438585064
 20
-61.736627875434024
 30
0.0
 10
62.364065890842006
 20
-62.35812310112847
 30
0.0
 10
62.746471489800342
 20
-62.742595757378467
 30
0.0
 10
63.124053955078118
 20
-63.122934299045134
 30
0.0
 10
63.736247422960062
 20
-63.129824490017356
 30
0.0
 10
64.122787136501728
 20
-62.759132215711801
 30
0.0
  0
LINE
  5
168
100
AcDbEntity
  8
BODEN-4-7
 62
     7
100
AcDbLine
 10
47.463339
 20
69.344088
 30
0.0
 11
47.463339
 21
-30.010055
 31
0.0
  0
LINE
  5
167
100
AcDbEntity
  8
BODEN-4-7
 62
     7
100
AcDbLine
 10
47.463339
 20
-47.467042
 30
0.0
 11
47.463339
 21
-69.344088
 31
0.0
  0
LINE
  5
166
100
AcDbEntity
  8
BODEN-4-7
 62
     7
100
AcDbLine
 10
-7.536577
 20
-69.344088
 30
0.0
 11
-7.536577
 21
-11.765518
 31
0.0
  0
LINE
  5
165
100
AcDbEntity
  8
BODEN-4-7
 62
     7
100
AcDbLine
 10
-7.536577
 20
69.344088
 30
0.0
 11
-7.536577
 21
43.234054
 31
0.0
  0
LINE
  5
164
100
AcDbEntity
  8
BODEN-4-7
 62
     7
100
AcDbLine
 10
-18.034989
 20
43.234054
 30
0.0
 11
47.463339
 21
-22.233785
 31
0.0
  0
ENDBLK
  5
189
100
AcDbEntity
  8
BODEN-4-7
100
AcDbBlockEnd
  0
ENDSEC
  0
SECTION
  2
ENTITIES
  0
INSERT
  5
162
100
AcDbEntity
  8
BODEN-4-7
  6
AI9-LType3
 62
     7
100
AcDbBlockReference
  2
AI9-BLK9
 10
102.946085
 20
140.774009
 30
0.0
  0
INSERT
  5
15A
100
AcDbEntity
  8
BODEN-4-7
 62
     7
100
AcDbBlockReference
  2
AI9-BLK8
 10
90.802468
 20
140.774009
 30
0.0
  0
INSERT
  5
105
100
AcDbEntity
  8
BODEN-4-7
 62
     7
100
AcDbBlockReference
  2
AI9-BLK7
 10
90.802468
 20
140.774009
 30
0.0
  0
INSERT
  5
FD
100
AcDbEntity
  8
BODEN-4-7
 62
     7
100
AcDbBlockReference
  2
AI9-BLK6
 10
164.328126
 20
114.756303
 30
0.0
  0
INSERT
  5
82
100
AcDbEntity
  8
BODEN-4-7
  6
AI9-LType2
 62
     7
100
AcDbBlockReference
  2
AI9-BLK5
 10
115.235257
 20
137.187406
 30
0.0
  0
INSERT
  5
7C
100
AcDbEntity
  8
BODEN-4-7
 62
     7
100
AcDbBlockReference
  2
AI9-BLK4
 10
116.770478
 20
135.667343
 30
0.0
  0
INSERT
  5
76
100
AcDbEntity
  8
BODEN-4-7
 62
     7
100
AcDbBlockReference
  2
AI9-BLK3
 10
89.687204
 20
128.22232
 30
0.0
  0
INSERT
  5
6E
100
AcDbEntity
  8
BODEN-4-7
 62
     7
100
AcDbBlockReference
  2
AI9-BLK2
 10
67.534896
 20
94.123798
 30
0.0
  0
INSERT
  5
31
100
AcDbEntity
  8
BODEN-4-7
 62
     7
100
AcDbBlockReference
  2
AI9-BLK1
 10
134.282243
 20
118.179005
 30
0.0
  0
POLYLINE
  5
29
100
AcDbEntity
  8
RAHMEN
 62
     7
100
AcDb2dPolyline
 66
     1
 10
0.0
 20
0.0
 30
0.0
 70
     1
  0
VERTEX
  5
2A
100
AcDbEntity
  8
RAHMEN
 62
     7
100
AcDbVertex
100
AcDb2dVertex
 10
14.676624
 20
221.977493
 30
0.0
  0
VERTEX
  5
2B
100
AcDbEntity
  8
RAHMEN
 62
     7
100
AcDbVertex
100
AcDb2dVertex
 10
14.676624
 20
49.146699
 30
0.0
  0
VERTEX
  5
2C
100
AcDbEntity
  8
RAHMEN
 62
     7
100
AcDbVertex
100
AcDb2dVertex
 10
180.980512
 20
49.146699
 30
0.0
  0
VERTEX
  5
2D
100
AcDbEntity
  8
RAHMEN
 62
     7
100
AcDbVertex
100
AcDb2dVertex
 10
180.980512
 20
221.977493
 30
0.0
  0
SEQEND
  5
2E
100
AcDbEntity
  8
RAHMEN
 62
     7
  0
ENDSEC
  0
SECTION
  2
OBJECTS
  0
DICTIONARY
  5
19
100
AcDbDictionary
280
     0
281
     1
  3
ACAD_GROUP
350
1A
  3
ACAD_MLINESTYLE
350
1B
  3
ACAD_LAYOUT
350
1E
  3
ACAD_PLOTSETTINGS
350
22
  3
ACAD_PLOTSTYLENAME
350
1F
  3
ACAD_WIPEOUT_VARS
350
23
  0
DICTIONARY
  5
1A
102
{ACAD_REACTORS
330
19
102
}
100
AcDbDictionary
280
     0
281
     1
  0
DICTIONARY
  5
1B
102
{ACAD_REACTORS
330
19
102
}
100
AcDbDictionary
280
     0
281
     1
  3
Standard
350
1C
  0
MLINESTYLE
  5
1C
102
{ACAD_REACTORS
330
1B
102
}
100
AcDbMlineStyle
  2
Standard
 70
     0
  3

 62
     0
 51
90.0
 52
90.0
 71
     2
 49
0.5
 62
   256
  6
ByLayer
 49
-0.5
 62
   256
  6
ByLayer
  0
ACDBDICTIONARYWDFLT
  5
1F
102
{ACAD_REACTORS
330
19
102
}
100
AcDbDictionary
281
     1
  3
Normal
350
1D
100
AcDbDictionaryWithDefault
340
1D
  0
ACDBPLACEHOLDER
  5
1D
102
{ACAD_REACTORS
330
1F
102
}
  0
LAYOUT
  5
20
102
{ACAD_REACTORS
330
1E
102
}
100
AcDbPlotSettings
  1

  2

  4

  6

 40
0.0
 41
0.0
 42
0.0
 43
0.0
 44
0.0
 45
0.0
 46
0.0
 47
0.0
 48
0.0
 49
0.0
140
0.0
141
0.0
142
1.0
143
1.0
 70
  1024
 72
     0
 73
     0
 74
     0
  7

 75
     0
147
1.0
148
0.0
149
0.0
100
AcDbLayout
  1
Model
 70
     0
 71
     0
 10
0.0
 20
0.0
 11
0.0
 21
0.0
 12
0.0
 22
0.0
 32
0.0
 14
0.0
 24
0.0
 34
0.0
 15
0.0
 25
0.0
 35
0.0
146
0.0
 13
0.0
 23
0.0
 33
0.0
 16
0.0
 26
0.0
 36
0.0
 17
0.0
 27
0.0
 37
0.0
 76
     0
330
A
331
0
345
0
346
0
  0
LAYOUT
  5
21
102
{ACAD_REACTORS
330
1E
102
}
100
AcDbPlotSettings
  1

  2

  4

  6

 40
0.0
 41
0.0
 42
0.0
 43
0.0
 44
0.0
 45
0.0
 46
0.0
 47
0.0
 48
0.0
 49
0.0
140
0.0
141
0.0
142
1.0
143
1.0
 70
     0
 72
     0
 73
     0
 74
     0
  7

 75
     0
147
1.0
148
0.0
149
0.0
100
AcDbLayout
  1
Layout1
 70
     0
 71
     0
 10
0.0
 20
0.0
 11
0.0
 21
0.0
 12
0.0
 22
0.0
 32
0.0
 14
0.0
 24
0.0
 34
0.0
 15
0.0
 25
0.0
 35
0.0
146
0.0
 13
0.0
 23
0.0
 33
0.0
 16
0.0
 26
0.0
 36
0.0
 17
0.0
 27
0.0
 37
0.0
 76
     0
330
B
331
0
345
0
346
0
  0
DICTIONARY
  5
1E
102
{ACAD_REACTORS
330
19
102
}
100
AcDbDictionary
280
     0
281
     1
  3
Layout1
350
21
  3
Model
350
20
  0
DICTIONARY
  5
22
102
{ACAD_REACTORS
330
19
102
}
100
AcDbDictionary
280
     0
281
     1
  0
WIPEOUTVARIABLES
  5
23
100
AcDbWipeoutVariables
 70
     1
  0
ENDSEC
  0
EOF
