  0
SECTION
  2
HEADER
  9
$ACADVER
  1
AC1015
  9
$ACADMAINTVER
 70
     6
  9
$DWGCODEPAGE
  3
ANSI_932
  9
$INSBASE
 10
0.0
 20
0.0
 30
0.0
  9
$EXTMIN
 10
44.418305
 20
77.79818
 30
1.000000E+20
  9
$EXTMAX
 10
179.426085
 20
204.305876
 30
-1.000000E+20
  9
$LIMMIN
 10
44.418305
 20
77.79818
  9
$LIMMAX
 10
179.426085
 20
204.305876
  9
$ORTHOMODE
 70
     0
  9
$REGENMODE
 70
     1
  9
$FILLMODE
 70
     1
  9
$QTEXTMODE
 70
     0
  9
$MIRRTEXT
 70
     1
  9
$LTSCALE
 40
1.0
  9
$ATTMODE
 70
     1
  9
$TEXTSIZE
 40
0.2
  9
$TRACEWID
 40
0.05
  9
$TEXTSTYLE
  7
Standard
  9
$CLAYER
  8
0
  9
$CELTYPE
  6
Continuous
  9
$CECOLOR
 62
   256
  9
$CELTSCALE
 40
1.0
  9
$DISPSILH
 70
     0
  9
$DIMSCALE
 40
1.0
  9
$DIMASZ
 40
0.18
  9
$DIMEXO
 40
0.0625
  9
$DIMDLI
 40
0.38
  9
$DIMRND
 40
0.0
  9
$DIMDLE
 40
0.0
  9
$DIMEXE
 40
0.18
  9
$DIMTP
 40
0.0
  9
$DIMTM
 40
0.0
  9
$DIMTXT
 40
0.18
  9
$DIMCEN
 40
0.09
  9
$DIMTSZ
 40
0.0
  9
$DIMTOL
 70
     0
  9
$DIMLIM
 70
     0
  9
$DIMTIH
 70
     1
  9
$DIMTOH
 70
     1
  9
$DIMSE1
 70
     0
  9
$DIMSE2
 70
     0
  9
$DIMTAD
 70
     0
  9
$DIMZIN
 70
     0
  9
$DIMBLK
  1

  9
$DIMASO
 70
     1
  9
$DIMSHO
 70
     1
  9
$DIMPOST
  1

  9
$DIMAPOST
  1

  9
$DIMALT
 70
     0
  9
$DIMALTD
 70
     2
  9
$DIMALTF
 40
25.4
  9
$DIMLFAC
 40
1.0
  9
$DIMTOFL
 70
     0
  9
$DIMTVP
 40
0.0
  9
$DIMTIX
 70
     0
  9
$DIMSOXD
 70
     0
  9
$DIMSAH
 70
     0
  9
$DIMBLK1
  1

  9
$DIMBLK2
  1

  9
$DIMSTYLE
  2
Standard
  9
$DIMCLRD
 70
     0
  9
$DIMCLRE
 70
     0
  9
$DIMCLRT
 70
     0
  9
$DIMTFAC
 40
1.0
  9
$DIMGAP
 40
0.09
  9
$DIMJUST
 70
     0
  9
$DIMSD1
 70
     0
  9
$DIMSD2
 70
     0
  9
$DIMTOLJ
 70
     1
  9
$DIMTZIN
 70
     0
  9
$DIMALTZ
 70
     0
  9
$DIMALTTZ
 70
     0
  9
$DIMUPT
 70
     0
  9
$DIMDEC
 70
     4
  9
$DIMTDEC
 70
     4
  9
$DIMALTU
 70
     2
  9
$DIMALTTD
 70
     2
  9
$DIMTXSTY
  7
Standard
  9
$DIMAUNIT
 70
     0
  9
$DIMADEC
 70
     0
  9
$DIMALTRND
 40
0.0
  9
$DIMAZIN
 70
     0
  9
$DIMDSEP
 70
     0
  9
$DIMATFIT
 70
     3
  9
$DIMFRAC
 70
     0
  9
$DIMLDRBLK
  1

  9
$DIMLUNIT
 70
     2
  9
$DIMLWD
 70
     0
  9
$DIMLWE
 70
     0
  9
$DIMTMOVE
 70
     0
  9
$LUNITS
 70
     2
  9
$LUPREC
 70
     4
  9
$SKETCHINC
 40
0.1
  9
$FILLETRAD
 40
0.0
  9
$AUNITS
 70
     0
  9
$AUPREC
 70
     0
  9
$MENU
  1
acad
  9
$ELEVATION
 40
0.0
  9
$PELEVATION
 40
0.0
  9
$THICKNESS
 40
0.0
  9
$LIMCHECK
 70
     0
  9
$CHAMFERA
 40
0.0
  9
$CHAMFERB
 40
0.0
  9
$CHAMFERC
 40
0.0
  9
$CHAMFERD
 40
0.0
  9
$SKPOLY
 70
     0
  9
$TDCREATE
 40
0.000000000
  9
$TDUCREATE
 40
0.000000000
  9
$TDUPDATE
 40
0.000000000
  9
$TDUUPDATE
 40
0.000000000
  9
$TDINDWG
 40
0.0000000000
  9
$TDUSRTIMER
 40
0.0000000000
  9
$USRTIMER
 70
     1
  9
$ANGBASE
 50
0.0
  9
$ANGDIR
 70
     0
  9
$PDMODE
 70
     0
  9
$PDSIZE
 40
0.0
  9
$PLINEWID
 40
0.0
  9
$SPLFRAME
 70
     0
  9
$SPLINETYPE
 70
     6
  9
$SPLINESEGS
 70
     8
  9
$HANDSEED
  5
195
  9
$SURFTAB1
 70
     6
  9
$SURFTAB2
 70
     6
  9
$SURFTYPE
 70
     6
  9
$SURFU
 70
     6
  9
$SURFV
 70
     6
  9
$UCSBASE
  2

  9
$UCSNAME
  2

  9
$UCSORG
 10
0.0
 20
0.0
 30
0.0
  9
$UCSXDIR
 10
1.0
 20
0.0
 30
0.0
  9
$UCSYDIR
 10
0.0
 20
1.0
 30
0.0
  9
$UCSORTHOREF
  2

  9
$UCSORTHOVIEW
 70
     0
  9
$UCSORGTOP
 10
0.0
 20
0.0
 30
0.0
  9
$UCSORGBOTTOM
 10
0.0
 20
0.0
 30
0.0
  9
$UCSORGLEFT
 10
0.0
 20
0.0
 30
0.0
  9
$UCSORGRIGHT
 10
0.0
 20
0.0
 30
0.0
  9
$UCSORGFRONT
 10
0.0
 20
0.0
 30
0.0
  9
$UCSORGBACK
 10
0.0
 20
0.0
 30
0.0
  9
$PUCSBASE
  2

  9
$PUCSNAME
  2

  9
$PUCSORG
 10
0.0
 20
0.0
 30
0.0
  9
$PUCSXDIR
 10
1.0
 20
0.0
 30
0.0
  9
$PUCSYDIR
 10
0.0
 20
1.0
 30
0.0
  9
$PUCSORTHOREF
  2

  9
$PUCSORTHOVIEW
 70
     0
  9
$PUCSORGTOP
 10
0.0
 20
0.0
 30
0.0
  9
$PUCSORGBOTTOM
 10
0.0
 20
0.0
 30
0.0
  9
$PUCSORGLEFT
 10
0.0
 20
0.0
 30
0.0
  9
$PUCSORGRIGHT
 10
0.0
 20
0.0
 30
0.0
  9
$PUCSORGFRONT
 10
0.0
 20
0.0
 30
0.0
  9
$PUCSORGBACK
 10
0.0
 20
0.0
 30
0.0
  9
$USERI1
 70
     0
  9
$USERI2
 70
     0
  9
$USERI3
 70
     0
  9
$USERI4
 70
     0
  9
$USERI5
 70
     0
  9
$USERR1
 40
0.0
  9
$USERR2
 40
0.0
  9
$USERR3
 40
0.0
  9
$USERR4
 40
0.0
  9
$USERR5
 40
0.0
  9
$WORLDVIEW
 70
     1
  9
$SHADEDGE
 70
     3
  9
$SHADEDIF
 70
    70
  9
$TILEMODE
 70
     1
  9
$MAXACTVP
 70
    16
  9
$PINSBASE
 10
0.0
 20
0.0
 30
0.0
  9
$PLIMCHECK
 70
     0
  9
$PEXTMIN
 10
1.000000E+20
 20
1.000000E+20
 30
1.000000E+20
  9
$PEXTMAX
 10
-1.000000E+20
 20
-1.000000E+20
 30
-1.000000E+20
  9
$PLIMMIN
 10
0.0
 20
0.0
  9
$PLIMMAX
 10
12.0
 20
9.0
  9
$UNITMODE
 70
     0
  9
$VISRETAIN
 70
     0
  9
$PLINEGEN
 70
     1
  9
$PSLTSCALE
 70
     0
  9
$TREEDEPTH
 70
  3020
  9
$CMLSTYLE
  2
Standard
  9
$CMLJUST
 70
     0
  9
$CMLSCALE
 40
1.0
  9
$PROXYGRAPHICS
 70
     0
  9
$MEASUREMENT
 70
     1
  9
$CELWEIGHT
370
     0
  9
$ENDCAPS
280
     0
  9
$JOINSTYLE
280
     0
  9
$LWDISPLAY
290
     0
  9
$INSUNITS
 70
     0
  9
$HYPERLINKBASE
  1

  9
$STYLESHEET
  1

  9
$XEDIT
290
     1
  9
$CEPSNTYPE
380
     0
  9
$PSTYLEMODE
290
     1
  9
$FINGERPRINTGUID
  2

  9
$VERSIONGUID
  2

  9
$EXTNAMES
290
     1
  9
$PSVPSCALE
 40
0.0
  0
ENDSEC
  0
SECTION
  2
CLASSES
  0
CLASS
  1
LWPOLYLINE
  2
AcDbPolyline
  3
AutoCAD 2000
 90
    32768
280
     0
281
     1
  0
CLASS
  1
IMAGE
  2
AcDbRasterImage
  3
ISM
 90
    32895
280
     0
281
     1
  0
CLASS
  1
OLE2FRAME
  2
AcDbOle2Frame
  3
AutoCAD 2000
 90
    32768
280
     0
281
     1
  0
CLASS
  1
HATCH
  2
AcDbHatch
  3
AutoCAD 2000
 90
        0
280
     0
281
     1
  0
CLASS
  1
DICTIONARYVAR
  2
AcDbDictionaryVar
  3
AutoCAD 2000
 90
    32768
280
     0
281
     0
  0
CLASS
  1
RASTERVARIABLES
  2
AcDbRasterVariables
  3
ISM
 90
    32768
280
     0
281
     0
  0
CLASS
  1
IMAGEDEF
  2
AcDbRasterImageDef
  3
ISM
 90
    32768
280
     0
281
     0
  0
CLASS
  1
IMAGEDEF_REACTOR
  2
AcDbRasterImageDefReactor
  3
ISM
 90
    32769
280
     0
281
     0
  0
CLASS
  1
IDBUFFER
  2
AcDbIdBuffer
  3
AutoCAD 2000
 90
    32768
280
     0
281
     0
  0
CLASS
  1
SPATIAL_FILTER
  2
AcDbSpatialFilter
  3
AutoCAD 2000
 90
    32768
280
     0
281
     0
  0
CLASS
  1
XRECORD
  2
AcDbXrecord
  3
AutoCAD 2000
 90
    32768
280
     0
281
     0
  0
CLASS
  1
SORTENTSTABLE
  2
AcDbSortentsTable
  3
AutoCAD 2000
 90
    32768
280
     0
281
     0
  0
CLASS
  1
LAYER_INDEX
  2
AcDbLayerIndex
  3
AutoCAD 2000
 90
    32768
280
     0
281
     0
  0
CLASS
  1
SPATIAL_INDEX
  2
AcDbSpatialIndex
  3
AutoCAD 2000
 90
    32768
280
     0
281
     0
  0
CLASS
  1
OBJECT_PTR
  2
CAseDLPNTableRecord
  3
"ASE-LPNTableRecord"
 90
    32769
280
     0
281
     0
  0
CLASS
  1
LAYOUT
  2
AcDbLayout
  3
AutoCAD 2000
 90
        0
280
     0
281
     0
  0
CLASS
  1
PLOTSETTINGS
  2
AcDbPlotSettings
  3
AutoCAD 2000
 90
    32768
280
     0
281
     0
  0
CLASS
  1
ACDBDICTIONARYWDFLT
  2
AcDbDictionaryWithDefault
  3
AutoCAD 2000
 90
        0
280
     0
281
     0
  0
CLASS
  1
ACDBPLACEHOLDER
  2
AcDbPlaceHolder
  3
AutoCAD 2000
 90
        0
280
     0
281
     0
  0
CLASS
  1
VBA_PROJECT
  2
AcDbVbaProject
  3
acadvba
 90
    32768
280
     0
281
     0
  0
CLASS
  1
WIPEOUT
  2
AcDbWipeout
  3
WipeOut|AutoCAD Express Tool|expresstools@autodesk.com
 90
    32895
280
     0
281
     1
  0
CLASS
  1
WIPEOUTVARIABLES
  2
AcDbWipeoutVariables
  3
WipeOut|AutoCAD Express Tool|expresstools@autodesk.com
 90
        0
280
     0
281
     0
  0
CLASS
  1
RTEXT
  2
RText
  3
RText|AutoCAD Express Tool|expresstools@autodesk.com
 90
    32768
280
     0
281
     1
  0
CLASS
  1
ARCALIGNEDTEXT
  2
AcDbArcAlignedText
  3
ATEXT|AutoCAD Express Tool|expresstools@autodesk.com
 90
    32768
280
     0
281
     1
  0
ENDSEC
  0
SECTION
  2
TABLES
  0
TABLE
  2
VPORT
  5
7
100
AcDbSymbolTable
 70
     1
  0
VPORT
  5
15
100
AcDbSymbolTableRecord
100
AcDbViewportTableRecord
  2
*ACTIVE
 70
     0
 10
0.0
 20
0.0
 11
1.0
 21
1.0
 12
6.591288
 22
4.579184
 13
0.0
 23
0.0
 14
1.0
 24
1.0
 15
0.0
 25
0.0
 16
0.0
 26
0.0
 36
1.0
 17
0.0
 27
0.0
 37
0.0
 40
9.158369
 41
0.688564
 42
50.0
 43
0.0
 44
0.0
 50
0.0
 51
0.0
 71
     0
 72
   100
 73
     1
 74
     1
 75
     0
 76
     0
 77
     0
 78
     0
281
     0
 65
     0
110
0.0
120
0.0
130
0.0
111
1.0
121
0.0
131
0.0
112
0.0
122
1.0
132
0.0
345
0
346
0
 79
     0
146
0.0
  0
ENDTAB
  0
TABLE
  2
LTYPE
  5
4
100
AcDbSymbolTable
 70
     6
  0
LTYPE
  5
11
100
AcDbSymbolTableRecord
100
AcDbLinetypeTableRecord
  2
ByBlock
 70
    64
  3

 72
    65
 73
     0
 40
0.0
  0
LTYPE
  5
12
100
AcDbSymbolTableRecord
100
AcDbLinetypeTableRecord
  2
ByLayer
 70
    64
  3

 72
    65
 73
     0
 40
0.0
  0
LTYPE
  5
13
100
AcDbSymbolTableRecord
100
AcDbLinetypeTableRecord
  2
Continuous
 70
    64
  3
Solid line
 72
    65
 73
     0
 40
0.0
  0
LTYPE
  5
B8
100
AcDbSymbolTableRecord
100
AcDbLinetypeTableRecord
  2
AI9-LType1
 70
    64
  3
Illustrator Dash Style No.1
 72
    65
 73
     4
 40
9.525
 49
5.644444
 74
     0
 49
-1.763889
 74
     0
 49
0.352778
 74
     0
 49
-1.763889
 74
     0
  0
LTYPE
  5
BA
100
AcDbSymbolTableRecord
100
AcDbLinetypeTableRecord
  2
AI9-LType2
 70
    64
  3
Illustrator Dash Style No.2
 72
    65
 73
     4
 40
3.175
 49
1.411111
 74
     0
 49
-0.705556
 74
     0
 49
0.352778
 74
     0
 49
-0.705556
 74
     0
  0
LTYPE
  5
192
100
AcDbSymbolTableRecord
100
AcDbLinetypeTableRecord
  2
AI9-LType3
 70
    64
  3
Illustrator Dash Style No.3
 72
    65
 73
     6
 40
10.583333
 49
5.644444
 74
     0
 49
-1.411111
 74
     0
 49
0.352778
 74
     0
 49
-1.411111
 74
     0
 49
0.352778
 74
     0
 49
-1.411111
 74
     0
  0
ENDTAB
  0
TABLE
  2
LAYER
  5
2
100
AcDbSymbolTable
 70
    10
  0
LAYER
  5
14
100
AcDbSymbolTableRecord
100
AcDbLayerTableRecord
  2
0
 70
     0
 62
     7
  6
Continuous
290
     1
370
    -3
390
1D
  0
LAYER
  5
28
100
AcDbSymbolTableRecord
100
AcDbLayerTableRecord
  2
TEXTE
 70
     4
 62
   253
  6
Continuous
290
     1
370
    -3
390
1D
  0
LAYER
  5
2D
100
AcDbSymbolTableRecord
100
AcDbLayerTableRecord
  2
KOERPER
 70
     4
 62
     1
  6
Continuous
290
     1
370
    -3
390
1D
  0
LAYER
  5
8D
100
AcDbSymbolTableRecord
100
AcDbLayerTableRecord
  2
BESCHRIFTUNG
 70
     4
 62
     7
  6
Continuous
290
     1
370
    -3
390
1D
  0
LAYER
  5
90
100
AcDbSymbolTableRecord
100
AcDbLayerTableRecord
  2
OBJEKT
 70
     4
 62
   253
  6
Continuous
290
     1
370
    -3
390
1D
  0
LAYER
  5
B7
100
AcDbSymbolTableRecord
100
AcDbLayerTableRecord
  2
MITTELLINIE
 70
     4
 62
     4
  6
Continuous
290
     1
370
    -3
390
1D
  0
LAYER
  5
BD
100
AcDbSymbolTableRecord
100
AcDbLayerTableRecord
  2
SCHRAFFUR
 70
     4
 62
     6
  6
Continuous
290
     1
370
    -3
390
1D
  0
LAYER
  5
168
100
AcDbSymbolTableRecord
100
AcDbLayerTableRecord
  2
EBENE_1
 70
     4
 62
     3
  6
Continuous
290
     1
370
    -3
390
1D
  0
LAYER
  5
16D
100
AcDbSymbolTableRecord
100
AcDbLayerTableRecord
  2
SCHRAFUR
 70
     4
 62
     7
  6
Continuous
290
     1
370
    -3
390
1D
  0
LAYER
  5
191
100
AcDbSymbolTableRecord
100
AcDbLayerTableRecord
  2
TRENNUNG
 70
     4
 62
   160
  6
Continuous
290
     1
370
    -3
390
1D
  0
ENDTAB
  0
TABLE
  2
STYLE
  5
3
100
AcDbSymbolTable
 70
     5
  0
STYLE
  5
17
100
AcDbSymbolTableRecord
100
AcDbTextStyleTableRecord
  2
Standard
 70
     0
 40
0.0
 41
1.0
 50
0.0
 71
     0
 42
0.0
  3
txt
  4

  0
STYLE
  5
24
100
AcDbSymbolTableRecord
100
AcDbTextStyleTableRecord
  2
STD
 70
     0
 40
0.0
 41
1.0
 50
0.0
 71
     0
 42
0.0
  3
txt
  4

  0
STYLE
  5
25
100
AcDbSymbolTableRecord
100
AcDbTextStyleTableRecord
  2
TATESTD
 70
     4
 40
0.0
 41
1.0
 50
0.0
 71
     0
 42
0.0
  3
txt
  4

  0
STYLE
  5
26
100
AcDbSymbolTableRecord
100
AcDbTextStyleTableRecord
  2
KANJISTD
 70
     0
 40
0.0
 41
1.0
 50
0.0
 71
     0
 42
0.0
  3
txt
  4
extfont
  0
STYLE
  5
27
100
AcDbSymbolTableRecord
100
AcDbTextStyleTableRecord
  2
KANJITATE
 70
     4
 40
0.0
 41
1.0
 50
0.0
 71
     0
 42
0.0
  3
txt
  4
extfont
  0
ENDTAB
  0
TABLE
  2
VIEW
  5
5
100
AcDbSymbolTable
 70
     0
  0
ENDTAB
  0
TABLE
  2
UCS
  5
6
100
AcDbSymbolTable
 70
     0
  0
ENDTAB
  0
TABLE
  2
APPID
  5
8
100
AcDbSymbolTable
 70
     1
  0
APPID
  5
16
100
AcDbSymbolTableRecord
100
AcDbRegAppTableRecord
  2
ACAD
 70
     0
  0
ENDTAB
  0
TABLE
  2
DIMSTYLE
  5
9
100
AcDbSymbolTable
 70
     1
100
AcDbDimStyleTable
 71
     0
  0
DIMSTYLE
105
18
100
AcDbSymbolTableRecord
100
AcDbDimStyleTableRecord
  2
Standard
 70
     0
  3

  4

 40
1.0
 41
0.18
 42
0.0625
 43
0.38
 44
0.18
 45
0.0
 46
0.0
 47
0.0
 48
0.0
 71
     0
 72
     0
 73
     1
 74
     1
 75
     0
 76
     0
 77
     0
 78
     0
 79
     0
140
0.18
141
0.09
142
0.0
143
25.4
144
1.0
145
0.0
146
1.0
147
0.09
148
0.0
170
     0
171
     2
172
     0
173
     0
174
     0
175
     0
176
     0
177
     0
178
     0
179
     0
271
     4
272
     4
273
     2
274
     2
275
     0
276
     0
277
     2
278
    46
279
     0
280
     0
281
     0
282
     0
283
     1
284
     0
285
     0
286
     0
288
     0
340
17
341
0
342
0
343
0
344
0
371
    -2
372
    -2
  0
ENDTAB
  0
TABLE
  2
BLOCK_RECORD
  5
1
100
AcDbSymbolTable
 70
     0
  0
BLOCK_RECORD
  5
A
100
AcDbSymbolTableRecord
100
AcDbBlockTableRecord
  2
*MODEL_SPACE
340
20
  0
BLOCK_RECORD
  5
B
100
AcDbSymbolTableRecord
100
AcDbBlockTableRecord
  2
*PAPER_SPACE
340
21
  0
ENDTAB
  0
ENDSEC
  0
SECTION
  2
BLOCKS
  0
BLOCK
  5
D
100
AcDbEntity
  8
0
100
AcDbBlockBegin
  2
*MODEL_SPACE
 70
     0
 10
0.0
 20
0.0
 30
0.0
  3
*MODEL_SPACE
  1

  0
ENDBLK
  5
E
100
AcDbEntity
  8
0
100
AcDbBlockEnd
  0
BLOCK
  5
F
100
AcDbEntity
 67
     1
  8
0
100
AcDbBlockBegin
  2
*PAPER_SPACE
 70
     0
 10
0.0
 20
0.0
 30
0.0
  3
*PAPER_SPACE
  1

  0
ENDBLK
  5
10
100
AcDbEntity
 67
     1
  8
0
100
AcDbBlockEnd
  0
ENDSEC
  0
SECTION
  2
ENTITIES
  0
LINE
  5
194
100
AcDbEntity
  8
TRENNUNG
  6
AI9-LType3
 62
     7
100
AcDbLine
 10
44.594694
 20
194.438089
 30
0.0
 11
44.594694
 21
138.493872
 31
0.0
  0
LINE
  5
193
100
AcDbEntity
  8
TRENNUNG
  6
AI9-LType3
 62
     7
100
AcDbLine
 10
158.766536
 20
194.438089
 30
0.0
 11
158.766536
 21
138.493872
 31
0.0
  0
LINE
  5
190
100
AcDbEntity
  8
SCHRAFUR
 62
     7
100
AcDbLine
 10
44.594694
 20
176.730298
 30
0.0
 11
62.302657
 21
194.438089
 31
0.0
  0
LINE
  5
18F
100
AcDbEntity
  8
SCHRAFUR
 62
     7
100
AcDbLine
 10
44.594694
 20
156.224573
 30
0.0
 11
74.762878
 21
186.392585
 31
0.0
  0
LINE
  5
18E
100
AcDbEntity
  8
SCHRAFUR
 62
     7
100
AcDbLine
 10
47.370063
 20
138.493872
 30
0.0
 11
75.367837
 21
166.491819
 31
0.0
  0
LINE
  5
18D
100
AcDbEntity
  8
SCHRAFUR
 62
     7
100
AcDbLine
 10
67.87596
 20
138.493872
 30
0.0
 11
74.762878
 21
145.381307
 31
0.0
  0
LINE
  5
18C
100
AcDbEntity
  8
SCHRAFUR
 62
     7
100
AcDbLine
 10
128.066602
 20
178.179133
 30
0.0
 11
144.32573
 21
194.438089
 31
0.0
  0
LINE
  5
18B
100
AcDbEntity
  8
SCHRAFUR
 62
     7
100
AcDbLine
 10
128.59818
 20
158.204641
 30
0.0
 11
158.766536
 21
188.372826
 31
0.0
  0
LINE
  5
18A
100
AcDbEntity
  8
SCHRAFUR
 62
     7
100
AcDbLine
 10
129.393308
 20
138.493872
 30
0.0
 11
158.766536
 21
167.867101
 31
0.0
  0
LINE
  5
189
100
AcDbEntity
  8
SCHRAFUR
 62
     7
100
AcDbLine
 10
149.898861
 20
138.493872
 30
0.0
 11
158.766536
 21
147.361203
 31
0.0
  0
LINE
  5
188
100
AcDbEntity
  8
SCHRAFUR
 62
     7
100
AcDbLine
 10
44.594694
 20
186.983247
 30
0.0
 11
47.585209
 21
189.973589
 31
0.0
  0
LINE
  5
187
100
AcDbEntity
  8
SCHRAFUR
 62
     7
100
AcDbLine
 10
50.14836
 20
192.53674
 30
0.0
 11
52.049708
 21
194.438089
 31
0.0
  0
LINE
  5
186
100
AcDbEntity
  8
SCHRAFUR
 62
     7
100
AcDbLine
 10
45.021886
 20
166.904541
 30
0.0
 11
50.14836
 21
172.031015
 31
0.0
  0
LINE
  5
185
100
AcDbEntity
  8
SCHRAFUR
 62
     7
100
AcDbLine
 10
52.711511
 20
174.594166
 30
0.0
 11
57.837986
 21
179.720641
 31
0.0
  0
LINE
  5
184
100
AcDbEntity
  8
SCHRAFUR
 62
     7
100
AcDbLine
 10
60.401309
 20
182.283964
 30
0.0
 11
65.527611
 21
187.410266
 31
0.0
  0
LINE
  5
183
100
AcDbEntity
  8
SCHRAFUR
 62
     7
100
AcDbLine
 10
68.090934
 20
189.973589
 30
0.0
 11
72.555433
 21
194.438089
 31
0.0
  0
LINE
  5
182
100
AcDbEntity
  8
SCHRAFUR
 62
     7
100
AcDbLine
 10
44.594694
 20
145.971796
 30
0.0
 11
45.021886
 21
146.398988
 31
0.0
  0
LINE
  5
181
100
AcDbEntity
  8
SCHRAFUR
 62
     7
100
AcDbLine
 10
47.585209
 20
148.961967
 30
0.0
 11
52.711511
 21
154.088441
 31
0.0
  0
LINE
  5
180
100
AcDbEntity
  8
SCHRAFUR
 62
     7
100
AcDbLine
 10
55.274835
 20
156.651592
 30
0.0
 11
60.401309
 21
161.778067
 31
0.0
  0
LINE
  5
17F
100
AcDbEntity
  8
SCHRAFUR
 62
     7
100
AcDbLine
 10
62.96446
 20
164.34139
 30
0.0
 11
68.090934
 21
169.467692
 31
0.0
  0
LINE
  5
17E
100
AcDbEntity
  8
SCHRAFUR
 62
     7
100
AcDbLine
 10
70.654085
 20
172.031015
 30
0.0
 11
74.762878
 21
176.139808
 31
0.0
  0
LINE
  5
17D
100
AcDbEntity
  8
SCHRAFUR
 62
     7
100
AcDbLine
 10
57.837986
 20
138.708846
 30
0.0
 11
62.96446
 21
143.835493
 31
0.0
  0
LINE
  5
17C
100
AcDbEntity
  8
SCHRAFUR
 62
     7
100
AcDbLine
 10
65.527611
 20
146.398988
 30
0.0
 11
70.654085
 21
151.525118
 31
0.0
  0
LINE
  5
17B
100
AcDbEntity
  8
SCHRAFUR
 62
     7
100
AcDbLine
 10
73.217409
 20
154.088441
 30
0.0
 11
75.119963
 21
155.990995
 31
0.0
  0
LINE
  5
17A
100
AcDbEntity
  8
SCHRAFUR
 62
     7
100
AcDbLine
 10
129.608282
 20
189.973589
 30
0.0
 11
134.072781
 21
194.438089
 31
0.0
  0
LINE
  5
179
100
AcDbEntity
  8
SCHRAFUR
 62
     7
100
AcDbLine
 10
128.59818
 20
168.45759
 30
0.0
 11
129.608282
 21
169.467692
 31
0.0
  0
LINE
  5
178
100
AcDbEntity
  8
SCHRAFUR
 62
     7
100
AcDbLine
 10
132.171777
 20
172.031015
 30
0.0
 11
137.298079
 21
177.15749
 31
0.0
  0
LINE
  5
177
100
AcDbEntity
  8
SCHRAFUR
 62
     7
100
AcDbLine
 10
139.86123
 20
179.720641
 30
0.0
 11
144.987533
 21
184.847115
 31
0.0
  0
LINE
  5
176
100
AcDbEntity
  8
SCHRAFUR
 62
     7
100
AcDbLine
 10
147.550684
 20
187.410266
 30
0.0
 11
152.67733
 21
192.53674
 31
0.0
  0
LINE
  5
175
100
AcDbEntity
  8
SCHRAFUR
 62
     7
100
AcDbLine
 10
128.59818
 20
147.951865
 30
0.0
 11
132.171777
 21
151.525118
 31
0.0
  0
LINE
  5
174
100
AcDbEntity
  8
SCHRAFUR
 62
     7
100
AcDbLine
 10
134.734928
 20
154.088441
 30
0.0
 11
139.86123
 21
159.214916
 31
0.0
  0
LINE
  5
173
100
AcDbEntity
  8
SCHRAFUR
 62
     7
100
AcDbLine
 10
142.424382
 20
161.778067
 30
0.0
 11
147.550684
 21
166.904541
 31
0.0
  0
LINE
  5
172
100
AcDbEntity
  8
SCHRAFUR
 62
     7
100
AcDbLine
 10
150.113835
 20
169.467692
 30
0.0
 11
155.240826
 21
174.594166
 31
0.0
  0
LINE
  5
171
100
AcDbEntity
  8
SCHRAFUR
 62
     7
100
AcDbLine
 10
157.803977
 20
177.15749
 30
0.0
 11
158.766536
 21
178.120049
 31
0.0
  0
LINE
  5
170
100
AcDbEntity
  8
SCHRAFUR
 62
     7
100
AcDbLine
 10
139.646257
 20
138.493872
 30
0.0
 11
142.424382
 21
141.272342
 31
0.0
  0
LINE
  5
16F
100
AcDbEntity
  8
SCHRAFUR
 62
     7
100
AcDbLine
 10
144.987533
 20
143.835493
 30
0.0
 11
150.113835
 21
148.961967
 31
0.0
  0
LINE
  5
16E
100
AcDbEntity
  8
SCHRAFUR
 62
     7
100
AcDbLine
 10
152.67733
 20
151.525118
 30
0.0
 11
157.803977
 21
156.651592
 31
0.0
  0
HATCH
  5
16C
100
AcDbEntity
  8
EBENE_1
 62
   154
100
AcDbHatch
 10
0.0
 20
0.0
 30
0.0
210
0.0
220
0.0
230
1.0
  2
SOLID
 70
     1
 71
     0
 91
        1
 92
        1
 93
        1
 72
     4
 94
        3
 73
     0
 74
     0
 95
       23
 96
       19
 40
0.0
 40
0.0
 40
0.0
 40
0.0
 40
1.0
 40
1.0
 40
1.0
 40
2.0
 40
2.0
 40
2.0
 40
3.0
 40
3.0
 40
3.0
 40
4.0
 40
4.0
 40
4.0
 40
5.0
 40
5.0
 40
5.0
 40
6.0
 40
6.0
 40
6.0
 40
6.0
 10
152.16848958333333
 20
123.67789442274304
 10
152.16848958333333
 20
123.67789442274304
 10
151.76403537326388
 20
123.92697482638887
 10
151.21385362413193
 20
124.19018012152776
 10
146.67907443576388
 20
126.35886773003472
 10
147.78495008680554
 20
121.96361490885415
 10
143.29599066840277
 20
124.72658148871527
 10
142.66312662760416
 20
125.11587727864583
 10
142.07849392361109
 20
124.1664089626736
 10
142.71170247395833
 20
123.77711317274304
 10
142.71170247395833
 20
123.77711317274304
 10
143.11615668402777
 20
123.5276882595486
 10
143.6659939236111
 20
123.26448296440971
 10
148.19526095920136
 20
121.0968288845486
 10
147.09455295138886
 20
125.48381347656249
 10
151.58420138888889
 20
122.72842610677083
 10
152.21740993923609
 20
122.33878580729166
 10
152.80100911458331
 20
123.28859863281249
 10
152.16848958333333
 20
123.67789442274304
 97
        0
 75
     2
 76
     1
 98
        1
 10
0.0
 20
0.0
  0
HATCH
  5
16B
100
AcDbEntity
  8
EBENE_1
 62
   154
100
AcDbHatch
 10
0.0
 20
0.0
 30
0.0
210
0.0
220
0.0
230
1.0
  2
SOLID
 70
     1
 71
     0
 91
        1
 92
        1
 93
        1
 72
     4
 94
        3
 73
     0
 74
     0
 95
       23
 96
       19
 40
0.0
 40
0.0
 40
0.0
 40
0.0
 40
1.0
 40
1.0
 40
1.0
 40
2.0
 40
2.0
 40
2.0
 40
3.0
 40
3.0
 40
3.0
 40
4.0
 40
4.0
 40
4.0
 40
5.0
 40
5.0
 40
5.0
 40
6.0
 40
6.0
 40
6.0
 40
6.0
 10
152.16848958333333
 20
121.06065538194443
 10
152.16848958333333
 20
121.06065538194443
 10
151.76403537326388
 20
121.30973578559026
 10
151.21385362413193
 20
121.57294108072915
 10
146.67907443576388
 20
123.74197319878471
 10
147.78495008680554
 20
119.34672037760416
 10
143.29599066840277
 20
122.10899793836805
 10
142.66312662760416
 20
122.49898274739583
 10
142.07849392361109
 20
121.5495144314236
 10
142.71170247395833
 20
121.16021864149305
 10
142.71170247395833
 20
121.16021864149305
 10
143.11615668402777
 20
120.9107937282986
 10
143.6659939236111
 20
120.64758843315971
 10
148.19526095920136
 20
118.4799343532986
 10
147.09455295138886
 20
122.86691894531249
 10
151.58420138888889
 20
120.11084255642361
 10
152.21740993923609
 20
119.72154676649305
 10
152.80100911458331
 20
120.67135959201387
 10
152.16848958333333
 20
121.06065538194443
 97
        0
 75
     2
 76
     1
 98
        1
 10
0.0
 20
0.0
  0
HATCH
  5
16A
100
AcDbEntity
  8
EBENE_1
 62
   154
100
AcDbHatch
 10
0.0
 20
0.0
 30
0.0
210
0.0
220
0.0
230
1.0
  2
SOLID
 70
     1
 71
     0
 91
        1
 92
        1
 93
        1
 72
     4
 94
        3
 73
     0
 74
     0
 95
       23
 96
       19
 40
0.0
 40
0.0
 40
0.0
 40
0.0
 40
1.0
 40
1.0
 40
1.0
 40
2.0
 40
2.0
 40
2.0
 40
3.0
 40
3.0
 40
3.0
 40
4.0
 40
4.0
 40
4.0
 40
5.0
 40
5.0
 40
5.0
 40
6.0
 40
6.0
 40
6.0
 40
6.0
 10
152.16848958333333
 20
118.43893771701387
 10
152.16848958333333
 20
118.43893771701387
 10
151.76403537326388
 20
118.68836263020832
 10
151.21385362413193
 20
118.95122341579859
 10
146.67907443576388
 20
121.12025553385415
 10
147.78495008680554
 20
116.7250027126736
 10
143.29599066840277
 20
119.4876247829861
 10
142.66312662760416
 20
119.87726508246527
 10
142.07849392361109
 20
118.92779676649305
 10
142.71170247395833
 20
118.53850097656249
 10
142.71170247395833
 20
118.53850097656249
 10
143.11615668402777
 20
118.28907606336804
 10
143.6659939236111
 20
118.02587076822915
 10
148.19526095920136
 20
115.85821668836805
 10
147.09455295138886
 20
120.24520128038193
 10
151.58420138888889
 20
117.48912489149305
 10
152.21740993923609
 20
117.1001736111111
 10
152.80100911458331
 20
118.04998643663194
 10
152.16848958333333
 20
118.43893771701387
 97
        0
 75
     2
 76
     1
 98
        1
 10
0.0
 20
0.0
  0
HATCH
  5
169
100
AcDbEntity
  8
EBENE_1
 62
   154
100
AcDbHatch
 10
0.0
 20
0.0
 30
0.0
210
0.0
220
0.0
230
1.0
  2
SOLID
 70
     1
 71
     0
 91
        1
 92
        1
 93
        1
 72
     4
 94
        3
 73
     0
 74
     0
 95
       23
 96
       19
 40
0.0
 40
0.0
 40
0.0
 40
0.0
 40
1.0
 40
1.0
 40
1.0
 40
2.0
 40
2.0
 40
2.0
 40
3.0
 40
3.0
 40
3.0
 40
4.0
 40
4.0
 40
4.0
 40
5.0
 40
5.0
 40
5.0
 40
6.0
 40
6.0
 40
6.0
 40
6.0
 10
152.16848958333333
 20
115.81756456163194
 10
152.16848958333333
 20
115.81756456163194
 10
151.76403537326388
 20
116.06664496527777
 10
151.21385362413193
 20
116.32950575086805
 10
146.67907443576388
 20
118.49853786892361
 10
147.78495008680554
 20
114.10328504774304
 10
143.29599066840277
 20
116.86590711805555
 10
142.66312662760416
 20
117.25554741753471
 10
142.07849392361109
 20
116.30607910156249
 10
142.71170247395833
 20
115.91678331163193
 10
142.71170247395833
 20
115.91678331163193
 10
143.11615668402777
 20
115.66735839843749
 10
143.6659939236111
 20
115.4041531032986
 10
148.19526095920136
 20
113.23649902343749
 10
147.09455295138886
 20
117.62348361545138
 10
151.58420138888889
 20
114.8677517361111
 10
152.21740993923609
 20
114.47845594618055
 10
152.80100911458331
 20
115.42826877170138
 10
152.16848958333333
 20
115.81756456163194
 97
        0
 75
     2
 76
     1
 98
        1
 10
0.0
 20
0.0
  0
HATCH
  5
167
100
AcDbEntity
  8
SCHRAFFUR
 62
     7
100
AcDbHatch
 10
0.0
 20
0.0
 30
0.0
210
0.0
220
0.0
230
1.0
  2
SOLID
 70
     1
 71
     0
 91
        4
 92
        1
 93
        1
 72
     4
 94
        3
 73
     0
 74
     0
 95
       17
 96
       13
 40
0.0
 40
0.0
 40
0.0
 40
0.0
 40
1.0
 40
1.0
 40
1.0
 40
2.0
 40
2.0
 40
2.0
 40
3.0
 40
3.0
 40
3.0
 40
4.0
 40
4.0
 40
4.0
 40
4.0
 10
119.44697265624998
 20
144.07974989149304
 10
119.44697265624998
 20
144.07974989149304
 10
119.44697265624998
 20
153.2132147894965
 10
119.44697265624998
 20
153.2132147894965
 10
119.44697265624998
 20
153.2132147894965
 10
124.51470811631944
 20
153.2132147894965
 10
124.51470811631944
 20
153.2132147894965
 10
124.51470811631944
 20
153.2132147894965
 10
124.51470811631944
 20
144.07974989149304
 10
124.51470811631944
 20
144.07974989149304
 10
124.51470811631944
 20
144.07974989149304
 10
119.44697265624998
 20
144.07974989149304
 10
119.44697265624998
 20
144.07974989149304
 97
        0
 92
        1
 93
        1
 72
     4
 94
        3
 73
     0
 74
     0
 95
       17
 96
       13
 40
0.0
 40
0.0
 40
0.0
 40
0.0
 40
1.0
 40
1.0
 40
1.0
 40
2.0
 40
2.0
 40
2.0
 40
3.0
 40
3.0
 40
3.0
 40
4.0
 40
4.0
 40
4.0
 40
4.0
 10
101.68044297960068
 20
144.07974989149304
 10
101.68044297960068
 20
144.07974989149304
 10
101.68044297960068
 20
153.2132147894965
 10
101.68044297960068
 20
153.2132147894965
 10
101.68044297960068
 20
153.2132147894965
 10
119.44697265624998
 20
153.2132147894965
 10
119.44697265624998
 20
153.2132147894965
 10
119.44697265624998
 20
153.2132147894965
 10
119.44697265624998
 20
144.07974989149304
 10
119.44697265624998
 20
144.07974989149304
 10
119.44697265624998
 20
144.07974989149304
 10
101.68044297960068
 20
144.07974989149304
 10
101.68044297960068
 20
144.07974989149304
 97
        0
 92
        1
 93
        1
 72
     4
 94
        3
 73
     0
 74
     0
 95
       17
 96
       13
 40
0.0
 40
0.0
 40
0.0
 40
0.0
 40
1.0
 40
1.0
 40
1.0
 40
2.0
 40
2.0
 40
2.0
 40
3.0
 40
3.0
 40
3.0
 40
4.0
 40
4.0
 40
4.0
 40
4.0
 10
83.914085557725684
 20
144.07974989149304
 10
83.914085557725684
 20
144.07974989149304
 10
83.914085557725684
 20
153.2132147894965
 10
83.914085557725684
 20
153.2132147894965
 10
83.914085557725684
 20
153.2132147894965
 10
101.68044297960068
 20
153.2132147894965
 10
101.68044297960068
 20
153.2132147894965
 10
101.68044297960068
 20
153.2132147894965
 10
101.68044297960068
 20
144.07974989149304
 10
101.68044297960068
 20
144.07974989149304
 10
101.68044297960068
 20
144.07974989149304
 10
83.914085557725684
 20
144.07974989149304
 10
83.914085557725684
 20
144.07974989149304
 97
        0
 92
        1
 93
        1
 72
     4
 94
        3
 73
     0
 74
     0
 95
       20
 96
       16
 40
0.0
 40
0.0
 40
0.0
 40
0.0
 40
1.0
 40
1.0
 40
1.0
 40
2.0
 40
2.0
 40
2.0
 40
3.0
 40
3.0
 40
3.0
 40
4.0
 40
4.0
 40
4.0
 40
5.0
 40
5.0
 40
5.0
 40
5.0
 10
79.30282524956597
 20
144.07974989149304
 10
79.30282524956597
 20
144.07974989149304
 10
78.846177842881943
 20
144.07974989149304
 10
78.846177842881943
 20
144.07974989149304
 10
78.846177842881943
 20
144.07974989149304
 10
78.846177842881943
 20
153.2132147894965
 10
78.846177842881943
 20
153.2132147894965
 10
78.846177842881943
 20
153.2132147894965
 10
83.914085557725684
 20
153.2132147894965
 10
83.914085557725684
 20
153.2132147894965
 10
83.914085557725684
 20
153.2132147894965
 10
83.914085557725684
 20
144.07974989149304
 10
83.914085557725684
 20
144.07974989149304
 10
83.914085557725684
 20
144.07974989149304
 10
79.30282524956597
 20
144.07974989149304
 10
79.30282524956597
 20
144.07974989149304
 97
        0
 75
     2
 76
     1
 98
        1
 10
0.0
 20
0.0
  0
LINE
  5
166
100
AcDbEntity
  8
SCHRAFFUR
 62
     7
100
AcDbLine
 10
101.21036
 20
201.047332
 30
0.0
 11
100.686016
 21
201.571676
 31
0.0
  0
LINE
  5
165
100
AcDbEntity
  8
SCHRAFFUR
 62
     7
100
AcDbLine
 10
103.936292
 20
200.339709
 30
0.0
 11
103.902185
 21
200.373644
 31
0.0
  0
LINE
  5
164
100
AcDbEntity
  8
SCHRAFFUR
 62
     7
100
AcDbLine
 10
98.400023
 20
201.334825
 30
0.0
 11
97.605756
 21
202.129092
 31
0.0
  0
LINE
  5
163
100
AcDbEntity
  8
SCHRAFFUR
 62
     7
100
AcDbLine
 10
98.245683
 20
198.974246
 30
0.0
 11
97.673797
 21
199.545959
 31
0.0
  0
LINE
  5
162
100
AcDbEntity
  8
SCHRAFFUR
 62
     7
100
AcDbLine
 10
94.230079
 20
198.440773
 30
0.0
 11
93.215671
 21
199.455181
 31
0.0
  0
LINE
  5
161
100
AcDbEntity
  8
SCHRAFFUR
 62
     7
100
AcDbLine
 10
93.751211
 20
198.414935
 30
0.0
 11
92.6946
 21
199.471545
 31
0.0
  0
LINE
  5
160
100
AcDbEntity
  8
SCHRAFFUR
 62
     7
100
AcDbLine
 10
94.258329
 20
201.439901
 30
0.0
 11
93.248572
 21
202.449658
 31
0.0
  0
LINE
  5
15F
100
AcDbEntity
  8
SCHRAFFUR
 62
     7
100
AcDbLine
 10
93.76637
 20
201.427326
 30
0.0
 11
92.741454
 21
202.45207
 31
0.0
  0
LINE
  5
15E
100
AcDbEntity
  8
SCHRAFFUR
 62
     7
100
AcDbLine
 10
93.264764
 20
198.396848
 30
0.0
 11
92.167845
 21
199.493939
 31
0.0
  0
LINE
  5
15D
100
AcDbEntity
  8
SCHRAFFUR
 62
     7
100
AcDbLine
 10
92.770393
 20
198.386685
 30
0.0
 11
91.634717
 21
199.522361
 31
0.0
  0
LINE
  5
15C
100
AcDbEntity
  8
SCHRAFFUR
 62
     7
100
AcDbLine
 10
92.267409
 20
198.385135
 30
0.0
 11
91.096765
 21
199.555778
 31
0.0
  0
LINE
  5
15B
100
AcDbEntity
  8
SCHRAFFUR
 62
     7
100
AcDbLine
 10
91.755467
 20
198.392369
 30
0.0
 11
89.196106
 21
200.951903
 31
0.0
  0
LINE
  5
15A
100
AcDbEntity
  8
SCHRAFFUR
 62
     7
100
AcDbLine
 10
91.234224
 20
198.409078
 30
0.0
 11
89.124448
 21
200.518854
 31
0.0
  0
LINE
  5
159
100
AcDbEntity
  8
SCHRAFFUR
 62
     7
100
AcDbLine
 10
90.674913
 20
198.463855
 30
0.0
 11
89.171818
 21
199.967122
 31
0.0
  0
LINE
  5
158
100
AcDbEntity
  8
SCHRAFFUR
 62
     7
100
AcDbLine
 10
93.279405
 20
201.409584
 30
0.0
 11
92.24157
 21
202.447591
 31
0.0
  0
LINE
  5
157
100
AcDbEntity
  8
SCHRAFFUR
 62
     7
100
AcDbLine
 10
92.797609
 20
201.387019
 30
0.0
 11
91.748577
 21
202.435878
 31
0.0
  0
LINE
  5
156
100
AcDbEntity
  8
SCHRAFFUR
 62
     7
100
AcDbLine
 10
92.320463
 20
201.359458
 30
0.0
 11
91.26213
 21
202.417963
 31
0.0
  0
LINE
  5
155
100
AcDbEntity
  8
SCHRAFFUR
 62
     7
100
AcDbLine
 10
91.84814
 20
201.327418
 30
0.0
 11
90.792563
 21
202.382823
 31
0.0
  0
LINE
  5
154
100
AcDbEntity
  8
SCHRAFFUR
 62
     7
100
AcDbLine
 10
91.380296
 20
201.290556
 30
0.0
 11
90.396549
 21
202.274303
 31
0.0
  0
LINE
  5
153
100
AcDbEntity
  8
SCHRAFFUR
 62
     7
100
AcDbLine
 10
90.92141
 20
201.244736
 30
0.0
 11
90.06048
 21
202.105838
 31
0.0
  0
LINE
  5
152
100
AcDbEntity
  8
SCHRAFFUR
 62
     7
100
AcDbLine
 10
90.582757
 20
201.078855
 30
0.0
 11
89.773504
 21
201.88828
 31
0.0
  0
LINE
  5
151
100
AcDbEntity
  8
SCHRAFFUR
 62
     7
100
AcDbLine
 10
90.356759
 20
200.800491
 30
0.0
 11
89.532175
 21
201.624902
 31
0.0
  0
LINE
  5
150
100
AcDbEntity
  8
SCHRAFFUR
 62
     7
100
AcDbLine
 10
90.263741
 20
200.388802
 30
0.0
 11
89.337527
 21
201.315016
 31
0.0
  0
LINE
  5
14F
100
AcDbEntity
  8
SCHRAFFUR
 62
     7
100
AcDbLine
 10
97.81763
 20
198.889841
 30
0.0
 11
97.191139
 21
199.516159
 31
0.0
  0
LINE
  5
14E
100
AcDbEntity
  8
SCHRAFFUR
 62
     7
100
AcDbLine
 10
97.390438
 20
198.812326
 30
0.0
 11
96.711582
 21
199.491355
 31
0.0
  0
LINE
  5
14D
100
AcDbEntity
  8
SCHRAFFUR
 62
     7
100
AcDbLine
 10
96.957734
 20
198.740668
 30
0.0
 11
96.227201
 21
199.471201
 31
0.0
  0
LINE
  5
14C
100
AcDbEntity
  8
SCHRAFFUR
 62
     7
100
AcDbLine
 10
96.519001
 20
198.674695
 30
0.0
 11
95.737998
 21
199.455698
 31
0.0
  0
LINE
  5
14B
100
AcDbEntity
  8
SCHRAFFUR
 62
     7
100
AcDbLine
 10
96.074239
 20
198.614922
 30
0.0
 11
95.243971
 21
199.44519
 31
0.0
  0
LINE
  5
14A
100
AcDbEntity
  8
SCHRAFFUR
 62
     7
100
AcDbLine
 10
95.623276
 20
198.561351
 30
0.0
 11
94.744777
 21
199.439678
 31
0.0
  0
LINE
  5
149
100
AcDbEntity
  8
SCHRAFFUR
 62
     7
100
AcDbLine
 10
95.165767
 20
198.514326
 30
0.0
 11
94.240587
 21
199.439506
 31
0.0
  0
LINE
  5
148
100
AcDbEntity
  8
SCHRAFFUR
 62
     7
100
AcDbLine
 10
94.701369
 20
198.474018
 30
0.0
 11
93.730885
 21
199.444501
 31
0.0
  0
LINE
  5
147
100
AcDbEntity
  8
SCHRAFFUR
 62
     7
100
AcDbLine
 10
96.280773
 20
201.435767
 30
0.0
 11
95.354559
 21
202.362153
 31
0.0
  0
LINE
  5
146
100
AcDbEntity
  8
SCHRAFFUR
 62
     7
100
AcDbLine
 10
96.800982
 20
201.420091
 30
0.0
 11
95.902329
 21
202.318745
 31
0.0
  0
LINE
  5
145
100
AcDbEntity
  8
SCHRAFFUR
 62
     7
100
AcDbLine
 10
97.327393
 20
201.398215
 30
0.0
 11
96.459918
 21
202.265862
 31
0.0
  0
LINE
  5
144
100
AcDbEntity
  8
SCHRAFFUR
 62
     7
100
AcDbLine
 10
97.860349
 20
201.369965
 30
0.0
 11
97.027497
 21
202.202817
 31
0.0
  0
LINE
  5
143
100
AcDbEntity
  8
SCHRAFFUR
 62
     7
100
AcDbLine
 10
95.766592
 20
201.445413
 30
0.0
 11
94.815573
 21
202.396431
 31
0.0
  0
LINE
  5
142
100
AcDbEntity
  8
SCHRAFFUR
 62
     7
100
AcDbLine
 10
95.258268
 20
201.44903
 30
0.0
 11
94.285201
 21
202.422097
 31
0.0
  0
LINE
  5
141
100
AcDbEntity
  8
SCHRAFFUR
 62
     7
100
AcDbLine
 10
94.755629
 20
201.447308
 30
0.0
 11
93.762925
 21
202.43984
 31
0.0
  0
LINE
  5
140
100
AcDbEntity
  8
SCHRAFFUR
 62
     7
100
AcDbLine
 10
102.745667
 20
200.01656
 30
0.0
 11
102.626122
 21
200.136277
 31
0.0
  0
LINE
  5
13F
100
AcDbEntity
  8
SCHRAFFUR
 62
     7
100
AcDbLine
 10
102.999742
 20
200.771552
 30
0.0
 11
102.726718
 21
201.044748
 31
0.0
  0
LINE
  5
13E
100
AcDbEntity
  8
SCHRAFFUR
 62
     7
100
AcDbLine
 10
98.658405
 20
199.058306
 30
0.0
 11
98.137335
 21
199.579205
 31
0.0
  0
LINE
  5
13D
100
AcDbEntity
  8
SCHRAFFUR
 62
     7
100
AcDbLine
 10
99.075606
 20
199.145639
 30
0.0
 11
98.603973
 21
199.617273
 31
0.0
  0
LINE
  5
13C
100
AcDbEntity
  8
SCHRAFFUR
 62
     7
100
AcDbLine
 10
99.490913
 20
199.234867
 30
0.0
 11
99.066305
 21
199.659475
 31
0.0
  0
LINE
  5
13B
100
AcDbEntity
  8
SCHRAFFUR
 62
     7
100
AcDbLine
 10
99.904152
 20
199.32599
 30
0.0
 11
99.524502
 21
199.70564
 31
0.0
  0
LINE
  5
13A
100
AcDbEntity
  8
SCHRAFFUR
 62
     7
100
AcDbLine
 10
100.315668
 20
199.41918
 30
0.0
 11
99.97891
 21
199.755938
 31
0.0
  0
LINE
  5
139
100
AcDbEntity
  8
SCHRAFFUR
 62
     7
100
AcDbLine
 10
100.72529
 20
199.514092
 30
0.0
 11
100.429357
 21
199.810026
 31
0.0
  0
LINE
  5
138
100
AcDbEntity
  8
SCHRAFFUR
 62
     7
100
AcDbLine
 10
101.133017
 20
199.6109
 30
0.0
 11
100.876013
 21
199.867904
 31
0.0
  0
LINE
  5
137
100
AcDbEntity
  8
SCHRAFFUR
 62
     7
100
AcDbLine
 10
101.53885
 20
199.709602
 30
0.0
 11
101.31888
 21
199.929571
 31
0.0
  0
LINE
  5
136
100
AcDbEntity
  8
SCHRAFFUR
 62
     7
100
AcDbLine
 10
101.942959
 20
199.810198
 30
0.0
 11
101.75813
 21
199.994855
 31
0.0
  0
LINE
  5
135
100
AcDbEntity
  8
SCHRAFFUR
 62
     7
100
AcDbLine
 10
102.345174
 20
199.912518
 30
0.0
 11
102.193934
 21
200.063757
 31
0.0
  0
LINE
  5
134
100
AcDbEntity
  8
SCHRAFFUR
 62
     7
100
AcDbLine
 10
102.393578
 20
200.873183
 30
0.0
 11
102.026847
 21
201.240085
 31
0.0
  0
LINE
  5
133
100
AcDbEntity
  8
SCHRAFFUR
 62
     7
100
AcDbLine
 10
98.94676
 20
201.292623
 30
0.0
 11
98.195384
 21
202.043998
 31
0.0
  0
LINE
  5
132
100
AcDbEntity
  8
SCHRAFFUR
 62
     7
100
AcDbLine
 10
99.500731
 20
201.243186
 30
0.0
 11
98.797243
 21
201.946674
 31
0.0
  0
LINE
  5
131
100
AcDbEntity
  8
SCHRAFFUR
 62
     7
100
AcDbLine
 10
100.062454
 20
201.185997
 30
0.0
 11
99.412364
 21
201.836259
 31
0.0
  0
LINE
  5
130
100
AcDbEntity
  8
SCHRAFFUR
 62
     7
100
AcDbLine
 10
100.6321
 20
201.120885
 30
0.0
 11
100.041439
 21
201.711719
 31
0.0
  0
LINE
  5
12F
100
AcDbEntity
  8
SCHRAFFUR
 62
     7
100
AcDbLine
 10
101.797404
 20
200.964994
 30
0.0
 11
101.347302
 21
201.415096
 31
0.0
  0
LINE
  5
12E
100
AcDbEntity
  8
SCHRAFFUR
 62
     7
100
AcDbLine
 10
103.144264
 20
200.122496
 30
0.0
 11
103.054864
 21
200.212069
 31
0.0
  0
LINE
  5
12D
100
AcDbEntity
  8
SCHRAFFUR
 62
     7
100
AcDbLine
 10
103.616242
 20
200.659587
 30
0.0
 11
103.449327
 21
200.826674
 31
0.0
  0
LINE
  5
12C
100
AcDbEntity
  8
SCHRAFFUR
 62
     7
100
AcDbLine
 10
103.541139
 20
200.230155
 30
0.0
 11
103.480161
 21
200.291134
 31
0.0
  0
LINE
  5
12B
100
AcDbEntity
  8
SCHRAFFUR
 62
     7
100
AcDbLine
 10
104.329721
 20
200.450814
 30
0.0
 11
104.321109
 21
200.459427
 31
0.0
  0
LINE
  5
12A
100
AcDbEntity
  8
SCHRAFFUR
 62
     7
100
AcDbLine
 10
104.243939
 20
200.536597
 30
0.0
 11
104.19743
 21
200.583105
 31
0.0
  0
LINE
  5
129
100
AcDbEntity
  8
SCHRAFFUR
 62
     7
100
AcDbLine
 10
107.080458
 20
126.361279
 30
0.0
 11
108.0065
 21
125.434893
 31
0.0
  0
LINE
  5
128
100
AcDbEntity
  8
SCHRAFFUR
 62
     7
100
AcDbLine
 10
106.560248
 20
126.376782
 30
0.0
 11
107.458729
 21
125.478301
 31
0.0
  0
LINE
  5
127
100
AcDbEntity
  8
SCHRAFFUR
 62
     7
100
AcDbLine
 10
107.286819
 20
129.182123
 30
0.0
 11
108.117087
 21
128.351855
 31
0.0
  0
LINE
  5
126
100
AcDbEntity
  8
SCHRAFFUR
 62
     7
100
AcDbLine
 10
101.822209
 20
128.087272
 30
0.0
 11
102.042178
 21
127.867131
 31
0.0
  0
LINE
  5
125
100
AcDbEntity
  8
SCHRAFFUR
 62
     7
100
AcDbLine
 10
106.842057
 20
129.122523
 30
0.0
 11
107.62306
 21
128.341176
 31
0.0
  0
LINE
  5
124
100
AcDbEntity
  8
SCHRAFFUR
 62
     7
100
AcDbLine
 10
100.216794
 20
127.674205
 30
0.0
 11
100.306194
 21
127.584977
 31
0.0
  0
LINE
  5
123
100
AcDbEntity
  8
SCHRAFFUR
 62
     7
100
AcDbLine
 10
102.635768
 20
128.282954
 30
0.0
 11
102.931702
 21
127.98702
 31
0.0
  0
LINE
  5
122
100
AcDbEntity
  8
SCHRAFFUR
 62
     7
100
AcDbLine
 10
102.228041
 20
128.186146
 30
0.0
 11
102.485045
 21
127.929142
 31
0.0
  0
LINE
  5
121
100
AcDbEntity
  8
SCHRAFFUR
 62
     7
100
AcDbLine
 10
101.015884
 20
127.884356
 30
0.0
 11
101.167124
 21
127.733116
 31
0.0
  0
LINE
  5
120
100
AcDbEntity
  8
SCHRAFFUR
 62
     7
100
AcDbLine
 10
101.418099
 20
127.98702
 30
0.0
 11
101.602928
 21
127.802018
 31
0.0
  0
LINE
  5
11F
100
AcDbEntity
  8
SCHRAFFUR
 62
     7
100
AcDbLine
 10
100.361316
 20
127.025149
 30
0.0
 11
100.63434
 21
126.752298
 31
0.0
  0
LINE
  5
11E
100
AcDbEntity
  8
SCHRAFFUR
 62
     7
100
AcDbLine
 10
100.615392
 20
127.780314
 30
0.0
 11
100.734937
 21
127.660769
 31
0.0
  0
LINE
  5
11D
100
AcDbEntity
  8
SCHRAFFUR
 62
     7
100
AcDbLine
 10
99.819919
 20
127.566718
 30
0.0
 11
99.880897
 21
127.50574
 31
0.0
  0
LINE
  5
11C
100
AcDbEntity
  8
SCHRAFFUR
 62
     7
100
AcDbLine
 10
100.96748
 20
126.923863
 30
0.0
 11
101.334211
 21
126.556961
 31
0.0
  0
LINE
  5
11B
100
AcDbEntity
  8
SCHRAFFUR
 62
     7
100
AcDbLine
 10
99.424767
 20
127.457164
 30
0.0
 11
99.458701
 21
127.423402
 31
0.0
  0
LINE
  5
11A
100
AcDbEntity
  8
SCHRAFFUR
 62
     7
100
AcDbLine
 10
110.563449
 20
126.409855
 30
0.0
 11
111.612481
 21
125.361168
 31
0.0
  0
LINE
  5
119
100
AcDbEntity
  8
SCHRAFFUR
 62
     7
100
AcDbLine
 10
99.031337
 20
127.346232
 30
0.0
 11
99.03995
 21
127.337619
 31
0.0
  0
LINE
  5
118
100
AcDbEntity
  8
SCHRAFFUR
 62
     7
100
AcDbLine
 10
99.744644
 20
127.137459
 30
0.0
 11
99.911731
 21
126.970372
 31
0.0
  0
LINE
  5
117
100
AcDbEntity
  8
SCHRAFFUR
 62
     7
100
AcDbLine
 10
102.150699
 20
126.749542
 30
0.0
 11
102.675042
 21
126.225198
 31
0.0
  0
LINE
  5
116
100
AcDbEntity
  8
SCHRAFFUR
 62
     7
100
AcDbLine
 10
99.11712
 20
127.260105
 30
0.0
 11
99.163628
 21
127.21394
 31
0.0
  0
LINE
  5
115
100
AcDbEntity
  8
SCHRAFFUR
 62
     7
100
AcDbLine
 10
104.702825
 20
128.73874
 30
0.0
 11
105.223724
 21
128.217841
 31
0.0
  0
LINE
  5
114
100
AcDbEntity
  8
SCHRAFFUR
 62
     7
100
AcDbLine
 10
106.033838
 20
126.398831
 30
0.0
 11
106.901313
 21
125.531356
 31
0.0
  0
LINE
  5
113
100
AcDbEntity
  8
SCHRAFFUR
 62
     7
100
AcDbLine
 10
101.563654
 20
126.832224
 30
0.0
 11
102.013928
 21
126.38195
 31
0.0
  0
LINE
  5
112
100
AcDbEntity
  8
SCHRAFFUR
 62
     7
100
AcDbLine
 10
104.285452
 20
128.651234
 30
0.0
 11
104.757258
 21
128.179945
 31
0.0
  0
LINE
  5
111
100
AcDbEntity
  8
SCHRAFFUR
 62
     7
100
AcDbLine
 10
103.456734
 20
128.471056
 30
0.0
 11
103.836384
 21
128.091406
 31
0.0
  0
LINE
  5
110
100
AcDbEntity
  8
SCHRAFFUR
 62
     7
100
AcDbLine
 10
103.870146
 20
128.562351
 30
0.0
 11
104.294754
 21
128.137571
 31
0.0
  0
LINE
  5
10F
100
AcDbEntity
  8
SCHRAFFUR
 62
     7
100
AcDbLine
 10
108.195291
 20
129.28272
 30
0.0
 11
109.120643
 21
128.357712
 31
0.0
  0
LINE
  5
10E
100
AcDbEntity
  8
SCHRAFFUR
 62
     7
100
AcDbLine
 10
103.04539
 20
128.377694
 30
0.0
 11
103.382148
 21
128.041108
 31
0.0
  0
LINE
  5
10D
100
AcDbEntity
  8
SCHRAFFUR
 62
     7
100
AcDbLine
 10
105.543256
 20
128.907205
 30
0.0
 11
106.169575
 21
128.280887
 31
0.0
  0
LINE
  5
10C
100
AcDbEntity
  8
SCHRAFFUR
 62
     7
100
AcDbLine
 10
105.970448
 20
128.98472
 30
0.0
 11
106.649821
 21
128.305691
 31
0.0
  0
LINE
  5
10B
100
AcDbEntity
  8
SCHRAFFUR
 62
     7
100
AcDbLine
 10
106.403152
 20
129.056377
 30
0.0
 11
107.134201
 21
128.326017
 31
0.0
  0
LINE
  5
10A
100
AcDbEntity
  8
SCHRAFFUR
 62
     7
100
AcDbLine
 10
105.115375
 20
128.8228
 30
0.0
 11
105.687261
 21
128.250914
 31
0.0
  0
LINE
  5
109
100
AcDbEntity
  8
SCHRAFFUR
 62
     7
100
AcDbLine
 10
105.500537
 20
126.427081
 30
0.0
 11
106.333561
 21
125.594057
 31
0.0
  0
LINE
  5
108
100
AcDbEntity
  8
SCHRAFFUR
 62
     7
100
AcDbLine
 10
104.961035
 20
126.462221
 30
0.0
 11
105.755474
 21
125.667782
 31
0.0
  0
LINE
  5
107
100
AcDbEntity
  8
SCHRAFFUR
 62
     7
100
AcDbLine
 10
104.414299
 20
126.504251
 30
0.0
 11
105.165674
 21
125.75322
 31
0.0
  0
LINE
  5
106
100
AcDbEntity
  8
SCHRAFFUR
 62
     7
100
AcDbLine
 10
103.860327
 20
126.55386
 30
0.0
 11
104.563816
 21
125.850372
 31
0.0
  0
LINE
  5
105
100
AcDbEntity
  8
SCHRAFFUR
 62
     7
100
AcDbLine
 10
103.298604
 20
126.611049
 30
0.0
 11
103.948694
 21
125.960615
 31
0.0
  0
LINE
  5
104
100
AcDbEntity
  8
SCHRAFFUR
 62
     7
100
AcDbLine
 10
102.728786
 20
126.676161
 30
0.0
 11
103.319619
 21
126.085327
 31
0.0
  0
LINE
  5
103
100
AcDbEntity
  8
SCHRAFFUR
 62
     7
100
AcDbLine
 10
111.09365
 20
129.411911
 30
0.0
 11
112.264293
 21
128.241268
 31
0.0
  0
LINE
  5
102
100
AcDbEntity
  8
SCHRAFFUR
 62
     7
100
AcDbLine
 10
111.605246
 20
129.404332
 30
0.0
 11
114.164952
 21
126.845315
 31
0.0
  0
LINE
  5
101
100
AcDbEntity
  8
SCHRAFFUR
 62
     7
100
AcDbLine
 10
111.512918
 20
126.4698
 30
0.0
 11
112.568495
 21
125.414223
 31
0.0
  0
LINE
  5
100
100
AcDbEntity
  8
SCHRAFFUR
 62
     7
100
AcDbLine
 10
111.980762
 20
126.506318
 30
0.0
 11
112.964681
 21
125.522743
 31
0.0
  0
LINE
  5
FF
100
AcDbEntity
  8
SCHRAFFUR
 62
     7
100
AcDbLine
 10
107.594466
 20
126.351633
 30
0.0
 11
108.545312
 21
125.400442
 31
0.0
  0
LINE
  5
FE
100
AcDbEntity
  8
SCHRAFFUR
 62
     7
100
AcDbLine
 10
108.102962
 20
126.347843
 30
0.0
 11
109.075857
 21
125.374948
 31
0.0
  0
LINE
  5
FD
100
AcDbEntity
  8
SCHRAFFUR
 62
     7
100
AcDbLine
 10
108.605257
 20
126.34991
 30
0.0
 11
109.598134
 21
125.357034
 31
0.0
  0
LINE
  5
FC
100
AcDbEntity
  8
SCHRAFFUR
 62
     7
100
AcDbLine
 10
109.102729
 20
126.357145
 30
0.0
 11
110.112831
 21
125.347388
 31
0.0
  0
LINE
  5
FB
100
AcDbEntity
  8
SCHRAFFUR
 62
     7
100
AcDbLine
 10
109.594689
 20
126.369892
 30
0.0
 11
110.619604
 21
125.344632
 31
0.0
  0
LINE
  5
FA
100
AcDbEntity
  8
SCHRAFFUR
 62
     7
100
AcDbLine
 10
110.081825
 20
126.387118
 30
0.0
 11
111.119488
 21
125.349455
 31
0.0
  0
LINE
  5
F9
100
AcDbEntity
  8
SCHRAFFUR
 62
     7
100
AcDbLine
 10
108.65969
 20
129.323028
 30
0.0
 11
109.630173
 21
128.3522
 31
0.0
  0
LINE
  5
F8
100
AcDbEntity
  8
SCHRAFFUR
 62
     7
100
AcDbLine
 10
107.737782
 20
129.235522
 30
0.0
 11
108.616281
 21
128.357023
 31
0.0
  0
LINE
  5
F7
100
AcDbEntity
  8
SCHRAFFUR
 62
     7
100
AcDbLine
 10
109.130979
 20
129.356101
 30
0.0
 11
110.145215
 21
128.341865
 31
0.0
  0
LINE
  5
F6
100
AcDbEntity
  8
SCHRAFFUR
 62
     7
100
AcDbLine
 10
110.590666
 20
129.410189
 30
0.0
 11
111.726514
 21
128.274685
 31
0.0
  0
LINE
  5
F5
100
AcDbEntity
  8
SCHRAFFUR
 62
     7
100
AcDbLine
 10
109.609847
 20
129.381939
 30
0.0
 11
110.666113
 21
128.325328
 31
0.0
  0
LINE
  5
F4
100
AcDbEntity
  8
SCHRAFFUR
 62
     7
100
AcDbLine
 10
112.439648
 20
126.552138
 30
0.0
 11
113.300922
 21
125.691208
 31
0.0
  0
LINE
  5
F3
100
AcDbEntity
  8
SCHRAFFUR
 62
     7
100
AcDbLine
 10
111.040595
 20
126.437416
 30
0.0
 11
112.099273
 21
125.379083
 31
0.0
  0
LINE
  5
F2
100
AcDbEntity
  8
SCHRAFFUR
 62
     7
100
AcDbLine
 10
110.096294
 20
129.400198
 30
0.0
 11
111.193213
 21
128.30328
 31
0.0
  0
LINE
  5
F1
100
AcDbEntity
  8
SCHRAFFUR
 62
     7
100
AcDbLine
 10
113.097317
 20
127.408244
 30
0.0
 11
114.023703
 21
126.481858
 31
0.0
  0
LINE
  5
F0
100
AcDbEntity
  8
SCHRAFFUR
 62
     7
100
AcDbLine
 10
112.126834
 20
129.387796
 30
0.0
 11
114.23661
 21
127.278019
 31
0.0
  0
LINE
  5
EF
100
AcDbEntity
  8
SCHRAFFUR
 62
     7
100
AcDbLine
 10
112.686317
 20
129.333019
 30
0.0
 11
114.189068
 21
127.829924
 31
0.0
  0
LINE
  5
EE
100
AcDbEntity
  8
SCHRAFFUR
 62
     7
100
AcDbLine
 10
113.004644
 20
126.996555
 30
0.0
 11
113.828711
 21
126.172144
 31
0.0
  0
LINE
  5
ED
100
AcDbEntity
  8
SCHRAFFUR
 62
     7
100
AcDbLine
 10
112.778301
 20
126.718191
 30
0.0
 11
113.587554
 21
125.908938
 31
0.0
  0
LINE
  5
EC
100
AcDbEntity
  8
SCHRAFFUR
 62
     7
100
AcDbLine
 10
124.696609
 20
138.493872
 30
0.0
 11
124.514708
 21
138.676118
 31
0.0
  0
LINE
  5
EB
100
AcDbEntity
  8
SCHRAFFUR
 62
     7
100
AcDbLine
 10
127.260105
 20
138.493872
 30
0.0
 11
124.514708
 21
141.239269
 31
0.0
  0
LINE
  5
EA
100
AcDbEntity
  8
SCHRAFFUR
 62
     7
100
AcDbLine
 10
128.59818
 20
139.718948
 30
0.0
 11
124.514708
 21
143.802764
 31
0.0
  0
LINE
  5
E9
100
AcDbEntity
  8
SCHRAFFUR
 62
     7
100
AcDbLine
 10
128.59818
 20
142.282444
 30
0.0
 11
124.514708
 21
146.365915
 31
0.0
  0
LINE
  5
E8
100
AcDbEntity
  8
SCHRAFFUR
 62
     7
100
AcDbLine
 10
128.318438
 20
145.125336
 30
0.0
 11
124.514708
 21
148.928894
 31
0.0
  0
LINE
  5
E7
100
AcDbEntity
  8
SCHRAFFUR
 62
     7
100
AcDbLine
 10
128.59818
 20
147.40909
 30
0.0
 11
124.514708
 21
151.492217
 31
0.0
  0
LINE
  5
E6
100
AcDbEntity
  8
SCHRAFFUR
 62
     7
100
AcDbLine
 10
128.28881
 20
150.281439
 30
0.0
 11
124.514708
 21
154.055368
 31
0.0
  0
LINE
  5
E5
100
AcDbEntity
  8
SCHRAFFUR
 62
     7
100
AcDbLine
 10
128.59818
 20
152.535392
 30
0.0
 11
124.514708
 21
156.618692
 31
0.0
  0
LINE
  5
E4
100
AcDbEntity
  8
SCHRAFFUR
 62
     7
100
AcDbLine
 10
128.055577
 20
155.640974
 30
0.0
 11
124.514708
 21
159.181843
 31
0.0
  0
LINE
  5
E3
100
AcDbEntity
  8
SCHRAFFUR
 62
     7
100
AcDbLine
 10
128.59818
 20
157.661694
 30
0.0
 11
124.514708
 21
161.745166
 31
0.0
  0
LINE
  5
E2
100
AcDbEntity
  8
SCHRAFFUR
 62
     7
100
AcDbLine
 10
128.040763
 20
160.782434
 30
0.0
 11
124.514708
 21
164.308317
 31
0.0
  0
LINE
  5
E1
100
AcDbEntity
  8
SCHRAFFUR
 62
     7
100
AcDbLine
 10
128.59818
 20
162.788169
 30
0.0
 11
124.514708
 21
166.871468
 31
0.0
  0
LINE
  5
E0
100
AcDbEntity
  8
SCHRAFFUR
 62
     7
100
AcDbLine
 10
128.59818
 20
165.351492
 30
0.0
 11
124.514708
 21
169.434791
 31
0.0
  0
LINE
  5
DF
100
AcDbEntity
  8
SCHRAFFUR
 62
     7
100
AcDbLine
 10
128.59818
 20
167.914643
 30
0.0
 11
124.514708
 21
171.997942
 31
0.0
  0
LINE
  5
DE
100
AcDbEntity
  8
SCHRAFFUR
 62
     7
100
AcDbLine
 10
128.59818
 20
170.477966
 30
0.0
 11
124.514708
 21
174.561266
 31
0.0
  0
LINE
  5
DD
100
AcDbEntity
  8
SCHRAFFUR
 62
     7
100
AcDbLine
 10
128.294667
 20
173.344458
 30
0.0
 11
124.514708
 21
177.124417
 31
0.0
  0
LINE
  5
DC
100
AcDbEntity
  8
SCHRAFFUR
 62
     7
100
AcDbLine
 10
128.59818
 20
175.604268
 30
0.0
 11
124.514708
 21
179.68774
 31
0.0
  0
LINE
  5
DB
100
AcDbEntity
  8
SCHRAFFUR
 62
     7
100
AcDbLine
 10
128.00459
 20
178.761009
 30
0.0
 11
124.514708
 21
182.250891
 31
0.0
  0
LINE
  5
DA
100
AcDbEntity
  8
SCHRAFFUR
 62
     7
100
AcDbLine
 10
128.59818
 20
180.730743
 30
0.0
 11
124.514708
 21
184.814042
 31
0.0
  0
LINE
  5
D9
100
AcDbEntity
  8
SCHRAFFUR
 62
     7
100
AcDbLine
 10
128.59818
 20
183.294066
 30
0.0
 11
124.514708
 21
187.377365
 31
0.0
  0
LINE
  5
D8
100
AcDbEntity
  8
SCHRAFFUR
 62
     7
100
AcDbLine
 10
128.59818
 20
185.857217
 30
0.0
 11
124.514708
 21
189.940516
 31
0.0
  0
LINE
  5
D7
100
AcDbEntity
  8
SCHRAFFUR
 62
     7
100
AcDbLine
 10
128.59818
 20
188.42054
 30
0.0
 11
124.514708
 21
192.50384
 31
0.0
  0
LINE
  5
D6
100
AcDbEntity
  8
SCHRAFFUR
 62
     7
100
AcDbLine
 10
128.59818
 20
190.983691
 30
0.0
 11
125.143783
 21
194.438089
 31
0.0
  0
LINE
  5
D5
100
AcDbEntity
  8
SCHRAFFUR
 62
     7
100
AcDbLine
 10
128.427648
 20
193.717547
 30
0.0
 11
127.706934
 21
194.438089
 31
0.0
  0
LINE
  5
D4
100
AcDbEntity
  8
SCHRAFFUR
 62
     7
100
AcDbLine
 10
75.995534
 20
138.493872
 30
0.0
 11
74.762878
 21
139.726527
 31
0.0
  0
LINE
  5
D3
100
AcDbEntity
  8
SCHRAFFUR
 62
     7
100
AcDbLine
 10
78.558857
 20
138.493872
 30
0.0
 11
74.762878
 21
142.290023
 31
0.0
  0
LINE
  5
D2
100
AcDbEntity
  8
SCHRAFFUR
 62
     7
100
AcDbLine
 10
78.846178
 20
140.769702
 30
0.0
 11
75.366804
 21
144.249249
 31
0.0
  0
LINE
  5
D1
100
AcDbEntity
  8
SCHRAFFUR
 62
     7
100
AcDbLine
 10
78.846178
 20
143.332853
 30
0.0
 11
74.762878
 21
147.416669
 31
0.0
  0
LINE
  5
D0
100
AcDbEntity
  8
SCHRAFFUR
 62
     7
100
AcDbLine
 10
78.846178
 20
145.896349
 30
0.0
 11
75.362842
 21
149.379685
 31
0.0
  0
LINE
  5
CF
100
AcDbEntity
  8
SCHRAFFUR
 62
     7
100
AcDbLine
 10
78.846178
 20
148.4595
 30
0.0
 11
74.762878
 21
152.542799
 31
0.0
  0
LINE
  5
CE
100
AcDbEntity
  8
SCHRAFFUR
 62
     7
100
AcDbLine
 10
78.846178
 20
151.022823
 30
0.0
 11
75.209707
 21
154.659294
 31
0.0
  0
LINE
  5
CD
100
AcDbEntity
  8
SCHRAFFUR
 62
     7
100
AcDbLine
 10
78.846178
 20
153.585974
 30
0.0
 11
74.762878
 21
157.669274
 31
0.0
  0
LINE
  5
CC
100
AcDbEntity
  8
SCHRAFFUR
 62
     7
100
AcDbLine
 10
78.846178
 20
156.149297
 30
0.0
 11
75.186281
 21
159.809022
 31
0.0
  0
LINE
  5
CB
100
AcDbEntity
  8
SCHRAFFUR
 62
     7
100
AcDbLine
 10
78.846178
 20
158.712448
 30
0.0
 11
74.762878
 21
162.795748
 31
0.0
  0
LINE
  5
CA
100
AcDbEntity
  8
SCHRAFFUR
 62
     7
100
AcDbLine
 10
78.846178
 20
161.2756
 30
0.0
 11
74.762878
 21
165.359071
 31
0.0
  0
LINE
  5
C9
100
AcDbEntity
  8
SCHRAFFUR
 62
     7
100
AcDbLine
 10
78.846178
 20
163.838923
 30
0.0
 11
74.762878
 21
167.922222
 31
0.0
  0
LINE
  5
C8
100
AcDbEntity
  8
SCHRAFFUR
 62
     7
100
AcDbLine
 10
78.846178
 20
166.402074
 30
0.0
 11
74.762878
 21
170.485373
 31
0.0
  0
LINE
  5
C7
100
AcDbEntity
  8
SCHRAFFUR
 62
     7
100
AcDbLine
 10
78.846178
 20
168.965397
 30
0.0
 11
75.363875
 21
172.4477
 31
0.0
  0
LINE
  5
C6
100
AcDbEntity
  8
SCHRAFFUR
 62
     7
100
AcDbLine
 10
78.846178
 20
171.528548
 30
0.0
 11
74.762878
 21
175.611848
 31
0.0
  0
LINE
  5
C5
100
AcDbEntity
  8
SCHRAFFUR
 62
     7
100
AcDbLine
 10
78.846178
 20
174.091871
 30
0.0
 11
75.101187
 21
177.836863
 31
0.0
  0
LINE
  5
C4
100
AcDbEntity
  8
SCHRAFFUR
 62
     7
100
AcDbLine
 10
78.846178
 20
176.655023
 30
0.0
 11
74.762878
 21
180.738322
 31
0.0
  0
LINE
  5
C3
100
AcDbEntity
  8
SCHRAFFUR
 62
     7
100
AcDbLine
 10
78.846178
 20
179.218174
 30
0.0
 11
74.762878
 21
183.301645
 31
0.0
  0
LINE
  5
C2
100
AcDbEntity
  8
SCHRAFFUR
 62
     7
100
AcDbLine
 10
78.846178
 20
181.781497
 30
0.0
 11
74.762878
 21
185.864796
 31
0.0
  0
LINE
  5
C1
100
AcDbEntity
  8
SCHRAFFUR
 62
     7
100
AcDbLine
 10
78.846178
 20
184.344648
 30
0.0
 11
74.762878
 21
188.427947
 31
0.0
  0
LINE
  5
C0
100
AcDbEntity
  8
SCHRAFFUR
 62
     7
100
AcDbLine
 10
78.846178
 20
186.907971
 30
0.0
 11
74.762878
 21
190.991271
 31
0.0
  0
LINE
  5
BF
100
AcDbEntity
  8
SCHRAFFUR
 62
     7
100
AcDbLine
 10
78.846178
 20
189.471122
 30
0.0
 11
75.355435
 21
192.962037
 31
0.0
  0
LINE
  5
BE
100
AcDbEntity
  8
SCHRAFFUR
 62
     7
100
AcDbLine
 10
78.846178
 20
192.034446
 30
0.0
 11
76.442362
 21
194.438089
 31
0.0
  0
LINE
  5
BC
100
AcDbEntity
  8
MITTELLINIE
  6
AI9-LType2
 62
     7
100
AcDbLine
 10
83.914086
 20
139.927376
 30
0.0
 11
83.914086
 21
157.413992
 31
0.0
  0
LINE
  5
BB
100
AcDbEntity
  8
MITTELLINIE
  6
AI9-LType2
 62
     7
100
AcDbLine
 10
119.446973
 20
140.112033
 30
0.0
 11
119.446973
 21
157.413992
 31
0.0
  0
LINE
  5
B9
100
AcDbEntity
  8
MITTELLINIE
  6
AI9-LType1
 62
     7
100
AcDbLine
 10
101.680443
 20
204.217681
 30
0.0
 11
101.680443
 21
123.007134
 31
0.0
  0
SPLINE
  5
B6
100
AcDbEntity
  8
OBJEKT
 62
     7
100
AcDbSpline
210
0.0
220
0.0
230
1.0
 70
     8
 71
     3
 72
    11
 73
     7
 74
     0
 42
0.00000001
 43
0.00000001
 40
0.0
 40
0.0
 40
0.0
 40
0.0
 40
1.0
 40
1.0
 40
1.0
 40
2.0
 40
2.0
 40
2.0
 40
2.0
 10
128.59817979600695
 20
179.64226481119789
 30
0.0
 10
128.01974826388889
 20
179.30826280381942
 30
0.0
 10
127.82131076388887
 20
178.56825629340275
 30
0.0
 10
128.15548502604165
 20
177.9896525065104
 30
0.0
 10
128.26159396701388
 20
177.80568440755206
 30
0.0
 10
128.41421169704859
 20
177.65289442274303
 30
0.0
 10
128.59817979600695
 20
177.54678548177083
 30
0.0
  0
LINE
  5
B5
100
AcDbEntity
  8
OBJEKT
 62
     7
100
AcDbLine
 10
128.59818
 20
171.49737
 30
0.0
 11
128.59818
 21
167.543606
 31
0.0
  0
SPLINE
  5
B4
100
AcDbEntity
  8
OBJEKT
 62
     7
100
AcDbSpline
210
0.0
220
0.0
230
1.0
 70
     8
 71
     3
 72
    11
 73
     7
 74
     0
 42
0.00000001
 43
0.00000001
 40
0.0
 40
0.0
 40
0.0
 40
0.0
 40
1.0
 40
1.0
 40
1.0
 40
2.0
 40
2.0
 40
2.0
 40
2.0
 10
128.59817979600695
 20
173.5930216471354
 30
0.0
 10
128.01974826388889
 20
173.25884738498263
 30
0.0
 10
127.82131076388887
 20
172.51884087456597
 30
0.0
 10
128.15548502604165
 20
171.94023708767361
 30
0.0
 10
128.26159396701388
 20
171.75626898871525
 30
0.0
 10
128.41421169704859
 20
171.60365125868054
 30
0.0
 10
128.59817979600695
 20
171.49737006293401
 30
0.0
  0
SPLINE
  5
B3
100
AcDbEntity
  8
OBJEKT
 62
     7
100
AcDbSpline
210
0.0
220
0.0
230
1.0
 70
     8
 71
     3
 72
    11
 73
     7
 74
     0
 42
0.00000001
 43
0.00000001
 40
0.0
 40
0.0
 40
0.0
 40
0.0
 40
1.0
 40
1.0
 40
1.0
 40
2.0
 40
2.0
 40
2.0
 40
2.0
 10
128.59817979600695
 20
161.4941908094618
 30
0.0
 10
128.01974826388889
 20
161.16018880208333
 30
0.0
 10
127.82131076388887
 20
160.42018229166666
 30
0.0
 10
128.15548502604165
 20
159.8415785047743
 30
0.0
 10
128.26159396701388
 20
159.65761040581594
 30
0.0
 10
128.41421169704859
 20
159.50482042100694
 30
0.0
 10
128.59817979600695
 20
159.39871148003471
 30
0.0
  0
LINE
  5
B2
100
AcDbEntity
  8
OBJEKT
 62
     7
100
AcDbLine
 10
128.59818
 20
177.546785
 30
0.0
 11
128.59818
 21
173.593022
 31
0.0
  0
SPLINE
  5
B1
100
AcDbEntity
  8
OBJEKT
 62
     7
100
AcDbSpline
210
0.0
220
0.0
230
1.0
 70
     8
 71
     3
 72
    11
 73
     7
 74
     0
 42
0.00000001
 43
0.00000001
 40
0.0
 40
0.0
 40
0.0
 40
0.0
 40
1.0
 40
1.0
 40
1.0
 40
2.0
 40
2.0
 40
2.0
 40
2.0
 10
128.59817979600695
 20
185.69168023003471
 30
0.0
 10
128.01974826388889
 20
185.35750596788193
 30
0.0
 10
127.82131076388887
 20
184.61767171223957
 30
0.0
 10
128.15548502604165
 20
184.03889567057291
 30
0.0
 10
128.26159396701388
 20
183.85509982638888
 30
0.0
 10
128.41421169704859
 20
183.70230984157985
 30
0.0
 10
128.59817979600695
 20
183.59620090060761
 30
0.0
  0
LINE
  5
B0
100
AcDbEntity
  8
OBJEKT
 62
     7
100
AcDbLine
 10
128.59818
 20
194.438089
 30
0.0
 11
128.59818
 21
193.836575
 31
0.0
  0
LINE
  5
AF
100
AcDbEntity
  8
OBJEKT
 62
     7
100
AcDbLine
 10
128.59818
 20
191.741096
 30
0.0
 11
128.59818
 21
185.69168
 31
0.0
  0
LINE
  5
AE
100
AcDbEntity
  8
OBJEKT
 62
     7
100
AcDbLine
 10
128.59818
 20
183.596201
 30
0.0
 11
128.59818
 21
179.642265
 31
0.0
  0
SPLINE
  5
AD
100
AcDbEntity
  8
OBJEKT
 62
     7
100
AcDbSpline
210
0.0
220
0.0
230
1.0
 70
     8
 71
     3
 72
    11
 73
     7
 74
     0
 42
0.00000001
 43
0.00000001
 40
0.0
 40
0.0
 40
0.0
 40
0.0
 40
1.0
 40
1.0
 40
1.0
 40
2.0
 40
2.0
 40
2.0
 40
2.0
 10
128.59817979600695
 20
167.54360622829859
 30
0.0
 10
128.01974826388889
 20
167.20943196614581
 30
0.0
 10
127.82131076388887
 20
166.46959771050345
 30
0.0
 10
128.15548502604165
 20
165.89082166883679
 30
0.0
 10
128.26159396701388
 20
165.70702582465276
 30
0.0
 10
128.41421169704859
 20
165.55423583984373
 30
0.0
 10
128.59817979600695
 20
165.44795464409719
 30
0.0
  0
LINE
  5
AC
100
AcDbEntity
  8
OBJEKT
 62
     7
100
AcDbLine
 10
128.59818
 20
165.447955
 30
0.0
 11
128.59818
 21
161.494191
 31
0.0
  0
LINE
  5
AB
100
AcDbEntity
  8
OBJEKT
 62
     7
100
AcDbLine
 10
128.59818
 20
154.209536
 30
0.0
 11
128.59818
 21
150.536892
 31
0.0
  0
LINE
  5
AA
100
AcDbEntity
  8
OBJEKT
 62
     7
100
AcDbLine
 10
128.59818
 20
159.398711
 30
0.0
 11
128.59818
 21
156.305016
 31
0.0
  0
SPLINE
  5
A9
100
AcDbEntity
  8
OBJEKT
 62
     7
100
AcDbSpline
210
0.0
220
0.0
230
1.0
 70
     8
 71
     3
 72
    11
 73
     7
 74
     0
 42
0.00000001
 43
0.00000001
 40
0.0
 40
0.0
 40
0.0
 40
0.0
 40
1.0
 40
1.0
 40
1.0
 40
2.0
 40
2.0
 40
2.0
 40
2.0
 10
128.59817979600695
 20
150.53689236111109
 30
0.0
 10
128.01974826388889
 20
150.20289035373261
 30
0.0
 10
127.82131076388887
 20
149.46288384331595
 30
0.0
 10
128.15548502604165
 20
148.88428005642359
 30
0.0
 10
128.26159396701388
 20
148.70031195746526
 30
0.0
 10
128.41421169704859
 20
148.54752197265623
 30
0.0
 10
128.59817979600695
 20
148.44141303168402
 30
0.0
  0
SPLINE
  5
A8
100
AcDbEntity
  8
OBJEKT
 62
     7
100
AcDbSpline
210
0.0
220
0.0
230
1.0
 70
     8
 71
     3
 72
    11
 73
     7
 74
     0
 42
0.00000001
 43
0.00000001
 40
0.0
 40
0.0
 40
0.0
 40
0.0
 40
1.0
 40
1.0
 40
1.0
 40
2.0
 40
2.0
 40
2.0
 40
2.0
 10
128.59817979600695
 20
156.30501573350693
 30
0.0
 10
128.01974826388889
 20
155.97101372612846
 30
0.0
 10
127.82131076388887
 20
155.2310072157118
 30
0.0
 10
128.15548502604165
 20
154.65240342881944
 30
0.0
 10
128.26159396701388
 20
154.46843532986111
 30
0.0
 10
128.41421169704859
 20
154.31564534505208
 30
0.0
 10
128.59817979600695
 20
154.20953640407984
 30
0.0
  0
SPLINE
  5
A7
100
AcDbEntity
  8
OBJEKT
 62
     7
100
AcDbSpline
210
0.0
220
0.0
230
1.0
 70
     8
 71
     3
 72
    11
 73
     7
 74
     0
 42
0.00000001
 43
0.00000001
 40
0.0
 40
0.0
 40
0.0
 40
0.0
 40
1.0
 40
1.0
 40
1.0
 40
2.0
 40
2.0
 40
2.0
 40
2.0
 10
128.59817979600695
 20
145.34754503038192
 30
0.0
 10
128.01974826388889
 20
145.01371527777778
 30
0.0
 10
127.82131076388887
 20
144.27370876736109
 30
0.0
 10
128.15548502604165
 20
143.69527723524305
 30
0.0
 10
128.26159396701388
 20
143.51130913628472
 30
0.0
 10
128.41421169704859
 20
143.35834689670136
 30
0.0
 10
128.59817979600695
 20
143.25223795572916
 30
0.0
  0
LINE
  5
A6
100
AcDbEntity
  8
OBJEKT
 62
     7
100
AcDbLine
 10
128.59818
 20
138.493872
 30
0.0
 11
128.59818
 21
143.252238
 31
0.0
  0
LINE
  5
A5
100
AcDbEntity
  8
OBJEKT
 62
     7
100
AcDbLine
 10
128.59818
 20
148.441413
 30
0.0
 11
128.59818
 21
145.347545
 31
0.0
  0
SPLINE
  5
A4
100
AcDbEntity
  8
OBJEKT
 62
     7
100
AcDbSpline
210
0.0
220
0.0
230
1.0
 70
     8
 71
     3
 72
    11
 73
     7
 74
     0
 42
0.00000001
 43
0.00000001
 40
0.0
 40
0.0
 40
0.0
 40
0.0
 40
1.0
 40
1.0
 40
1.0
 40
2.0
 40
2.0
 40
2.0
 40
2.0
 10
128.59817979600695
 20
193.83657497829859
 30
0.0
 10
128.01974826388889
 20
193.50257297092011
 30
0.0
 10
127.82131076388887
 20
192.76256646050345
 30
0.0
 10
128.15548502604165
 20
192.18396267361109
 30
0.0
 10
128.26159396701388
 20
191.99999457465276
 30
0.0
 10
128.41421169704859
 20
191.84720458984373
 30
0.0
 10
128.59817979600695
 20
191.74109564887152
 30
0.0
  0
SPLINE
  5
A3
100
AcDbEntity
  8
OBJEKT
 62
     7
100
AcDbSpline
210
0.0
220
0.0
230
1.0
 70
     8
 71
     3
 72
    11
 73
     7
 74
     0
 42
0.00000001
 43
0.00000001
 40
0.0
 40
0.0
 40
0.0
 40
0.0
 40
1.0
 40
1.0
 40
1.0
 40
2.0
 40
2.0
 40
2.0
 40
2.0
 10
74.76287841796875
 20
177.54678548177083
 30
0.0
 10
75.341654459635407
 20
177.8807874891493
 30
0.0
 10
75.539747450086793
 20
178.62079399956596
 30
0.0
 10
75.20574544270832
 20
179.19939778645832
 30
0.0
 10
75.099464246961801
 20
179.38336588541665
 30
0.0
 10
74.946846516927081
 20
179.53615587022568
 30
0.0
 10
74.76287841796875
 20
179.64226481119789
 30
0.0
  0
LINE
  5
A2
100
AcDbEntity
  8
OBJEKT
 62
     7
100
AcDbLine
 10
74.762878
 20
171.49737
 30
0.0
 11
74.762878
 21
167.543606
 31
0.0
  0
SPLINE
  5
A1
100
AcDbEntity
  8
OBJEKT
 62
     7
100
AcDbSpline
210
0.0
220
0.0
230
1.0
 70
     8
 71
     3
 72
    11
 73
     7
 74
     0
 42
0.00000001
 43
0.00000001
 40
0.0
 40
0.0
 40
0.0
 40
0.0
 40
1.0
 40
1.0
 40
1.0
 40
2.0
 40
2.0
 40
2.0
 40
2.0
 10
74.76287841796875
 20
171.49737006293401
 30
0.0
 10
75.341654459635407
 20
171.83154432508678
 30
0.0
 10
75.539747450086793
 20
172.57137858072915
 30
0.0
 10
75.20574544270832
 20
173.15015462239583
 30
0.0
 10
75.099464246961801
 20
173.33412272135416
 30
0.0
 10
74.946846516927081
 20
173.48674045138887
 30
0.0
 10
74.76287841796875
 20
173.5930216471354
 30
0.0
  0
SPLINE
  5
A0
100
AcDbEntity
  8
OBJEKT
 62
     7
100
AcDbSpline
210
0.0
220
0.0
230
1.0
 70
     8
 71
     3
 72
    11
 73
     7
 74
     0
 42
0.00000001
 43
0.00000001
 40
0.0
 40
0.0
 40
0.0
 40
0.0
 40
1.0
 40
1.0
 40
1.0
 40
2.0
 40
2.0
 40
2.0
 40
2.0
 10
74.76287841796875
 20
159.39871148003471
 30
0.0
 10
75.341654459635407
 20
159.73271348741318
 30
0.0
 10
75.539747450086793
 20
160.47271999782984
 30
0.0
 10
75.20574544270832
 20
161.0513237847222
 30
0.0
 10
75.099464246961801
 20
161.23529188368053
 30
0.0
 10
74.946846516927081
 20
161.38808186848956
 30
0.0
 10
74.76287841796875
 20
161.4941908094618
 30
0.0
  0
SPLINE
  5
9F
100
AcDbEntity
  8
OBJEKT
 62
     7
100
AcDbSpline
210
0.0
220
0.0
230
1.0
 70
     8
 71
     3
 72
    11
 73
     7
 74
     0
 42
0.00000001
 43
0.00000001
 40
0.0
 40
0.0
 40
0.0
 40
0.0
 40
1.0
 40
1.0
 40
1.0
 40
2.0
 40
2.0
 40
2.0
 40
2.0
 10
74.76287841796875
 20
183.59620090060761
 30
0.0
 10
75.341654459635407
 20
183.93020290798609
 30
0.0
 10
75.539747450086793
 20
184.67020941840275
 30
0.0
 10
75.20574544270832
 20
185.24881320529514
 30
0.0
 10
75.099464246961801
 20
185.43278130425347
 30
0.0
 10
74.946846516927081
 20
185.58557128906247
 30
0.0
 10
74.76287841796875
 20
185.69168023003471
 30
0.0
  0
LINE
  5
9E
100
AcDbEntity
  8
OBJEKT
 62
     7
100
AcDbLine
 10
74.762878
 20
177.546785
 30
0.0
 11
74.762878
 21
173.593022
 31
0.0
  0
LINE
  5
9D
100
AcDbEntity
  8
OBJEKT
 62
     7
100
AcDbLine
 10
74.762878
 20
194.438089
 30
0.0
 11
74.762878
 21
193.836575
 31
0.0
  0
LINE
  5
9C
100
AcDbEntity
  8
OBJEKT
 62
     7
100
AcDbLine
 10
74.762878
 20
191.741096
 30
0.0
 11
74.762878
 21
185.69168
 31
0.0
  0
SPLINE
  5
9B
100
AcDbEntity
  8
OBJEKT
 62
     7
100
AcDbSpline
210
0.0
220
0.0
230
1.0
 70
     8
 71
     3
 72
    11
 73
     7
 74
     0
 42
0.00000001
 43
0.00000001
 40
0.0
 40
0.0
 40
0.0
 40
0.0
 40
1.0
 40
1.0
 40
1.0
 40
2.0
 40
2.0
 40
2.0
 40
2.0
 10
74.76287841796875
 20
165.44795464409719
 30
0.0
 10
75.341654459635407
 20
165.78212890624999
 30
0.0
 10
75.539747450086793
 20
166.52213541666666
 30
0.0
 10
75.20574544270832
 20
167.10073920355902
 30
0.0
 10
75.099464246961801
 20
167.28470730251735
 30
0.0
 10
74.946846516927081
 20
167.43749728732638
 30
0.0
 10
74.76287841796875
 20
167.54360622829859
 30
0.0
  0
LINE
  5
9A
100
AcDbEntity
  8
OBJEKT
 62
     7
100
AcDbLine
 10
74.762878
 20
159.398711
 30
0.0
 11
74.762878
 21
156.305016
 31
0.0
  0
LINE
  5
99
100
AcDbEntity
  8
OBJEKT
 62
     7
100
AcDbLine
 10
74.762878
 20
183.596201
 30
0.0
 11
74.762878
 21
179.642265
 31
0.0
  0
LINE
  5
98
100
AcDbEntity
  8
OBJEKT
 62
     7
100
AcDbLine
 10
74.762878
 20
165.447955
 30
0.0
 11
74.762878
 21
161.494191
 31
0.0
  0
LINE
  5
97
100
AcDbEntity
  8
OBJEKT
 62
     7
100
AcDbLine
 10
74.762878
 20
154.209536
 30
0.0
 11
74.762878
 21
150.536892
 31
0.0
  0
SPLINE
  5
96
100
AcDbEntity
  8
OBJEKT
 62
     7
100
AcDbSpline
210
0.0
220
0.0
230
1.0
 70
     8
 71
     3
 72
    11
 73
     7
 74
     0
 42
0.00000001
 43
0.00000001
 40
0.0
 40
0.0
 40
0.0
 40
0.0
 40
1.0
 40
1.0
 40
1.0
 40
2.0
 40
2.0
 40
2.0
 40
2.0
 10
74.76287841796875
 20
148.44141303168402
 30
0.0
 10
75.341654459635407
 20
148.77541503906249
 30
0.0
 10
75.539747450086793
 20
149.51542154947916
 30
0.0
 10
75.20574544270832
 20
150.09402533637152
 30
0.0
 10
75.099464246961801
 20
150.27799343532985
 30
0.0
 10
74.946846516927081
 20
150.43078342013888
 30
0.0
 10
74.76287841796875
 20
150.53689236111109
 30
0.0
  0
SPLINE
  5
95
100
AcDbEntity
  8
OBJEKT
 62
     7
100
AcDbSpline
210
0.0
220
0.0
230
1.0
 70
     8
 71
     3
 72
    11
 73
     7
 74
     0
 42
0.00000001
 43
0.00000001
 40
0.0
 40
0.0
 40
0.0
 40
0.0
 40
1.0
 40
1.0
 40
1.0
 40
2.0
 40
2.0
 40
2.0
 40
2.0
 10
74.76287841796875
 20
143.25223795572916
 30
0.0
 10
75.341654459635407
 20
143.58641221788193
 30
0.0
 10
75.539747450086793
 20
144.32641872829859
 30
0.0
 10
75.20574544270832
 20
144.90485026041665
 30
0.0
 10
75.099464246961801
 20
145.08881835937498
 30
0.0
 10
74.946846516927081
 20
145.24143608940972
 30
0.0
 10
74.76287841796875
 20
145.34754503038192
 30
0.0
  0
SPLINE
  5
94
100
AcDbEntity
  8
OBJEKT
 62
     7
100
AcDbSpline
210
0.0
220
0.0
230
1.0
 70
     8
 71
     3
 72
    11
 73
     7
 74
     0
 42
0.00000001
 43
0.00000001
 40
0.0
 40
0.0
 40
0.0
 40
0.0
 40
1.0
 40
1.0
 40
1.0
 40
2.0
 40
2.0
 40
2.0
 40
2.0
 10
74.76287841796875
 20
154.20953640407984
 30
0.0
 10
75.341654459635407
 20
154.54371066623261
 30
0.0
 10
75.539747450086793
 20
155.28354492187498
 30
0.0
 10
75.20574544270832
 20
155.86232096354166
 30
0.0
 10
75.099464246961801
 20
156.04611680772567
 30
0.0
 10
74.946846516927081
 20
156.1989067925347
 30
0.0
 10
74.76287841796875
 20
156.30501573350693
 30
0.0
  0
LINE
  5
93
100
AcDbEntity
  8
OBJEKT
 62
     7
100
AcDbLine
 10
74.762878
 20
138.493872
 30
0.0
 11
74.762878
 21
143.252238
 31
0.0
  0
LINE
  5
92
100
AcDbEntity
  8
OBJEKT
 62
     7
100
AcDbLine
 10
74.762878
 20
148.441413
 30
0.0
 11
74.762878
 21
145.347545
 31
0.0
  0
SPLINE
  5
91
100
AcDbEntity
  8
OBJEKT
 62
     7
100
AcDbSpline
210
0.0
220
0.0
230
1.0
 70
     8
 71
     3
 72
    11
 73
     7
 74
     0
 42
0.00000001
 43
0.00000001
 40
0.0
 40
0.0
 40
0.0
 40
0.0
 40
1.0
 40
1.0
 40
1.0
 40
2.0
 40
2.0
 40
2.0
 40
2.0
 10
74.76287841796875
 20
191.74109564887152
 30
0.0
 10
75.341654459635407
 20
192.07509765624999
 30
0.0
 10
75.539747450086793
 20
192.81510416666666
 30
0.0
 10
75.20574544270832
 20
193.39370795355902
 30
0.0
 10
75.099464246961801
 20
193.57767605251735
 30
0.0
 10
74.946846516927081
 20
193.73046603732638
 30
0.0
 10
74.76287841796875
 20
193.83657497829859
 30
0.0
  0
LINE
  5
8F
100
AcDbEntity
  8
BESCHRIFTUNG
 62
     7
100
AcDbLine
 10
76.378111
 20
143.916452
 30
0.0
 11
70.628764
 21
101.397773
 31
0.0
  0
LINE
  5
8E
100
AcDbEntity
  8
BESCHRIFTUNG
 62
     7
100
AcDbLine
 10
119.446973
 20
143.981909
 30
0.0
 11
134.347355
 21
105.414754
 31
0.0
  0
LINE
  5
8C
100
AcDbEntity
  8
KOERPER
 62
     7
100
AcDbLine
 10
79.302825
 20
153.213215
 30
0.0
 11
79.302825
 21
155.039977
 31
0.0
  0
LINE
  5
8B
100
AcDbEntity
  8
KOERPER
 62
     7
100
AcDbLine
 10
124.057888
 20
155.039977
 30
0.0
 11
124.057888
 21
153.213215
 31
0.0
  0
LINE
  5
8A
100
AcDbEntity
  8
KOERPER
 62
     7
100
AcDbLine
 10
79.302825
 20
155.039977
 30
0.0
 11
124.057888
 21
155.039977
 31
0.0
  0
LINE
  5
89
100
AcDbEntity
  8
KOERPER
 62
     7
100
AcDbLine
 10
124.514708
 20
153.213215
 30
0.0
 11
78.846178
 21
153.213215
 31
0.0
  0
LINE
  5
88
100
AcDbEntity
  8
KOERPER
 62
     7
100
AcDbLine
 10
124.057888
 20
153.213215
 30
0.0
 11
79.302825
 21
153.213215
 31
0.0
  0
LINE
  5
87
100
AcDbEntity
  8
KOERPER
 62
     7
100
AcDbLine
 10
124.514708
 20
144.07975
 30
0.0
 11
124.514708
 21
153.213215
 31
0.0
  0
LINE
  5
86
100
AcDbEntity
  8
KOERPER
 62
     7
100
AcDbLine
 10
78.846178
 20
144.07975
 30
0.0
 11
124.514708
 21
144.07975
 31
0.0
  0
LINE
  5
85
100
AcDbEntity
  8
KOERPER
 62
     7
100
AcDbLine
 10
78.846178
 20
153.213215
 30
0.0
 11
78.846178
 21
144.07975
 31
0.0
  0
LINE
  5
84
100
AcDbEntity
  8
KOERPER
 62
     7
100
AcDbLine
 10
79.302825
 20
144.07975
 30
0.0
 11
124.057888
 21
144.07975
 31
0.0
  0
LINE
  5
83
100
AcDbEntity
  8
KOERPER
 62
     7
100
AcDbLine
 10
124.057888
 20
144.07975
 30
0.0
 11
124.057888
 21
142.252816
 31
0.0
  0
LINE
  5
82
100
AcDbEntity
  8
KOERPER
 62
     7
100
AcDbLine
 10
79.302825
 20
142.252816
 30
0.0
 11
79.302825
 21
144.07975
 31
0.0
  0
POLYLINE
  5
7C
100
AcDbEntity
  8
KOERPER
 62
     7
100
AcDb2dPolyline
 66
     1
 10
0.0
 20
0.0
 30
0.0
 70
     1
  0
VERTEX
  5
7D
100
AcDbEntity
  8
KOERPER
 62
     7
100
AcDbVertex
100
AcDb2dVertex
 10
81.721971
 20
155.039977
 30
0.0
  0
VERTEX
  5
7E
100
AcDbEntity
  8
KOERPER
 62
     7
100
AcDbVertex
100
AcDb2dVertex
 10
86.106028
 20
155.039977
 30
0.0
  0
VERTEX
  5
7F
100
AcDbEntity
  8
KOERPER
 62
     7
100
AcDbVertex
100
AcDb2dVertex
 10
86.106028
 20
155.496796
 30
0.0
  0
VERTEX
  5
80
100
AcDbEntity
  8
KOERPER
 62
     7
100
AcDbVertex
100
AcDb2dVertex
 10
81.721971
 20
155.496796
 30
0.0
  0
SEQEND
  5
81
100
AcDbEntity
  8
KOERPER
 62
     7
  0
POLYLINE
  5
76
100
AcDbEntity
  8
KOERPER
 62
     7
100
AcDb2dPolyline
 66
     1
 10
0.0
 20
0.0
 30
0.0
 70
     1
  0
VERTEX
  5
77
100
AcDbEntity
  8
KOERPER
 62
     7
100
AcDbVertex
100
AcDb2dVertex
 10
121.639431
 20
155.039977
 30
0.0
  0
VERTEX
  5
78
100
AcDbEntity
  8
KOERPER
 62
     7
100
AcDbVertex
100
AcDb2dVertex
 10
117.255203
 20
155.039977
 30
0.0
  0
VERTEX
  5
79
100
AcDbEntity
  8
KOERPER
 62
     7
100
AcDbVertex
100
AcDb2dVertex
 10
117.255203
 20
155.496796
 30
0.0
  0
VERTEX
  5
7A
100
AcDbEntity
  8
KOERPER
 62
     7
100
AcDbVertex
100
AcDb2dVertex
 10
121.639431
 20
155.496796
 30
0.0
  0
SEQEND
  5
7B
100
AcDbEntity
  8
KOERPER
 62
     7
  0
LINE
  5
75
100
AcDbEntity
  8
KOERPER
 62
     7
100
AcDbLine
 10
84.864415
 20
155.496796
 30
0.0
 11
82.963584
 21
155.496796
 31
0.0
  0
LINE
  5
74
100
AcDbEntity
  8
KOERPER
 62
     7
100
AcDbLine
 10
84.864415
 20
156.638501
 30
0.0
 11
82.963584
 21
156.638501
 31
0.0
  0
SPLINE
  5
73
100
AcDbEntity
  8
KOERPER
 62
     7
100
AcDbSpline
210
0.0
220
0.0
230
1.0
 70
     8
 71
     3
 72
     8
 73
     4
 74
     0
 42
0.00000001
 43
0.00000001
 40
0.0
 40
0.0
 40
0.0
 40
0.0
 40
1.0
 40
1.0
 40
1.0
 40
1.0
 10
83.280360243055554
 20
156.52980821397568
 30
0.0
 10
83.690326605902769
 20
156.67467447916664
 30
0.0
 10
84.137672254774301
 20
156.67467447916664
 30
0.0
 10
84.547638617621516
 20
156.52980821397568
 30
0.0
  0
SPLINE
  5
72
100
AcDbEntity
  8
KOERPER
 62
     7
100
AcDbSpline
210
0.0
220
0.0
230
1.0
 70
     8
 71
     3
 72
     8
 73
     4
 74
     0
 42
0.00000001
 43
0.00000001
 40
0.0
 40
0.0
 40
0.0
 40
0.0
 40
1.0
 40
1.0
 40
1.0
 40
1.0
 10
84.547638617621516
 20
155.60548909505206
 30
0.0
 10
84.137672254774301
 20
155.46045057508678
 30
0.0
 10
83.690326605902769
 20
155.46045057508678
 30
0.0
 10
83.280360243055554
 20
155.60548909505206
 30
0.0
  0
LINE
  5
71
100
AcDbEntity
  8
KOERPER
 62
     7
100
AcDbLine
 10
85.181192
 20
156.529808
 30
0.0
 11
85.181192
 21
155.605489
 31
0.0
  0
SPLINE
  5
70
100
AcDbEntity
  8
KOERPER
 62
     7
100
AcDbSpline
210
0.0
220
0.0
230
1.0
 70
     8
 71
     3
 72
     8
 73
     4
 74
     0
 42
0.00000001
 43
0.00000001
 40
0.0
 40
0.0
 40
0.0
 40
0.0
 40
1.0
 40
1.0
 40
1.0
 40
1.0
 10
84.547638617621516
 20
156.52980821397568
 30
0.0
 10
84.734018283420127
 20
156.67467447916664
 30
0.0
 10
84.994984266493049
 20
156.67467447916664
 30
0.0
 10
85.181191677517347
 20
156.52980821397568
 30
0.0
  0
LINE
  5
6F
100
AcDbEntity
  8
KOERPER
 62
     7
100
AcDbLine
 10
84.547639
 20
156.529808
 30
0.0
 11
84.547639
 21
155.605489
 31
0.0
  0
SPLINE
  5
6E
100
AcDbEntity
  8
KOERPER
 62
     7
100
AcDbSpline
210
0.0
220
0.0
230
1.0
 70
     8
 71
     3
 72
     8
 73
     4
 74
     0
 42
0.00000001
 43
0.00000001
 40
0.0
 40
0.0
 40
0.0
 40
0.0
 40
1.0
 40
1.0
 40
1.0
 40
1.0
 10
85.181191677517347
 20
155.60548909505206
 30
0.0
 10
84.994984266493049
 20
155.46045057508678
 30
0.0
 10
84.734018283420127
 20
155.46045057508678
 30
0.0
 10
84.547638617621516
 20
155.60548909505206
 30
0.0
  0
LINE
  5
6D
100
AcDbEntity
  8
KOERPER
 62
     7
100
AcDbLine
 10
83.28036
 20
156.529808
 30
0.0
 11
83.28036
 21
155.605489
 31
0.0
  0
SPLINE
  5
6C
100
AcDbEntity
  8
KOERPER
 62
     7
100
AcDbSpline
210
0.0
220
0.0
230
1.0
 70
     8
 71
     3
 72
     8
 73
     4
 74
     0
 42
0.00000001
 43
0.00000001
 40
0.0
 40
0.0
 40
0.0
 40
0.0
 40
1.0
 40
1.0
 40
1.0
 40
1.0
 10
82.64663492838541
 20
156.52980821397568
 30
0.0
 10
82.833014594184021
 20
156.67467447916664
 30
0.0
 10
83.093980577256943
 20
156.67467447916664
 30
0.0
 10
83.280360243055554
 20
156.52980821397568
 30
0.0
  0
SPLINE
  5
6B
100
AcDbEntity
  8
KOERPER
 62
     7
100
AcDbSpline
210
0.0
220
0.0
230
1.0
 70
     8
 71
     3
 72
     8
 73
     4
 74
     0
 42
0.00000001
 43
0.00000001
 40
0.0
 40
0.0
 40
0.0
 40
0.0
 40
1.0
 40
1.0
 40
1.0
 40
1.0
 10
83.280360243055554
 20
155.60548909505206
 30
0.0
 10
83.093980577256943
 20
155.46045057508678
 30
0.0
 10
82.833014594184021
 20
155.46045057508678
 30
0.0
 10
82.64663492838541
 20
155.60548909505206
 30
0.0
  0
LINE
  5
6A
100
AcDbEntity
  8
KOERPER
 62
     7
100
AcDbLine
 10
82.646635
 20
156.529808
 30
0.0
 11
82.646635
 21
155.605489
 31
0.0
  0
LINE
  5
69
100
AcDbEntity
  8
KOERPER
 62
     7
100
AcDbLine
 10
120.397819
 20
155.496796
 30
0.0
 11
118.496815
 21
155.496796
 31
0.0
  0
LINE
  5
68
100
AcDbEntity
  8
KOERPER
 62
     7
100
AcDbLine
 10
120.397819
 20
156.638501
 30
0.0
 11
118.496815
 21
156.638501
 31
0.0
  0
SPLINE
  5
67
100
AcDbEntity
  8
KOERPER
 62
     7
100
AcDbSpline
210
0.0
220
0.0
230
1.0
 70
     8
 71
     3
 72
     8
 73
     4
 74
     0
 42
0.00000001
 43
0.00000001
 40
0.0
 40
0.0
 40
0.0
 40
0.0
 40
1.0
 40
1.0
 40
1.0
 40
1.0
 10
118.81341959635415
 20
156.52980821397568
 30
0.0
 10
119.22338595920138
 20
156.67467447916664
 30
0.0
 10
119.67090386284721
 20
156.67467447916664
 30
0.0
 10
120.08087022569444
 20
156.52980821397568
 30
0.0
  0
SPLINE
  5
66
100
AcDbEntity
  8
KOERPER
 62
     7
100
AcDbSpline
210
0.0
220
0.0
230
1.0
 70
     8
 71
     3
 72
     8
 73
     4
 74
     0
 42
0.00000001
 43
0.00000001
 40
0.0
 40
0.0
 40
0.0
 40
0.0
 40
1.0
 40
1.0
 40
1.0
 40
1.0
 10
120.08087022569444
 20
155.60548909505206
 30
0.0
 10
119.67090386284721
 20
155.46045057508678
 30
0.0
 10
119.22338595920138
 20
155.46045057508678
 30
0.0
 10
118.81341959635415
 20
155.60548909505206
 30
0.0
  0
LINE
  5
65
100
AcDbEntity
  8
KOERPER
 62
     7
100
AcDbLine
 10
120.714423
 20
156.529808
 30
0.0
 11
120.714423
 21
155.605489
 31
0.0
  0
SPLINE
  5
64
100
AcDbEntity
  8
KOERPER
 62
     7
100
AcDbSpline
210
0.0
220
0.0
230
1.0
 70
     8
 71
     3
 72
     8
 73
     4
 74
     0
 42
0.00000001
 43
0.00000001
 40
0.0
 40
0.0
 40
0.0
 40
0.0
 40
1.0
 40
1.0
 40
1.0
 40
1.0
 10
120.08087022569444
 20
156.52980821397568
 30
0.0
 10
120.26690538194444
 20
156.67467447916664
 30
0.0
 10
120.52804361979166
 20
156.67467447916664
 30
0.0
 10
120.71442328559027
 20
156.52980821397568
 30
0.0
  0
LINE
  5
63
100
AcDbEntity
  8
KOERPER
 62
     7
100
AcDbLine
 10
120.08087
 20
156.529808
 30
0.0
 11
120.08087
 21
155.605489
 31
0.0
  0
SPLINE
  5
62
100
AcDbEntity
  8
KOERPER
 62
     7
100
AcDbSpline
210
0.0
220
0.0
230
1.0
 70
     8
 71
     3
 72
     8
 73
     4
 74
     0
 42
0.00000001
 43
0.00000001
 40
0.0
 40
0.0
 40
0.0
 40
0.0
 40
1.0
 40
1.0
 40
1.0
 40
1.0
 10
120.71442328559027
 20
155.60548909505206
 30
0.0
 10
120.52804361979166
 20
155.46045057508678
 30
0.0
 10
120.26690538194444
 20
155.46045057508678
 30
0.0
 10
120.08087022569444
 20
155.60548909505206
 30
0.0
  0
LINE
  5
61
100
AcDbEntity
  8
KOERPER
 62
     7
100
AcDbLine
 10
118.81342
 20
156.529808
 30
0.0
 11
118.81342
 21
155.605489
 31
0.0
  0
SPLINE
  5
60
100
AcDbEntity
  8
KOERPER
 62
     7
100
AcDbSpline
210
0.0
220
0.0
230
1.0
 70
     8
 71
     3
 72
     8
 73
     4
 74
     0
 42
0.00000001
 43
0.00000001
 40
0.0
 40
0.0
 40
0.0
 40
0.0
 40
1.0
 40
1.0
 40
1.0
 40
1.0
 10
118.17986653645832
 20
156.52980821397568
 30
0.0
 10
118.36590169270832
 20
156.67467447916664
 30
0.0
 10
118.62703993055554
 20
156.67467447916664
 30
0.0
 10
118.81341959635415
 20
156.52980821397568
 30
0.0
  0
SPLINE
  5
5F
100
AcDbEntity
  8
KOERPER
 62
     7
100
AcDbSpline
210
0.0
220
0.0
230
1.0
 70
     8
 71
     3
 72
     8
 73
     4
 74
     0
 42
0.00000001
 43
0.00000001
 40
0.0
 40
0.0
 40
0.0
 40
0.0
 40
1.0
 40
1.0
 40
1.0
 40
1.0
 10
118.81341959635415
 20
155.60548909505206
 30
0.0
 10
118.62703993055554
 20
155.46045057508678
 30
0.0
 10
118.36590169270832
 20
155.46045057508678
 30
0.0
 10
118.17986653645832
 20
155.60548909505206
 30
0.0
  0
LINE
  5
5E
100
AcDbEntity
  8
KOERPER
 62
     7
100
AcDbLine
 10
118.179867
 20
156.529808
 30
0.0
 11
118.179867
 21
155.605489
 31
0.0
  0
LINE
  5
5D
100
AcDbEntity
  8
KOERPER
 62
     7
100
AcDbLine
 10
78.846178
 20
148.646396
 30
0.0
 11
78.846178
 21
144.07975
 31
0.0
  0
LINE
  5
5C
100
AcDbEntity
  8
KOERPER
 62
     7
100
AcDbLine
 10
124.057888
 20
153.213215
 30
0.0
 11
124.057888
 21
155.039977
 31
0.0
  0
LINE
  5
5B
100
AcDbEntity
  8
KOERPER
 62
     7
100
AcDbLine
 10
124.514708
 20
153.213215
 30
0.0
 11
124.514708
 21
144.07975
 31
0.0
  0
LINE
  5
5A
100
AcDbEntity
  8
KOERPER
 62
     7
100
AcDbLine
 10
124.057888
 20
142.252816
 30
0.0
 11
124.057888
 21
144.07975
 31
0.0
  0
LINE
  5
59
100
AcDbEntity
  8
KOERPER
 62
     7
100
AcDbLine
 10
124.514708
 20
148.646396
 30
0.0
 11
124.514708
 21
144.07975
 31
0.0
  0
LINE
  5
58
100
AcDbEntity
  8
KOERPER
 62
     7
100
AcDbLine
 10
79.302825
 20
142.252816
 30
0.0
 11
124.057888
 21
142.252816
 31
0.0
  0
LINE
  5
57
100
AcDbEntity
  8
KOERPER
 62
     7
100
AcDbLine
 10
44.594694
 20
194.438089
 30
0.0
 11
89.121692
 21
194.438089
 31
0.0
  0
LINE
  5
56
100
AcDbEntity
  8
KOERPER
 62
     7
100
AcDbLine
 10
114.239366
 20
194.438089
 30
0.0
 11
158.766536
 21
194.438089
 31
0.0
  0
LINE
  5
55
100
AcDbEntity
  8
KOERPER
 62
     7
100
AcDbLine
 10
158.766536
 20
138.493872
 30
0.0
 11
114.239366
 21
138.493872
 31
0.0
  0
LINE
  5
54
100
AcDbEntity
  8
KOERPER
 62
     7
100
AcDbLine
 10
89.121692
 20
138.493872
 30
0.0
 11
44.594694
 21
138.493872
 31
0.0
  0
LINE
  5
53
100
AcDbEntity
  8
KOERPER
 62
     7
100
AcDbLine
 10
124.514708
 20
189.305069
 30
0.0
 11
124.514708
 21
138.493872
 31
0.0
  0
LINE
  5
52
100
AcDbEntity
  8
KOERPER
 62
     7
100
AcDbLine
 10
89.121692
 20
142.252816
 30
0.0
 11
89.121692
 21
127.385162
 31
0.0
  0
LINE
  5
51
100
AcDbEntity
  8
KOERPER
 62
     7
100
AcDbLine
 10
89.121692
 20
200.411712
 30
0.0
 11
89.121692
 21
155.039977
 31
0.0
  0
LINE
  5
50
100
AcDbEntity
  8
KOERPER
 62
     7
100
AcDbLine
 10
114.239366
 20
200.411712
 30
0.0
 11
114.239366
 21
155.039977
 31
0.0
  0
LINE
  5
4F
100
AcDbEntity
  8
KOERPER
 62
     7
100
AcDbLine
 10
114.239366
 20
142.252816
 30
0.0
 11
114.239366
 21
127.385162
 31
0.0
  0
SPLINE
  5
4E
100
AcDbEntity
  8
KOERPER
 62
     7
100
AcDbSpline
210
0.0
220
0.0
230
1.0
 70
     8
 71
     3
 72
     8
 73
     4
 74
     0
 42
0.00000001
 43
0.00000001
 40
0.0
 40
0.0
 40
0.0
 40
0.0
 40
1.0
 40
1.0
 40
1.0
 40
1.0
 10
104.46821424696179
 20
200.4904324001736
 30
0.0
 10
100.13083902994791
 20
201.994733344184
 30
0.0
 10
95.543349880642353
 20
202.64430609809025
 30
0.0
 10
90.958961317274301
 20
202.40314941406248
 30
0.0
  0
SPLINE
  5
4D
100
AcDbEntity
  8
KOERPER
 62
     7
100
AcDbSpline
210
0.0
220
0.0
230
1.0
 70
     8
 71
     3
 72
     8
 73
     4
 74
     0
 42
0.00000001
 43
0.00000001
 40
0.0
 40
0.0
 40
0.0
 40
0.0
 40
1.0
 40
1.0
 40
1.0
 40
1.0
 10
97.86810031467013
 20
198.89931504991318
 30
0.0
 10
100.0901869032118
 20
199.33425835503471
 30
0.0
 10
102.29211968315971
 20
199.86514756944442
 30
0.0
 10
104.46821424696179
 20
200.4904324001736
 30
0.0
  0
SPLINE
  5
4C
100
AcDbEntity
  8
KOERPER
 62
     7
100
AcDbSpline
210
0.0
220
0.0
230
1.0
 70
     8
 71
     3
 72
     8
 73
     4
 74
     0
 42
0.00000001
 43
0.00000001
 40
0.0
 40
0.0
 40
0.0
 40
0.0
 40
1.0
 40
1.0
 40
1.0
 40
1.0
 10
90.920720757378461
 20
198.42371961805554
 30
0.0
 10
93.394127061631934
 20
198.29538981119791
 30
0.0
 10
95.8735622829861
 20
198.48400878906247
 30
0.0
 10
98.299081759982627
 20
198.98492567274303
 30
0.0
  0
SPLINE
  5
4B
100
AcDbEntity
  8
KOERPER
 62
     7
100
AcDbSpline
210
0.0
220
0.0
230
1.0
 70
     8
 71
     3
 72
     8
 73
     4
 74
     0
 42
0.00000001
 43
0.00000001
 40
0.0
 40
0.0
 40
0.0
 40
0.0
 40
1.0
 40
1.0
 40
1.0
 40
1.0
 10
104.46821424696179
 20
200.4904324001736
 30
0.0
 10
100.0812296549479
 20
201.4054497612847
 30
0.0
 10
95.583140733506937
 20
201.66744927300346
 30
0.0
 10
91.119675021701383
 20
201.26799045138887
 30
0.0
  0
SPLINE
  5
4A
100
AcDbEntity
  8
KOERPER
 62
     7
100
AcDbSpline
210
0.0
220
0.0
230
1.0
 70
     8
 71
     3
 72
     8
 73
     4
 74
     0
 42
0.00000001
 43
0.00000001
 40
0.0
 40
0.0
 40
0.0
 40
0.0
 40
1.0
 40
1.0
 40
1.0
 40
1.0
 10
91.119675021701383
 20
199.55543348524304
 30
0.0
 10
95.590892198350687
 20
199.24365234374997
 30
0.0
 10
100.0839857313368
 20
199.55836181640623
 30
0.0
 10
104.46821424696179
 20
200.4904324001736
 30
0.0
  0
SPLINE
  5
49
100
AcDbEntity
  8
KOERPER
 62
     7
100
AcDbSpline
210
0.0
220
0.0
230
1.0
 70
     8
 71
     3
 72
    11
 73
     7
 74
     0
 42
0.00000001
 43
0.00000001
 40
0.0
 40
0.0
 40
0.0
 40
0.0
 40
1.0
 40
1.0
 40
1.0
 40
2.0
 40
2.0
 40
2.0
 40
2.0
 10
91.119675021701383
 20
201.26799045138887
 30
0.0
 10
90.646835666232633
 20
201.26799045138887
 30
0.0
 10
90.26339653862847
 20
200.884723578559
 30
0.0
 10
90.26339653862847
 20
200.41171196831596
 30
0.0
 10
90.26339653862847
 20
199.93887261284721
 30
0.0
 10
90.646835666232633
 20
199.55543348524304
 30
0.0
 10
91.119675021701383
 20
199.55543348524304
 30
0.0
  0
SPLINE
  5
48
100
AcDbEntity
  8
KOERPER
 62
     7
100
AcDbSpline
210
0.0
220
0.0
230
1.0
 70
     8
 71
     3
 72
    11
 73
     7
 74
     0
 42
0.00000001
 43
0.00000001
 40
0.0
 40
0.0
 40
0.0
 40
0.0
 40
1.0
 40
1.0
 40
1.0
 40
2.0
 40
2.0
 40
2.0
 40
2.0
 10
91.077472601996519
 20
202.40935058593749
 30
0.0
 10
89.97418077256944
 20
202.38592393663194
 30
0.0
 10
89.0987820095486
 20
201.47280137803818
 30
0.0
 10
89.12203640407985
 20
200.36950954861109
 30
0.0
 10
89.145118543836801
 20
199.28034261067705
 30
0.0
 10
90.036364746093739
 20
198.41045600043401
 30
0.0
 10
91.125876193576374
 20
198.41372884114583
 30
0.0
  0
SPLINE
  5
47
100
AcDbEntity
  8
KOERPER
 62
     7
100
AcDbSpline
210
0.0
220
0.0
230
1.0
 70
     8
 71
     3
 72
     8
 73
     4
 74
     0
 42
0.00000001
 43
0.00000001
 40
0.0
 40
0.0
 40
0.0
 40
0.0
 40
1.0
 40
1.0
 40
1.0
 40
1.0
 10
104.46821424696179
 20
200.4904324001736
 30
0.0
 10
106.87065158420138
 20
201.02459445529513
 30
0.0
 10
109.25638020833333
 20
201.63179253472219
 30
0.0
 10
111.62178276909721
 20
202.31133761935763
 30
0.0
  0
LINE
  5
46
100
AcDbEntity
  8
KOERPER
 62
     7
100
AcDbLine
 10
78.846178
 20
144.07975
 30
0.0
 11
124.514708
 21
144.07975
 31
0.0
  0
SPLINE
  5
45
100
AcDbEntity
  8
KOERPER
 62
     7
100
AcDbSpline
210
0.0
220
0.0
230
1.0
 70
     8
 71
     3
 72
     8
 73
     4
 74
     0
 42
0.00000001
 43
0.00000001
 40
0.0
 40
0.0
 40
0.0
 40
0.0
 40
1.0
 40
1.0
 40
1.0
 40
1.0
 10
98.892843967013874
 20
127.30661349826387
 30
0.0
 10
103.23004692925346
 20
125.80214029947915
 30
0.0
 10
107.81770833333333
 20
125.15273980034721
 30
0.0
 10
112.40209689670138
 20
125.39355197482638
 30
0.0
  0
SPLINE
  5
44
100
AcDbEntity
  8
KOERPER
 62
     7
100
AcDbSpline
210
0.0
220
0.0
230
1.0
 70
     8
 71
     3
 72
     8
 73
     4
 74
     0
 42
0.00000001
 43
0.00000001
 40
0.0
 40
0.0
 40
0.0
 40
0.0
 40
1.0
 40
1.0
 40
1.0
 40
1.0
 10
98.892843967013874
 20
127.30661349826387
 30
0.0
 10
96.490406629774299
 20
126.77227918836805
 30
0.0
 10
94.104850260416654
 20
126.16525336371527
 30
0.0
 10
91.739275444878459
 20
125.48588053385416
 30
0.0
  0
SPLINE
  5
43
100
AcDbEntity
  8
KOERPER
 62
     7
100
AcDbSpline
210
0.0
220
0.0
230
1.0
 70
     8
 71
     3
 72
     8
 73
     4
 74
     0
 42
0.00000001
 43
0.00000001
 40
0.0
 40
0.0
 40
0.0
 40
0.0
 40
1.0
 40
1.0
 40
1.0
 40
1.0
 10
113.8755642361111
 20
201.56134033203122
 30
0.0
 10
113.25337999131943
 20
202.16543782552083
 30
0.0
 10
112.37901475694443
 20
202.43398301866318
 30
0.0
 10
111.52497558593748
 20
202.28360460069442
 30
0.0
  0
LINE
  5
42
100
AcDbEntity
  8
KOERPER
 62
     7
100
AcDbLine
 10
124.057888
 20
142.252816
 30
0.0
 11
79.302825
 21
142.252816
 31
0.0
  0
SPLINE
  5
41
100
AcDbEntity
  8
KOERPER
 62
     7
100
AcDbSpline
210
0.0
220
0.0
230
1.0
 70
     8
 71
     3
 72
     8
 73
     4
 74
     0
 42
0.00000001
 43
0.00000001
 40
0.0
 40
0.0
 40
0.0
 40
0.0
 40
1.0
 40
1.0
 40
1.0
 40
1.0
 10
114.23936631944443
 20
200.41171196831596
 30
0.0
 10
114.23936631944443
 20
200.82322862413193
 30
0.0
 10
114.11258680555555
 20
201.22475450303818
 30
0.0
 10
113.8755642361111
 20
201.56134033203122
 30
0.0
  0
SPLINE
  5
40
100
AcDbEntity
  8
KOERPER
 62
     7
100
AcDbSpline
210
0.0
220
0.0
230
1.0
 70
     8
 71
     3
 72
     8
 73
     4
 74
     0
 42
0.00000001
 43
0.00000001
 40
0.0
 40
0.0
 40
0.0
 40
0.0
 40
1.0
 40
1.0
 40
1.0
 40
1.0
 10
89.121691894531239
 20
127.38516167534721
 30
0.0
 10
89.121691894531239
 20
126.97347276475693
 30
0.0
 10
89.248815917968741
 20
126.5724636501736
 30
0.0
 10
89.485493977864579
 20
126.23553331163194
 30
0.0
  0
SPLINE
  5
3F
100
AcDbEntity
  8
KOERPER
 62
     7
100
AcDbSpline
210
0.0
220
0.0
230
1.0
 70
     8
 71
     3
 72
     8
 73
     4
 74
     0
 42
0.00000001
 43
0.00000001
 40
0.0
 40
0.0
 40
0.0
 40
0.0
 40
1.0
 40
1.0
 40
1.0
 40
1.0
 10
89.485493977864579
 20
126.23553331163194
 30
0.0
 10
90.107678222656247
 20
125.63160807291665
 30
0.0
 10
90.982043457031239
 20
125.36289062499999
 30
0.0
 10
91.836082628038184
 20
125.51344129774304
 30
0.0
  0
SPLINE
  5
3E
100
AcDbEntity
  8
KOERPER
 62
     7
100
AcDbSpline
210
0.0
220
0.0
230
1.0
 70
     8
 71
     3
 72
     8
 73
     4
 74
     0
 42
0.00000001
 43
0.00000001
 40
0.0
 40
0.0
 40
0.0
 40
0.0
 40
1.0
 40
1.0
 40
1.0
 40
1.0
 10
112.24121093749999
 20
128.24126790364582
 30
0.0
 10
107.77016601562499
 20
128.55339355468749
 30
0.0
 10
103.27707248263889
 20
128.23851182725693
 30
0.0
 10
98.892843967013874
 20
127.30661349826387
 30
0.0
  0
SPLINE
  5
3D
100
AcDbEntity
  8
KOERPER
 62
     7
100
AcDbSpline
210
0.0
220
0.0
230
1.0
 70
     8
 71
     3
 72
     8
 73
     4
 74
     0
 42
0.00000001
 43
0.00000001
 40
0.0
 40
0.0
 40
0.0
 40
0.0
 40
1.0
 40
1.0
 40
1.0
 40
1.0
 10
112.44033745659721
 20
129.37332628038195
 30
0.0
 10
109.96675889756943
 20
129.50148383246525
 30
0.0
 10
107.48766818576388
 20
129.31303710937499
 30
0.0
 10
105.06214870876735
 20
128.81212022569443
 30
0.0
  0
SPLINE
  5
3C
100
AcDbEntity
  8
KOERPER
 62
     7
100
AcDbSpline
210
0.0
220
0.0
230
1.0
 70
     8
 71
     3
 72
     8
 73
     4
 74
     0
 42
0.00000001
 43
0.00000001
 40
0.0
 40
0.0
 40
0.0
 40
0.0
 40
1.0
 40
1.0
 40
1.0
 40
1.0
 10
98.892843967013874
 20
127.30661349826387
 30
0.0
 10
103.27982855902776
 20
126.39159613715276
 30
0.0
 10
107.77774522569443
 20
126.12942437065971
 30
0.0
 10
112.24121093749999
 20
126.52905544704861
 30
0.0
  0
SPLINE
  5
3B
100
AcDbEntity
  8
KOERPER
 62
     7
100
AcDbSpline
210
0.0
220
0.0
230
1.0
 70
     8
 71
     3
 72
     8
 73
     4
 74
     0
 42
0.00000001
 43
0.00000001
 40
0.0
 40
0.0
 40
0.0
 40
0.0
 40
1.0
 40
1.0
 40
1.0
 40
1.0
 10
105.49295789930555
 20
128.89755859374998
 30
0.0
 10
103.27104356553818
 20
128.46244303385416
 30
0.0
 10
101.06893853081597
 20
127.93189832899304
 30
0.0
 10
98.892843967013874
 20
127.30661349826387
 30
0.0
  0
SPLINE
  5
3A
100
AcDbEntity
  8
KOERPER
 62
     7
100
AcDbSpline
210
0.0
220
0.0
230
1.0
 70
     8
 71
     3
 72
    11
 73
     7
 74
     0
 42
0.00000001
 43
0.00000001
 40
0.0
 40
0.0
 40
0.0
 40
0.0
 40
1.0
 40
1.0
 40
1.0
 40
2.0
 40
2.0
 40
2.0
 40
2.0
 10
112.24121093749999
 20
126.52905544704861
 30
0.0
 10
112.71456705729166
 20
126.52905544704861
 30
0.0
 10
113.09766167534721
 20
126.91215006510416
 30
0.0
 10
113.09766167534721
 20
127.38516167534721
 30
0.0
 10
113.09766167534721
 20
127.85817328559027
 30
0.0
 10
112.71456705729166
 20
128.24126790364582
 30
0.0
 10
112.24121093749999
 20
128.24126790364582
 30
0.0
  0
SPLINE
  5
39
100
AcDbEntity
  8
KOERPER
 62
     7
100
AcDbSpline
210
0.0
220
0.0
230
1.0
 70
     8
 71
     3
 72
    11
 73
     7
 74
     0
 42
0.00000001
 43
0.00000001
 40
0.0
 40
0.0
 40
0.0
 40
0.0
 40
1.0
 40
1.0
 40
1.0
 40
2.0
 40
2.0
 40
2.0
 40
2.0
 10
112.28393012152777
 20
125.38769531249999
 30
0.0
 10
113.38704969618054
 20
125.41077745225694
 30
0.0
 10
114.26210394965277
 20
126.3244167751736
 30
0.0
 10
114.23867730034721
 20
127.42753634982638
 30
0.0
 10
114.21593967013888
 20
128.51687554253471
 30
0.0
 10
113.32434895833332
 20
129.38641764322915
 30
0.0
 10
112.23500976562499
 20
129.38297254774304
 30
0.0
  0
LINE
  5
38
100
AcDbEntity
  8
KOERPER
 62
     7
100
AcDbLine
 10
78.846178
 20
148.646396
 30
0.0
 11
78.846178
 21
144.07975
 31
0.0
  0
LINE
  5
37
100
AcDbEntity
  8
KOERPER
 62
     7
100
AcDbLine
 10
124.514708
 20
144.07975
 30
0.0
 11
124.514708
 21
148.646396
 31
0.0
  0
LINE
  5
36
100
AcDbEntity
  8
KOERPER
 62
     7
100
AcDbLine
 10
79.302825
 20
144.07975
 30
0.0
 11
124.057888
 21
144.07975
 31
0.0
  0
LINE
  5
35
100
AcDbEntity
  8
KOERPER
 62
     7
100
AcDbLine
 10
124.057888
 20
144.07975
 30
0.0
 11
124.057888
 21
142.252816
 31
0.0
  0
LINE
  5
34
100
AcDbEntity
  8
KOERPER
 62
     7
100
AcDbLine
 10
124.514708
 20
194.438089
 30
0.0
 11
124.514708
 21
138.493872
 31
0.0
  0
LINE
  5
33
100
AcDbEntity
  8
KOERPER
 62
     7
100
AcDbLine
 10
124.514708
 20
148.646396
 30
0.0
 11
124.514708
 21
144.07975
 31
0.0
  0
LINE
  5
32
100
AcDbEntity
  8
KOERPER
 62
     7
100
AcDbLine
 10
124.057888
 20
142.252816
 30
0.0
 11
124.057888
 21
144.07975
 31
0.0
  0
LINE
  5
31
100
AcDbEntity
  8
KOERPER
 62
     7
100
AcDbLine
 10
78.846178
 20
189.305069
 30
0.0
 11
78.846178
 21
138.493872
 31
0.0
  0
LINE
  5
30
100
AcDbEntity
  8
KOERPER
 62
     7
100
AcDbLine
 10
78.846178
 20
144.07975
 30
0.0
 11
78.846178
 21
148.646396
 31
0.0
  0
LINE
  5
2F
100
AcDbEntity
  8
KOERPER
 62
     7
100
AcDbLine
 10
78.846178
 20
194.438089
 30
0.0
 11
78.846178
 21
138.493872
 31
0.0
  0
LINE
  5
2E
100
AcDbEntity
  8
KOERPER
 62
     7
100
AcDbLine
 10
78.846178
 20
148.646396
 30
0.0
 11
78.846178
 21
144.07975
 31
0.0
  0
MTEXT
  5
2C
100
AcDbEntity
  8
TEXTE
 62
     7
100
AcDbMText
 10
44.898379
 20
102.300786
 30
0.0
 40
5.708577
 41
0.0
 71
     1
 72
     2
  1
\fArial|b0|i0;\H5.7086;\C7;\U+0046\U+0075\U+0074\U+0074\U+0065\U+0072\U+0072\U+006F\U+0068\U+0072
  7
STD
210
0.0
220
0.0
230
1.0
 73
     1
 44
1.0
  0
MTEXT
  5
2B
100
AcDbEntity
  8
TEXTE
 62
     7
100
AcDbMText
 10
120.647933
 20
85.997905
 30
0.0
 40
5.708577
 41
0.0
 71
     1
 72
     2
  1
\fArial|b0|i0;\H5.7086;\C7;\U+0033\U+0030
  7
STD
210
0.0
220
0.0
230
1.0
 73
     1
 44
1.0
  0
MTEXT
  5
2A
100
AcDbEntity
  8
TEXTE
 62
     7
100
AcDbMText
 10
120.647933
 20
95.268657
 30
0.0
 40
5.708577
 41
0.0
 71
     1
 72
     2
  1
\fArial|b0|i0;\H5.7086;\C7;\U+0053\U+0074\U+0061\U+006E\U+0064\U+0061\U+0072\U+0064
  7
STD
210
0.0
220
0.0
230
1.0
 73
     1
 44
1.0
  0
MTEXT
  5
29
100
AcDbEntity
  8
TEXTE
 62
     7
100
AcDbMText
 10
120.647933
 20
104.539409
 30
0.0
 40
5.708577
 41
0.0
 71
     1
 72
     2
  1
\fArial|b0|i0;\H5.7086;\C7;\U+0046\U+0048\U+0052\U+004B\U+002D
  7
STD
210
0.0
220
0.0
230
1.0
 73
     1
 44
1.0
  0
ENDSEC
  0
SECTION
  2
OBJECTS
  0
DICTIONARY
  5
19
100
AcDbDictionary
280
     0
281
     1
  3
ACAD_GROUP
350
1A
  3
ACAD_MLINESTYLE
350
1B
  3
ACAD_LAYOUT
350
1E
  3
ACAD_PLOTSETTINGS
350
22
  3
ACAD_PLOTSTYLENAME
350
1F
  3
ACAD_WIPEOUT_VARS
350
23
  0
DICTIONARY
  5
1A
102
{ACAD_REACTORS
330
19
102
}
100
AcDbDictionary
280
     0
281
     1
  0
DICTIONARY
  5
1B
102
{ACAD_REACTORS
330
19
102
}
100
AcDbDictionary
280
     0
281
     1
  3
Standard
350
1C
  0
MLINESTYLE
  5
1C
102
{ACAD_REACTORS
330
1B
102
}
100
AcDbMlineStyle
  2
Standard
 70
     0
  3

 62
     0
 51
90.0
 52
90.0
 71
     2
 49
0.5
 62
   256
  6
ByLayer
 49
-0.5
 62
   256
  6
ByLayer
  0
ACDBDICTIONARYWDFLT
  5
1F
102
{ACAD_REACTORS
330
19
102
}
100
AcDbDictionary
281
     1
  3
Normal
350
1D
100
AcDbDictionaryWithDefault
340
1D
  0
ACDBPLACEHOLDER
  5
1D
102
{ACAD_REACTORS
330
1F
102
}
  0
LAYOUT
  5
20
102
{ACAD_REACTORS
330
1E
102
}
100
AcDbPlotSettings
  1

  2

  4

  6

 40
0.0
 41
0.0
 42
0.0
 43
0.0
 44
0.0
 45
0.0
 46
0.0
 47
0.0
 48
0.0
 49
0.0
140
0.0
141
0.0
142
1.0
143
1.0
 70
  1024
 72
     0
 73
     0
 74
     0
  7

 75
     0
147
1.0
148
0.0
149
0.0
100
AcDbLayout
  1
Model
 70
     0
 71
     0
 10
0.0
 20
0.0
 11
0.0
 21
0.0
 12
0.0
 22
0.0
 32
0.0
 14
0.0
 24
0.0
 34
0.0
 15
0.0
 25
0.0
 35
0.0
146
0.0
 13
0.0
 23
0.0
 33
0.0
 16
0.0
 26
0.0
 36
0.0
 17
0.0
 27
0.0
 37
0.0
 76
     0
330
A
331
0
345
0
346
0
  0
LAYOUT
  5
21
102
{ACAD_REACTORS
330
1E
102
}
100
AcDbPlotSettings
  1

  2

  4

  6

 40
0.0
 41
0.0
 42
0.0
 43
0.0
 44
0.0
 45
0.0
 46
0.0
 47
0.0
 48
0.0
 49
0.0
140
0.0
141
0.0
142
1.0
143
1.0
 70
     0
 72
     0
 73
     0
 74
     0
  7

 75
     0
147
1.0
148
0.0
149
0.0
100
AcDbLayout
  1
Layout1
 70
     0
 71
     0
 10
0.0
 20
0.0
 11
0.0
 21
0.0
 12
0.0
 22
0.0
 32
0.0
 14
0.0
 24
0.0
 34
0.0
 15
0.0
 25
0.0
 35
0.0
146
0.0
 13
0.0
 23
0.0
 33
0.0
 16
0.0
 26
0.0
 36
0.0
 17
0.0
 27
0.0
 37
0.0
 76
     0
330
B
331
0
345
0
346
0
  0
DICTIONARY
  5
1E
102
{ACAD_REACTORS
330
19
102
}
100
AcDbDictionary
280
     0
281
     1
  3
Layout1
350
21
  3
Model
350
20
  0
DICTIONARY
  5
22
102
{ACAD_REACTORS
330
19
102
}
100
AcDbDictionary
280
     0
281
     1
  0
WIPEOUTVARIABLES
  5
23
100
AcDbWipeoutVariables
 70
     1
  0
ENDSEC
  0
EOF
