  0
SECTION
  2
HEADER
  9
$ACADVER
  1
AC1015
  9
$ACADMAINTVER
 70
     6
  9
$DWGCODEPAGE
  3
ANSI_932
  9
$INSBASE
 10
0.0
 20
0.0
 30
0.0
  9
$EXTMIN
 10
24.167862
 20
76.91279
 30
1.000000E+20
  9
$EXTMAX
 10
186.541241
 20
222.030031
 30
-1.000000E+20
  9
$LIMMIN
 10
24.167862
 20
76.91279
  9
$LIMMAX
 10
186.541241
 20
222.030031
  9
$ORTHOMODE
 70
     0
  9
$REGENMODE
 70
     1
  9
$FILLMODE
 70
     1
  9
$QTEXTMODE
 70
     0
  9
$MIRRTEXT
 70
     1
  9
$LTSCALE
 40
1.0
  9
$ATTMODE
 70
     1
  9
$TEXTSIZE
 40
0.2
  9
$TRACEWID
 40
0.05
  9
$TEXTSTYLE
  7
Standard
  9
$CLAYER
  8
0
  9
$CELTYPE
  6
Continuous
  9
$CECOLOR
 62
   256
  9
$CELTSCALE
 40
1.0
  9
$DISPSILH
 70
     0
  9
$DIMSCALE
 40
1.0
  9
$DIMASZ
 40
0.18
  9
$DIMEXO
 40
0.0625
  9
$DIMDLI
 40
0.38
  9
$DIMRND
 40
0.0
  9
$DIMDLE
 40
0.0
  9
$DIMEXE
 40
0.18
  9
$DIMTP
 40
0.0
  9
$DIMTM
 40
0.0
  9
$DIMTXT
 40
0.18
  9
$DIMCEN
 40
0.09
  9
$DIMTSZ
 40
0.0
  9
$DIMTOL
 70
     0
  9
$DIMLIM
 70
     0
  9
$DIMTIH
 70
     1
  9
$DIMTOH
 70
     1
  9
$DIMSE1
 70
     0
  9
$DIMSE2
 70
     0
  9
$DIMTAD
 70
     0
  9
$DIMZIN
 70
     0
  9
$DIMBLK
  1

  9
$DIMASO
 70
     1
  9
$DIMSHO
 70
     1
  9
$DIMPOST
  1

  9
$DIMAPOST
  1

  9
$DIMALT
 70
     0
  9
$DIMALTD
 70
     2
  9
$DIMALTF
 40
25.4
  9
$DIMLFAC
 40
1.0
  9
$DIMTOFL
 70
     0
  9
$DIMTVP
 40
0.0
  9
$DIMTIX
 70
     0
  9
$DIMSOXD
 70
     0
  9
$DIMSAH
 70
     0
  9
$DIMBLK1
  1

  9
$DIMBLK2
  1

  9
$DIMSTYLE
  2
Standard
  9
$DIMCLRD
 70
     0
  9
$DIMCLRE
 70
     0
  9
$DIMCLRT
 70
     0
  9
$DIMTFAC
 40
1.0
  9
$DIMGAP
 40
0.09
  9
$DIMJUST
 70
     0
  9
$DIMSD1
 70
     0
  9
$DIMSD2
 70
     0
  9
$DIMTOLJ
 70
     1
  9
$DIMTZIN
 70
     0
  9
$DIMALTZ
 70
     0
  9
$DIMALTTZ
 70
     0
  9
$DIMUPT
 70
     0
  9
$DIMDEC
 70
     4
  9
$DIMTDEC
 70
     4
  9
$DIMALTU
 70
     2
  9
$DIMALTTD
 70
     2
  9
$DIMTXSTY
  7
Standard
  9
$DIMAUNIT
 70
     0
  9
$DIMADEC
 70
     0
  9
$DIMALTRND
 40
0.0
  9
$DIMAZIN
 70
     0
  9
$DIMDSEP
 70
     0
  9
$DIMATFIT
 70
     3
  9
$DIMFRAC
 70
     0
  9
$DIMLDRBLK
  1

  9
$DIMLUNIT
 70
     2
  9
$DIMLWD
 70
     0
  9
$DIMLWE
 70
     0
  9
$DIMTMOVE
 70
     0
  9
$LUNITS
 70
     2
  9
$LUPREC
 70
     4
  9
$SKETCHINC
 40
0.1
  9
$FILLETRAD
 40
0.0
  9
$AUNITS
 70
     0
  9
$AUPREC
 70
     0
  9
$MENU
  1
acad
  9
$ELEVATION
 40
0.0
  9
$PELEVATION
 40
0.0
  9
$THICKNESS
 40
0.0
  9
$LIMCHECK
 70
     0
  9
$CHAMFERA
 40
0.0
  9
$CHAMFERB
 40
0.0
  9
$CHAMFERC
 40
0.0
  9
$CHAMFERD
 40
0.0
  9
$SKPOLY
 70
     0
  9
$TDCREATE
 40
0.000000000
  9
$TDUCREATE
 40
0.000000000
  9
$TDUPDATE
 40
0.000000000
  9
$TDUUPDATE
 40
0.000000000
  9
$TDINDWG
 40
0.0000000000
  9
$TDUSRTIMER
 40
0.0000000000
  9
$USRTIMER
 70
     1
  9
$ANGBASE
 50
0.0
  9
$ANGDIR
 70
     0
  9
$PDMODE
 70
     0
  9
$PDSIZE
 40
0.0
  9
$PLINEWID
 40
0.0
  9
$SPLFRAME
 70
     0
  9
$SPLINETYPE
 70
     6
  9
$SPLINESEGS
 70
     8
  9
$HANDSEED
  5
18C
  9
$SURFTAB1
 70
     6
  9
$SURFTAB2
 70
     6
  9
$SURFTYPE
 70
     6
  9
$SURFU
 70
     6
  9
$SURFV
 70
     6
  9
$UCSBASE
  2

  9
$UCSNAME
  2

  9
$UCSORG
 10
0.0
 20
0.0
 30
0.0
  9
$UCSXDIR
 10
1.0
 20
0.0
 30
0.0
  9
$UCSYDIR
 10
0.0
 20
1.0
 30
0.0
  9
$UCSORTHOREF
  2

  9
$UCSORTHOVIEW
 70
     0
  9
$UCSORGTOP
 10
0.0
 20
0.0
 30
0.0
  9
$UCSORGBOTTOM
 10
0.0
 20
0.0
 30
0.0
  9
$UCSORGLEFT
 10
0.0
 20
0.0
 30
0.0
  9
$UCSORGRIGHT
 10
0.0
 20
0.0
 30
0.0
  9
$UCSORGFRONT
 10
0.0
 20
0.0
 30
0.0
  9
$UCSORGBACK
 10
0.0
 20
0.0
 30
0.0
  9
$PUCSBASE
  2

  9
$PUCSNAME
  2

  9
$PUCSORG
 10
0.0
 20
0.0
 30
0.0
  9
$PUCSXDIR
 10
1.0
 20
0.0
 30
0.0
  9
$PUCSYDIR
 10
0.0
 20
1.0
 30
0.0
  9
$PUCSORTHOREF
  2

  9
$PUCSORTHOVIEW
 70
     0
  9
$PUCSORGTOP
 10
0.0
 20
0.0
 30
0.0
  9
$PUCSORGBOTTOM
 10
0.0
 20
0.0
 30
0.0
  9
$PUCSORGLEFT
 10
0.0
 20
0.0
 30
0.0
  9
$PUCSORGRIGHT
 10
0.0
 20
0.0
 30
0.0
  9
$PUCSORGFRONT
 10
0.0
 20
0.0
 30
0.0
  9
$PUCSORGBACK
 10
0.0
 20
0.0
 30
0.0
  9
$USERI1
 70
     0
  9
$USERI2
 70
     0
  9
$USERI3
 70
     0
  9
$USERI4
 70
     0
  9
$USERI5
 70
     0
  9
$USERR1
 40
0.0
  9
$USERR2
 40
0.0
  9
$USERR3
 40
0.0
  9
$USERR4
 40
0.0
  9
$USERR5
 40
0.0
  9
$WORLDVIEW
 70
     1
  9
$SHADEDGE
 70
     3
  9
$SHADEDIF
 70
    70
  9
$TILEMODE
 70
     1
  9
$MAXACTVP
 70
    16
  9
$PINSBASE
 10
0.0
 20
0.0
 30
0.0
  9
$PLIMCHECK
 70
     0
  9
$PEXTMIN
 10
1.000000E+20
 20
1.000000E+20
 30
1.000000E+20
  9
$PEXTMAX
 10
-1.000000E+20
 20
-1.000000E+20
 30
-1.000000E+20
  9
$PLIMMIN
 10
0.0
 20
0.0
  9
$PLIMMAX
 10
12.0
 20
9.0
  9
$UNITMODE
 70
     0
  9
$VISRETAIN
 70
     0
  9
$PLINEGEN
 70
     1
  9
$PSLTSCALE
 70
     0
  9
$TREEDEPTH
 70
  3020
  9
$CMLSTYLE
  2
Standard
  9
$CMLJUST
 70
     0
  9
$CMLSCALE
 40
1.0
  9
$PROXYGRAPHICS
 70
     0
  9
$MEASUREMENT
 70
     1
  9
$CELWEIGHT
370
     0
  9
$ENDCAPS
280
     0
  9
$JOINSTYLE
280
     0
  9
$LWDISPLAY
290
     0
  9
$INSUNITS
 70
     0
  9
$HYPERLINKBASE
  1

  9
$STYLESHEET
  1

  9
$XEDIT
290
     1
  9
$CEPSNTYPE
380
     0
  9
$PSTYLEMODE
290
     1
  9
$FINGERPRINTGUID
  2

  9
$VERSIONGUID
  2

  9
$EXTNAMES
290
     1
  9
$PSVPSCALE
 40
0.0
  0
ENDSEC
  0
SECTION
  2
CLASSES
  0
CLASS
  1
LWPOLYLINE
  2
AcDbPolyline
  3
AutoCAD 2000
 90
    32768
280
     0
281
     1
  0
CLASS
  1
IMAGE
  2
AcDbRasterImage
  3
ISM
 90
    32895
280
     0
281
     1
  0
CLASS
  1
OLE2FRAME
  2
AcDbOle2Frame
  3
AutoCAD 2000
 90
    32768
280
     0
281
     1
  0
CLASS
  1
HATCH
  2
AcDbHatch
  3
AutoCAD 2000
 90
        0
280
     0
281
     1
  0
CLASS
  1
DICTIONARYVAR
  2
AcDbDictionaryVar
  3
AutoCAD 2000
 90
    32768
280
     0
281
     0
  0
CLASS
  1
RASTERVARIABLES
  2
AcDbRasterVariables
  3
ISM
 90
    32768
280
     0
281
     0
  0
CLASS
  1
IMAGEDEF
  2
AcDbRasterImageDef
  3
ISM
 90
    32768
280
     0
281
     0
  0
CLASS
  1
IMAGEDEF_REACTOR
  2
AcDbRasterImageDefReactor
  3
ISM
 90
    32769
280
     0
281
     0
  0
CLASS
  1
IDBUFFER
  2
AcDbIdBuffer
  3
AutoCAD 2000
 90
    32768
280
     0
281
     0
  0
CLASS
  1
SPATIAL_FILTER
  2
AcDbSpatialFilter
  3
AutoCAD 2000
 90
    32768
280
     0
281
     0
  0
CLASS
  1
XRECORD
  2
AcDbXrecord
  3
AutoCAD 2000
 90
    32768
280
     0
281
     0
  0
CLASS
  1
SORTENTSTABLE
  2
AcDbSortentsTable
  3
AutoCAD 2000
 90
    32768
280
     0
281
     0
  0
CLASS
  1
LAYER_INDEX
  2
AcDbLayerIndex
  3
AutoCAD 2000
 90
    32768
280
     0
281
     0
  0
CLASS
  1
SPATIAL_INDEX
  2
AcDbSpatialIndex
  3
AutoCAD 2000
 90
    32768
280
     0
281
     0
  0
CLASS
  1
OBJECT_PTR
  2
CAseDLPNTableRecord
  3
"ASE-LPNTableRecord"
 90
    32769
280
     0
281
     0
  0
CLASS
  1
LAYOUT
  2
AcDbLayout
  3
AutoCAD 2000
 90
        0
280
     0
281
     0
  0
CLASS
  1
PLOTSETTINGS
  2
AcDbPlotSettings
  3
AutoCAD 2000
 90
    32768
280
     0
281
     0
  0
CLASS
  1
ACDBDICTIONARYWDFLT
  2
AcDbDictionaryWithDefault
  3
AutoCAD 2000
 90
        0
280
     0
281
     0
  0
CLASS
  1
ACDBPLACEHOLDER
  2
AcDbPlaceHolder
  3
AutoCAD 2000
 90
        0
280
     0
281
     0
  0
CLASS
  1
VBA_PROJECT
  2
AcDbVbaProject
  3
acadvba
 90
    32768
280
     0
281
     0
  0
CLASS
  1
WIPEOUT
  2
AcDbWipeout
  3
WipeOut|AutoCAD Express Tool|expresstools@autodesk.com
 90
    32895
280
     0
281
     1
  0
CLASS
  1
WIPEOUTVARIABLES
  2
AcDbWipeoutVariables
  3
WipeOut|AutoCAD Express Tool|expresstools@autodesk.com
 90
        0
280
     0
281
     0
  0
CLASS
  1
RTEXT
  2
RText
  3
RText|AutoCAD Express Tool|expresstools@autodesk.com
 90
    32768
280
     0
281
     1
  0
CLASS
  1
ARCALIGNEDTEXT
  2
AcDbArcAlignedText
  3
ATEXT|AutoCAD Express Tool|expresstools@autodesk.com
 90
    32768
280
     0
281
     1
  0
ENDSEC
  0
SECTION
  2
TABLES
  0
TABLE
  2
VPORT
  5
7
100
AcDbSymbolTable
 70
     1
  0
VPORT
  5
15
100
AcDbSymbolTableRecord
100
AcDbViewportTableRecord
  2
*ACTIVE
 70
     0
 10
0.0
 20
0.0
 11
1.0
 21
1.0
 12
6.591288
 22
4.579184
 13
0.0
 23
0.0
 14
1.0
 24
1.0
 15
0.0
 25
0.0
 16
0.0
 26
0.0
 36
1.0
 17
0.0
 27
0.0
 37
0.0
 40
9.158369
 41
0.688564
 42
50.0
 43
0.0
 44
0.0
 50
0.0
 51
0.0
 71
     0
 72
   100
 73
     1
 74
     1
 75
     0
 76
     0
 77
     0
 78
     0
281
     0
 65
     0
110
0.0
120
0.0
130
0.0
111
1.0
121
0.0
131
0.0
112
0.0
122
1.0
132
0.0
345
0
346
0
 79
     0
146
0.0
  0
ENDTAB
  0
TABLE
  2
LTYPE
  5
4
100
AcDbSymbolTable
 70
     6
  0
LTYPE
  5
11
100
AcDbSymbolTableRecord
100
AcDbLinetypeTableRecord
  2
ByBlock
 70
    64
  3

 72
    65
 73
     0
 40
0.0
  0
LTYPE
  5
12
100
AcDbSymbolTableRecord
100
AcDbLinetypeTableRecord
  2
ByLayer
 70
    64
  3

 72
    65
 73
     0
 40
0.0
  0
LTYPE
  5
13
100
AcDbSymbolTableRecord
100
AcDbLinetypeTableRecord
  2
Continuous
 70
    64
  3
Solid line
 72
    65
 73
     0
 40
0.0
  0
LTYPE
  5
99
100
AcDbSymbolTableRecord
100
AcDbLinetypeTableRecord
  2
AI9-LType1
 70
    64
  3
Illustrator Dash Style No.1
 72
    65
 73
     4
 40
9.877778
 49
4.938889
 74
     0
 49
-2.116667
 74
     0
 49
0.705556
 74
     0
 49
-2.116667
 74
     0
  0
LTYPE
  5
9C
100
AcDbSymbolTableRecord
100
AcDbLinetypeTableRecord
  2
AI9-LType2
 70
    64
  3
Illustrator Dash Style No.2
 72
    65
 73
     4
 40
14.816667
 49
8.466667
 74
     0
 49
-2.822222
 74
     0
 49
0.705556
 74
     0
 49
-2.822222
 74
     0
  0
LTYPE
  5
F8
100
AcDbSymbolTableRecord
100
AcDbLinetypeTableRecord
  2
AI9-LType3
 70
    64
  3
Illustrator Dash Style No.3
 72
    65
 73
     6
 40
17.638889
 49
8.466667
 74
     0
 49
-2.822222
 74
     0
 49
0.705556
 74
     0
 49
-2.116667
 74
     0
 49
0.705556
 74
     0
 49
-2.822222
 74
     0
  0
ENDTAB
  0
TABLE
  2
LAYER
  5
2
100
AcDbSymbolTable
 70
    12
  0
LAYER
  5
14
100
AcDbSymbolTableRecord
100
AcDbLayerTableRecord
  2
0
 70
     0
 62
     7
  6
Continuous
290
     1
370
    -3
390
1D
  0
LAYER
  5
28
100
AcDbSymbolTableRecord
100
AcDbLayerTableRecord
  2
0
 70
     0
 62
     1
  6
Continuous
290
     1
370
    -3
390
1D
  0
LAYER
  5
36
100
AcDbSymbolTableRecord
100
AcDbLayerTableRecord
  2
TEXT
 70
     0
 62
     1
  6
Continuous
290
     1
370
    -3
390
1D
  0
LAYER
  5
48
100
AcDbSymbolTableRecord
100
AcDbLayerTableRecord
  2
SCHRAUBE
 70
     0
 62
     1
  6
Continuous
290
     1
370
    -3
390
1D
  0
LAYER
  5
6D
100
AcDbSymbolTableRecord
100
AcDbLayerTableRecord
  2
AM_0
 70
     0
 62
   160
  6
Continuous
290
     1
370
    -3
390
1D
  0
LAYER
  5
94
100
AcDbSymbolTableRecord
100
AcDbLayerTableRecord
  2
AM_8
 70
     0
 62
     7
  6
Continuous
290
     1
370
    -3
390
1D
  0
LAYER
  5
98
100
AcDbSymbolTableRecord
100
AcDbLayerTableRecord
  2
MITTELLINIE
 70
     0
 62
   253
  6
Continuous
290
     1
370
    -3
390
1D
  0
LAYER
  5
9E
100
AcDbSymbolTableRecord
100
AcDbLayerTableRecord
  2
SCHRAFFUR
 70
     0
 62
     4
  6
Continuous
290
     1
370
    -3
390
1D
  0
LAYER
  5
F2
100
AcDbSymbolTableRecord
100
AcDbLayerTableRecord
  2
EBENE_1
 70
     0
 62
     6
  6
Continuous
290
     1
370
    -3
390
1D
  0
LAYER
  5
F7
100
AcDbSymbolTableRecord
100
AcDbLayerTableRecord
  2
GETRENNT
 70
     0
 62
     2
  6
Continuous
290
     1
370
    -3
390
1D
  0
LAYER
  5
FB
100
AcDbSymbolTableRecord
100
AcDbLayerTableRecord
  2
ROHR
 70
     0
 62
     1
  6
Continuous
290
     1
370
    -3
390
1D
  0
LAYER
  5
176
100
AcDbSymbolTableRecord
100
AcDbLayerTableRecord
  2
OBJEKT
 70
     0
 62
   160
  6
Continuous
290
     1
370
    -3
390
1D
  0
ENDTAB
  0
TABLE
  2
STYLE
  5
3
100
AcDbSymbolTable
 70
     5
  0
STYLE
  5
17
100
AcDbSymbolTableRecord
100
AcDbTextStyleTableRecord
  2
Standard
 70
     0
 40
0.0
 41
1.0
 50
0.0
 71
     0
 42
0.0
  3
txt
  4

  0
STYLE
  5
24
100
AcDbSymbolTableRecord
100
AcDbTextStyleTableRecord
  2
STD
 70
     0
 40
0.0
 41
1.0
 50
0.0
 71
     0
 42
0.0
  3
txt
  4

  0
STYLE
  5
25
100
AcDbSymbolTableRecord
100
AcDbTextStyleTableRecord
  2
TATESTD
 70
     4
 40
0.0
 41
1.0
 50
0.0
 71
     0
 42
0.0
  3
txt
  4

  0
STYLE
  5
26
100
AcDbSymbolTableRecord
100
AcDbTextStyleTableRecord
  2
KANJISTD
 70
     0
 40
0.0
 41
1.0
 50
0.0
 71
     0
 42
0.0
  3
txt
  4
extfont
  0
STYLE
  5
27
100
AcDbSymbolTableRecord
100
AcDbTextStyleTableRecord
  2
KANJITATE
 70
     4
 40
0.0
 41
1.0
 50
0.0
 71
     0
 42
0.0
  3
txt
  4
extfont
  0
ENDTAB
  0
TABLE
  2
VIEW
  5
5
100
AcDbSymbolTable
 70
     0
  0
ENDTAB
  0
TABLE
  2
UCS
  5
6
100
AcDbSymbolTable
 70
     0
  0
ENDTAB
  0
TABLE
  2
APPID
  5
8
100
AcDbSymbolTable
 70
     1
  0
APPID
  5
16
100
AcDbSymbolTableRecord
100
AcDbRegAppTableRecord
  2
ACAD
 70
     0
  0
ENDTAB
  0
TABLE
  2
DIMSTYLE
  5
9
100
AcDbSymbolTable
 70
     1
100
AcDbDimStyleTable
 71
     0
  0
DIMSTYLE
105
18
100
AcDbSymbolTableRecord
100
AcDbDimStyleTableRecord
  2
Standard
 70
     0
  3

  4

 40
1.0
 41
0.18
 42
0.0625
 43
0.38
 44
0.18
 45
0.0
 46
0.0
 47
0.0
 48
0.0
 71
     0
 72
     0
 73
     1
 74
     1
 75
     0
 76
     0
 77
     0
 78
     0
 79
     0
140
0.18
141
0.09
142
0.0
143
25.4
144
1.0
145
0.0
146
1.0
147
0.09
148
0.0
170
     0
171
     2
172
     0
173
     0
174
     0
175
     0
176
     0
177
     0
178
     0
179
     0
271
     4
272
     4
273
     2
274
     2
275
     0
276
     0
277
     2
278
    46
279
     0
280
     0
281
     0
282
     0
283
     1
284
     0
285
     0
286
     0
288
     0
340
17
341
0
342
0
343
0
344
0
371
    -2
372
    -2
  0
ENDTAB
  0
TABLE
  2
BLOCK_RECORD
  5
1
100
AcDbSymbolTable
 70
     2
  0
BLOCK_RECORD
  5
A
100
AcDbSymbolTableRecord
100
AcDbBlockTableRecord
  2
*MODEL_SPACE
340
20
  0
BLOCK_RECORD
  5
B
100
AcDbSymbolTableRecord
100
AcDbBlockTableRecord
  2
*PAPER_SPACE
340
21
  0
BLOCK_RECORD
  5
37
100
AcDbSymbolTableRecord
100
AcDbBlockTableRecord
  2
AI9-BLK1
340
0
102
{BLKREFS
331
38
102
}
  0
BLOCK_RECORD
  5
3D
100
AcDbSymbolTableRecord
100
AcDbBlockTableRecord
  2
AI9-BLK2
340
0
102
{BLKREFS
331
3E
102
}
  0
ENDTAB
  0
ENDSEC
  0
SECTION
  2
BLOCKS
  0
BLOCK
  5
D
100
AcDbEntity
  8
0
100
AcDbBlockBegin
  2
*MODEL_SPACE
 70
     0
 10
0.0
 20
0.0
 30
0.0
  3
*MODEL_SPACE
  1

  0
ENDBLK
  5
E
100
AcDbEntity
  8
0
100
AcDbBlockEnd
  0
BLOCK
  5
F
100
AcDbEntity
 67
     1
  8
0
100
AcDbBlockBegin
  2
*PAPER_SPACE
 70
     0
 10
0.0
 20
0.0
 30
0.0
  3
*PAPER_SPACE
  1

  0
ENDBLK
  5
10
100
AcDbEntity
 67
     1
  8
0
100
AcDbBlockEnd
  0
BLOCK
  5
39
100
AcDbEntity
  8
TEXT
 62
     7
100
AcDbBlockBegin
  2
AI9-BLK1
 70
     0
 10
0.0
 20
0.0
 30
0.0
  3
AI9-BLK1
  1

  0
MTEXT
  5
3B
100
AcDbEntity
  8
TEXT
 62
     7
100
AcDbMText
 10
-25.472864
 20
1.249536
 30
0.0
 40
5.512152
 41
0.0
 71
     1
 72
     2
  1
\fArial|b0|i0;\H5.5122;\C7;\U+0061\U+0062\U+0064\U+0069\U+0063\U+0068\U+0074\U+0075\U+006E\U+0067
  7
STD
210
0.0
220
0.0
230
1.0
 73
     1
 44
1.0
  0
MTEXT
  5
3A
100
AcDbEntity
  8
TEXT
 62
     7
100
AcDbMText
 10
-25.472864
 20
8.657869
 30
0.0
 40
5.512152
 41
0.0
 71
     1
 72
     2
  1
\fArial|b0|i0;\H5.5122;\C7;\U+0041\U+0075\U+00DF\U+0065\U+006E\U+002D
  7
STD
210
0.0
220
0.0
230
1.0
 73
     1
 44
1.0
  0
ENDBLK
  5
3C
100
AcDbEntity
  8
TEXT
100
AcDbBlockEnd
  0
BLOCK
  5
3F
100
AcDbEntity
  8
TEXT
 62
     7
100
AcDbBlockBegin
  2
AI9-BLK2
 70
     0
 10
0.0
 20
0.0
 30
0.0
  3
AI9-BLK2
  1

  0
MTEXT
  5
42
100
AcDbEntity
  8
TEXT
 62
     7
100
AcDbMText
 10
-16.352404
 20
-3.617695
 30
0.0
 40
5.512152
 41
0.0
 71
     1
 72
     2
  1
\fArial|b0|i0;\H5.5122;\C7;\U+0032\U+0030
  7
STD
210
0.0
220
0.0
230
1.0
 73
     1
 44
1.0
  0
MTEXT
  5
41
100
AcDbEntity
  8
TEXT
 62
     7
100
AcDbMText
 10
-16.352404
 20
3.790638
 30
0.0
 40
5.512152
 41
0.0
 71
     1
 72
     2
  1
\fArial|b0|i0;\H5.5122;\C7;\U+0053\U+0074\U+0061\U+006E\U+0064\U+0061\U+0072\U+0064\U+0020
  7
STD
210
0.0
220
0.0
230
1.0
 73
     1
 44
1.0
  0
MTEXT
  5
40
100
AcDbEntity
  8
TEXT
 62
     7
100
AcDbMText
 10
-16.352404
 20
11.199144
 30
0.0
 40
5.512152
 41
0.0
 71
     1
 72
     2
  1
\fArial|b0|i0;\H5.5122;\C7;\U+0046\U+0048\U+0052\U+004B\U+002D
  7
STD
210
0.0
220
0.0
230
1.0
 73
     1
 44
1.0
  0
ENDBLK
  5
43
100
AcDbEntity
  8
TEXT
100
AcDbBlockEnd
  0
ENDSEC
  0
SECTION
  2
ENTITIES
  0
LINE
  5
18B
100
AcDbEntity
  8
OBJEKT
 62
     7
100
AcDbLine
 10
160.395033
 20
212.689343
 30
0.0
 11
160.395033
 21
176.689301
 31
0.0
  0
LINE
  5
18A
100
AcDbEntity
  8
OBJEKT
 62
     7
100
AcDbLine
 10
160.395033
 20
180.289426
 30
0.0
 11
106.395228
 21
180.289426
 31
0.0
  0
LINE
  5
189
100
AcDbEntity
  8
OBJEKT
 62
     7
100
AcDbLine
 10
160.395033
 20
128.689475
 30
0.0
 11
100.394906
 21
128.689475
 31
0.0
  0
LINE
  5
188
100
AcDbEntity
  8
OBJEKT
 62
     7
100
AcDbLine
 10
160.395033
 20
125.08935
 30
0.0
 11
106.395228
 21
125.08935
 31
0.0
  0
LINE
  5
187
100
AcDbEntity
  8
OBJEKT
 62
     7
100
AcDbLine
 10
160.395033
 20
176.689301
 30
0.0
 11
160.395033
 21
165.889271
 31
0.0
  0
LINE
  5
186
100
AcDbEntity
  8
OBJEKT
 62
     7
100
AcDbLine
 10
160.395033
 20
139.489505
 30
0.0
 11
160.395033
 21
128.689475
 31
0.0
  0
LINE
  5
185
100
AcDbEntity
  8
OBJEKT
 62
     7
100
AcDbLine
 10
106.395228
 20
104.089426
 30
0.0
 11
106.395228
 21
139.489505
 31
0.0
  0
LINE
  5
184
100
AcDbEntity
  8
OBJEKT
 62
     7
100
AcDbLine
 10
106.395228
 20
165.889271
 30
0.0
 11
106.395228
 21
201.28935
 31
0.0
  0
LINE
  5
183
100
AcDbEntity
  8
OBJEKT
 62
     7
100
AcDbLine
 10
160.395033
 20
176.929424
 30
0.0
 11
100.394906
 21
176.929424
 31
0.0
  0
LINE
  5
182
100
AcDbEntity
  8
OBJEKT
 62
     7
100
AcDbLine
 10
116.340875
 20
176.329289
 30
0.0
 11
116.340875
 21
129.289266
 31
0.0
  0
LINE
  5
181
100
AcDbEntity
  8
OBJEKT
 62
     7
100
AcDbLine
 10
107.700575
 20
129.289266
 30
0.0
 11
107.700575
 21
176.329289
 31
0.0
  0
LINE
  5
180
100
AcDbEntity
  8
OBJEKT
 62
     7
100
AcDbLine
 10
166.503187
 20
165.889271
 30
0.0
 11
116.340875
 21
165.889271
 31
0.0
  0
LINE
  5
17F
100
AcDbEntity
  8
OBJEKT
 62
     7
100
AcDbLine
 10
107.700575
 20
165.889271
 30
0.0
 11
93.930356
 21
165.889271
 31
0.0
  0
LINE
  5
17E
100
AcDbEntity
  8
OBJEKT
 62
     7
100
AcDbLine
 10
166.503187
 20
139.489505
 30
0.0
 11
116.340875
 21
139.489505
 31
0.0
  0
LINE
  5
17D
100
AcDbEntity
  8
OBJEKT
 62
     7
100
AcDbLine
 10
107.700575
 20
139.489505
 30
0.0
 11
93.930356
 21
139.489505
 31
0.0
  0
SPLINE
  5
17C
100
AcDbEntity
  8
OBJEKT
 62
     7
100
AcDbSpline
210
0.0
220
0.0
230
1.0
 70
     8
 71
     3
 72
     8
 73
     4
 74
     0
 42
0.00000001
 43
0.00000001
 40
0.0
 40
0.0
 40
0.0
 40
0.0
 40
1.0
 40
1.0
 40
1.0
 40
1.0
 10
166.5858696831597
 20
149.75933430989582
 30
0.0
 10
167.14707573784722
 20
147.23407931857636
 30
0.0
 10
167.78545193142361
 20
144.7267388237847
 30
0.0
 10
168.49927571614583
 20
142.24075792100695
 30
0.0
  0
SPLINE
  5
17B
100
AcDbEntity
  8
OBJEKT
 62
     7
100
AcDbSpline
210
0.0
220
0.0
230
1.0
 70
     8
 71
     3
 72
     8
 73
     4
 74
     0
 42
0.00000001
 43
0.00000001
 40
0.0
 40
0.0
 40
0.0
 40
0.0
 40
1.0
 40
1.0
 40
1.0
 40
1.0
 10
93.847673882378459
 20
155.61926947699652
 30
0.0
 10
93.286123318142359
 20
158.14435221354165
 30
0.0
 10
92.648091634114579
 20
160.65169270833331
 30
0.0
 10
91.934095594618043
 20
163.13801812065969
 30
0.0
  0
SPLINE
  5
17A
100
AcDbEntity
  8
OBJEKT
 62
     7
100
AcDbSpline
210
0.0
220
0.0
230
1.0
 70
     8
 71
     3
 72
     8
 73
     4
 74
     0
 42
0.00000001
 43
0.00000001
 40
0.0
 40
0.0
 40
0.0
 40
0.0
 40
1.0
 40
1.0
 40
1.0
 40
1.0
 10
167.71138237847219
 20
139.87156575520831
 30
0.0
 10
168.34596896701387
 20
140.52578938802083
 30
0.0
 10
168.62846679687499
 20
141.44459635416666
 30
0.0
 10
168.47033691406247
 20
142.34238823784722
 30
0.0
  0
SPLINE
  5
179
100
AcDbEntity
  8
OBJEKT
 62
     7
100
AcDbSpline
210
0.0
220
0.0
230
1.0
 70
     8
 71
     3
 72
     8
 73
     4
 74
     0
 42
0.00000001
 43
0.00000001
 40
0.0
 40
0.0
 40
0.0
 40
0.0
 40
1.0
 40
1.0
 40
1.0
 40
1.0
 10
166.50318739149304
 20
139.48950466579859
 30
0.0
 10
166.93554687499997
 20
139.48950466579859
 30
0.0
 10
167.35757107204859
 20
139.62282986111109
 30
0.0
 10
167.71138237847219
 20
139.87156575520831
 30
0.0
  0
SPLINE
  5
178
100
AcDbEntity
  8
OBJEKT
 62
     7
100
AcDbSpline
210
0.0
220
0.0
230
1.0
 70
     8
 71
     3
 72
     8
 73
     4
 74
     0
 42
0.00000001
 43
0.00000001
 40
0.0
 40
0.0
 40
0.0
 40
0.0
 40
1.0
 40
1.0
 40
1.0
 40
1.0
 10
93.93035617404513
 20
165.88927137586805
 30
0.0
 10
93.497824435763874
 20
165.88927137586805
 30
0.0
 10
93.075800238715274
 20
165.75594618055555
 30
0.0
 10
92.721988932291652
 20
165.50686577690971
 30
0.0
  0
SPLINE
  5
177
100
AcDbEntity
  8
OBJEKT
 62
     7
100
AcDbSpline
210
0.0
220
0.0
230
1.0
 70
     8
 71
     3
 72
     8
 73
     4
 74
     0
 42
0.00000001
 43
0.00000001
 40
0.0
 40
0.0
 40
0.0
 40
0.0
 40
1.0
 40
1.0
 40
1.0
 40
1.0
 10
92.721988932291652
 20
165.50686577690971
 30
0.0
 10
92.087230088975687
 20
164.85298665364581
 30
0.0
 10
91.804904513888886
 20
163.93400743272568
 30
0.0
 10
91.963034396701374
 20
163.03638780381942
 30
0.0
  0
LINE
  5
175
100
AcDbEntity
  8
ROHR
 62
     7
100
AcDbLine
 10
167.429229
 20
155.604111
 30
0.0
 11
168.218845
 21
156.393727
 31
0.0
  0
LINE
  5
174
100
AcDbEntity
  8
ROHR
 62
     7
100
AcDbLine
 10
165.080363
 20
155.907279
 30
0.0
 11
165.628133
 21
156.454877
 31
0.0
  0
LINE
  5
173
100
AcDbEntity
  8
ROHR
 62
     7
100
AcDbLine
 10
164.992169
 20
156.340845
 30
0.0
 11
165.592993
 21
156.942014
 31
0.0
  0
LINE
  5
172
100
AcDbEntity
  8
ROHR
 62
     7
100
AcDbLine
 10
167.473326
 20
156.178753
 30
0.0
 11
168.308073
 21
157.0135
 31
0.0
  0
LINE
  5
171
100
AcDbEntity
  8
ROHR
 62
     7
100
AcDbLine
 10
165.172347
 20
155.468547
 30
0.0
 11
165.668096
 21
155.964468
 31
0.0
  0
LINE
  5
170
100
AcDbEntity
  8
ROHR
 62
     7
100
AcDbLine
 10
166.427395
 20
150.359642
 30
0.0
 11
166.46288
 21
150.395643
 31
0.0
  0
LINE
  5
16F
100
AcDbEntity
  8
ROHR
 62
     7
100
AcDbLine
 10
166.634446
 20
150.03632
 30
0.0
 11
166.683366
 21
150.08524
 31
0.0
  0
LINE
  5
16E
100
AcDbEntity
  8
ROHR
 62
     7
100
AcDbLine
 10
166.544184
 20
149.946231
 30
0.0
 11
166.553141
 21
149.95536
 31
0.0
  0
LINE
  5
16D
100
AcDbEntity
  8
ROHR
 62
     7
100
AcDbLine
 10
167.316919
 20
154.431401
 30
0.0
 11
168.000426
 21
155.114735
 31
0.0
  0
LINE
  5
16C
100
AcDbEntity
  8
ROHR
 62
     7
100
AcDbLine
 10
167.376864
 20
155.021718
 30
0.0
 11
168.116526
 21
155.761035
 31
0.0
  0
LINE
  5
16B
100
AcDbEntity
  8
ROHR
 62
     7
100
AcDbLine
 10
165.661206
 20
153.30606
 30
0.0
 11
165.931646
 21
153.576328
 31
0.0
  0
LINE
  5
16A
100
AcDbEntity
  8
ROHR
 62
     7
100
AcDbLine
 10
167.171191
 20
153.224928
 30
0.0
 11
167.722407
 21
153.775971
 31
0.0
  0
LINE
  5
169
100
AcDbEntity
  8
ROHR
 62
     7
100
AcDbLine
 10
166.312329
 20
150.774948
 30
0.0
 11
166.376408
 21
150.839027
 31
0.0
  0
LINE
  5
168
100
AcDbEntity
  8
ROHR
 62
     7
100
AcDbLine
 10
166.19933
 20
151.192322
 30
0.0
 11
166.293381
 21
151.286201
 31
0.0
  0
LINE
  5
167
100
AcDbEntity
  8
ROHR
 62
     7
100
AcDbLine
 10
165.978499
 20
152.032064
 30
0.0
 11
166.137663
 21
152.191055
 31
0.0
  0
LINE
  5
166
100
AcDbEntity
  8
ROHR
 62
     7
100
AcDbLine
 10
165.871012
 20
152.454777
 30
0.0
 11
166.065316
 21
152.64908
 31
0.0
  0
LINE
  5
165
100
AcDbEntity
  8
ROHR
 62
     7
100
AcDbLine
 10
165.765248
 20
152.879557
 30
0.0
 11
165.996414
 21
153.110723
 31
0.0
  0
LINE
  5
164
100
AcDbEntity
  8
ROHR
 62
     7
100
AcDbLine
 10
166.088053
 20
151.611245
 30
0.0
 11
166.213799
 21
151.736819
 31
0.0
  0
LINE
  5
163
100
AcDbEntity
  8
ROHR
 62
     7
100
AcDbLine
 10
166.763981
 20
150.696056
 30
0.0
 11
166.939336
 21
150.871583
 31
0.0
  0
LINE
  5
162
100
AcDbEntity
  8
ROHR
 62
     7
100
AcDbLine
 10
167.084375
 20
152.607912
 30
0.0
 11
167.557731
 21
153.081095
 31
0.0
  0
LINE
  5
161
100
AcDbEntity
  8
ROHR
 62
     7
100
AcDbLine
 10
166.987912
 20
151.981249
 30
0.0
 11
167.373763
 21
152.366755
 31
0.0
  0
LINE
  5
160
100
AcDbEntity
  8
ROHR
 62
     7
100
AcDbLine
 10
166.881459
 20
151.344078
 30
0.0
 11
167.168435
 21
151.631055
 31
0.0
  0
LINE
  5
15F
100
AcDbEntity
  8
ROHR
 62
     7
100
AcDbLine
 10
165.559576
 20
153.73463
 30
0.0
 11
165.871012
 21
154.045722
 31
0.0
  0
LINE
  5
15E
100
AcDbEntity
  8
ROHR
 62
     7
100
AcDbLine
 10
165.459668
 20
154.165267
 30
0.0
 11
165.813824
 21
154.51925
 31
0.0
  0
LINE
  5
15D
100
AcDbEntity
  8
ROHR
 62
     7
100
AcDbLine
 10
165.362172
 20
154.597799
 30
0.0
 11
165.761114
 21
154.996741
 31
0.0
  0
LINE
  5
15C
100
AcDbEntity
  8
ROHR
 62
     7
100
AcDbLine
 10
165.266054
 20
155.032225
 30
0.0
 11
165.712538
 21
155.478537
 31
0.0
  0
LINE
  5
15B
100
AcDbEntity
  8
ROHR
 62
     7
100
AcDbLine
 10
167.248362
 20
153.832471
 30
0.0
 11
167.869512
 21
154.453449
 31
0.0
  0
LINE
  5
15A
100
AcDbEntity
  8
ROHR
 62
     7
100
AcDbLine
 10
164.466447
 20
160.066199
 30
0.0
 11
165.48654
 21
161.086292
 31
0.0
  0
LINE
  5
159
100
AcDbEntity
  8
ROHR
 62
     7
100
AcDbLine
 10
164.508822
 20
159.578201
 30
0.0
 11
165.481028
 21
160.550407
 31
0.0
  0
LINE
  5
158
100
AcDbEntity
  8
ROHR
 62
     7
100
AcDbLine
 10
164.558431
 20
159.097266
 30
0.0
 11
165.481372
 21
160.020551
 31
0.0
  0
LINE
  5
157
100
AcDbEntity
  8
ROHR
 62
     7
100
AcDbLine
 10
164.614586
 20
158.62322
 30
0.0
 11
165.487229
 21
159.495863
 31
0.0
  0
LINE
  5
156
100
AcDbEntity
  8
ROHR
 62
     7
100
AcDbLine
 10
164.677287
 20
158.155721
 30
0.0
 11
165.498598
 21
158.976687
 31
0.0
  0
LINE
  5
155
100
AcDbEntity
  8
ROHR
 62
     7
100
AcDbLine
 10
164.746533
 20
157.694595
 30
0.0
 11
165.514445
 21
158.462507
 31
0.0
  0
LINE
  5
154
100
AcDbEntity
  8
ROHR
 62
     7
100
AcDbLine
 10
164.821981
 20
157.23967
 30
0.0
 11
165.535805
 21
157.953494
 31
0.0
  0
LINE
  5
153
100
AcDbEntity
  8
ROHR
 62
     7
100
AcDbLine
 10
164.90363
 20
156.790774
 30
0.0
 11
165.561643
 21
157.449132
 31
0.0
  0
LINE
  5
152
100
AcDbEntity
  8
ROHR
 62
     7
100
AcDbLine
 10
164.455767
 20
164.298154
 30
0.0
 11
166.036032
 21
165.878075
 31
0.0
  0
LINE
  5
151
100
AcDbEntity
  8
ROHR
 62
     7
100
AcDbLine
 10
164.398234
 20
163.710248
 30
0.0
 11
166.615842
 21
165.927684
 31
0.0
  0
LINE
  5
150
100
AcDbEntity
  8
ROHR
 62
     7
100
AcDbLine
 10
164.380664
 20
163.162306
 30
0.0
 11
167.070595
 21
165.852409
 31
0.0
  0
LINE
  5
14F
100
AcDbEntity
  8
ROHR
 62
     7
100
AcDbLine
 10
164.373085
 20
162.624354
 30
0.0
 11
165.603328
 21
163.85477
 31
0.0
  0
LINE
  5
14E
100
AcDbEntity
  8
ROHR
 62
     7
100
AcDbLine
 10
164.374807
 20
162.095704
 30
0.0
 11
165.568188
 21
163.289258
 31
0.0
  0
LINE
  5
14D
100
AcDbEntity
  8
ROHR
 62
     7
100
AcDbLine
 10
164.385487
 20
161.576012
 30
0.0
 11
165.538216
 21
162.729085
 31
0.0
  0
LINE
  5
14C
100
AcDbEntity
  8
ROHR
 62
     7
100
AcDbLine
 10
164.404435
 20
161.06476
 30
0.0
 11
165.515134
 21
162.175286
 31
0.0
  0
LINE
  5
14B
100
AcDbEntity
  8
ROHR
 62
     7
100
AcDbLine
 10
164.431651
 20
160.561603
 30
0.0
 11
165.497564
 21
161.627861
 31
0.0
  0
LINE
  5
14A
100
AcDbEntity
  8
ROHR
 62
     7
100
AcDbLine
 10
167.528448
 20
162.067282
 30
0.0
 11
168.630534
 21
163.169713
 31
0.0
  0
LINE
  5
149
100
AcDbEntity
  8
ROHR
 62
     7
100
AcDbLine
 10
167.552219
 20
161.560681
 30
0.0
 11
168.642936
 21
162.651571
 31
0.0
  0
LINE
  5
148
100
AcDbEntity
  8
ROHR
 62
     7
100
AcDbLine
 10
167.591493
 20
160.009182
 30
0.0
 11
168.634668
 21
161.05253
 31
0.0
  0
LINE
  5
147
100
AcDbEntity
  8
ROHR
 62
     7
100
AcDbLine
 10
167.59356
 20
159.480705
 30
0.0
 11
168.616409
 21
160.503554
 31
0.0
  0
LINE
  5
146
100
AcDbEntity
  8
ROHR
 62
     7
100
AcDbLine
 10
167.589426
 20
158.946543
 30
0.0
 11
168.589193
 21
159.946137
 31
0.0
  0
LINE
  5
145
100
AcDbEntity
  8
ROHR
 62
     7
100
AcDbLine
 10
167.510189
 20
156.745988
 30
0.0
 11
168.385588
 21
157.621387
 31
0.0
  0
LINE
  5
144
100
AcDbEntity
  8
ROHR
 62
     7
100
AcDbLine
 10
167.540161
 20
157.305988
 30
0.0
 11
168.451733
 21
158.217733
 31
0.0
  0
LINE
  5
143
100
AcDbEntity
  8
ROHR
 62
     7
100
AcDbLine
 10
167.562899
 20
157.859271
 30
0.0
 11
168.507544
 21
158.803743
 31
0.0
  0
LINE
  5
142
100
AcDbEntity
  8
ROHR
 62
     7
100
AcDbLine
 10
167.579435
 20
158.406179
 30
0.0
 11
168.553019
 21
159.379763
 31
0.0
  0
LINE
  5
141
100
AcDbEntity
  8
ROHR
 62
     7
100
AcDbLine
 10
167.570478
 20
161.048912
 30
0.0
 11
168.647759
 21
162.126194
 31
0.0
  0
LINE
  5
140
100
AcDbEntity
  8
ROHR
 62
     7
100
AcDbLine
 10
167.583569
 20
160.531803
 30
0.0
 11
168.645348
 21
161.593237
 31
0.0
  0
LINE
  5
13F
100
AcDbEntity
  8
ROHR
 62
     7
100
AcDbLine
 10
167.204264
 20
164.394961
 30
0.0
 11
168.054858
 21
165.245555
 31
0.0
  0
LINE
  5
13E
100
AcDbEntity
  8
ROHR
 62
     7
100
AcDbLine
 10
167.378586
 20
164.039083
 30
0.0
 11
168.283957
 21
164.943937
 31
0.0
  0
LINE
  5
13D
100
AcDbEntity
  8
ROHR
 62
     7
100
AcDbLine
 10
167.426817
 20
163.556942
 30
0.0
 11
168.461035
 21
164.590815
 31
0.0
  0
LINE
  5
13C
100
AcDbEntity
  8
ROHR
 62
     7
100
AcDbLine
 10
167.465403
 20
163.064982
 30
0.0
 11
168.574723
 21
164.174647
 31
0.0
  0
LINE
  5
13B
100
AcDbEntity
  8
ROHR
 62
     7
100
AcDbLine
 10
167.499509
 20
162.568544
 30
0.0
 11
168.61193
 21
163.680965
 31
0.0
  0
LINE
  5
13A
100
AcDbEntity
  8
ROHR
 62
     7
100
AcDbLine
 10
166.479072
 20
164.730514
 30
0.0
 11
167.452311
 21
165.703753
 31
0.0
  0
LINE
  5
139
100
AcDbEntity
  8
ROHR
 62
     7
100
AcDbLine
 10
166.911776
 20
164.632673
 30
0.0
 11
167.778217
 21
165.499287
 31
0.0
  0
LINE
  5
138
100
AcDbEntity
  8
ROHR
 62
     7
100
AcDbLine
 10
95.966235
 20
144.755678
 30
0.0
 11
94.900151
 21
143.689421
 31
0.0
  0
LINE
  5
137
100
AcDbEntity
  8
ROHR
 62
     7
100
AcDbLine
 10
95.931268
 20
145.251082
 30
0.0
 11
94.911175
 21
144.23099
 31
0.0
  0
LINE
  5
136
100
AcDbEntity
  8
ROHR
 62
     7
100
AcDbLine
 10
92.813973
 20
144.785305
 30
0.0
 11
91.752539
 21
143.724216
 31
0.0
  0
LINE
  5
135
100
AcDbEntity
  8
ROHR
 62
     7
100
AcDbLine
 10
92.806394
 20
145.307926
 30
0.0
 11
91.762874
 21
144.264752
 31
0.0
  0
LINE
  5
134
100
AcDbEntity
  8
ROHR
 62
     7
100
AcDbLine
 10
95.941947
 20
141.019127
 30
0.0
 11
94.362027
 21
139.439206
 31
0.0
  0
LINE
  5
133
100
AcDbEntity
  8
ROHR
 62
     7
100
AcDbLine
 10
95.999308
 20
141.60686
 30
0.0
 11
93.782045
 21
139.389597
 31
0.0
  0
LINE
  5
132
100
AcDbEntity
  8
ROHR
 62
     7
100
AcDbLine
 10
96.0124
 20
143.741097
 30
0.0
 11
94.859326
 21
142.588024
 31
0.0
  0
LINE
  5
131
100
AcDbEntity
  8
ROHR
 62
     7
100
AcDbLine
 10
95.993279
 20
144.252694
 30
0.0
 11
94.882925
 21
143.141995
 31
0.0
  0
LINE
  5
130
100
AcDbEntity
  8
ROHR
 62
     7
100
AcDbLine
 10
96.023079
 20
143.221577
 30
0.0
 11
94.829354
 21
142.027851
 31
0.0
  0
LINE
  5
12F
100
AcDbEntity
  8
ROHR
 62
     7
100
AcDbLine
 10
96.017051
 20
142.154975
 30
0.0
 11
93.326948
 21
139.4647
 31
0.0
  0
LINE
  5
12E
100
AcDbEntity
  8
ROHR
 62
     7
100
AcDbLine
 10
96.024802
 20
142.692754
 30
0.0
 11
94.794214
 21
141.462511
 31
0.0
  0
LINE
  5
12D
100
AcDbEntity
  8
ROHR
 62
     7
100
AcDbLine
 10
93.19345
 20
140.92232
 30
0.0
 11
92.342856
 21
140.071726
 31
0.0
  0
LINE
  5
12C
100
AcDbEntity
  8
ROHR
 62
     7
100
AcDbLine
 10
93.486111
 20
140.684608
 30
0.0
 11
92.619497
 21
139.817822
 31
0.0
  0
LINE
  5
12B
100
AcDbEntity
  8
ROHR
 62
     7
100
AcDbLine
 10
92.89855
 20
142.748565
 30
0.0
 11
91.786129
 21
141.636144
 31
0.0
  0
LINE
  5
12A
100
AcDbEntity
  8
ROHR
 62
     7
100
AcDbLine
 10
93.019128
 20
141.278198
 30
0.0
 11
92.114102
 21
140.373172
 31
0.0
  0
LINE
  5
129
100
AcDbEntity
  8
ROHR
 62
     7
100
AcDbLine
 10
92.84584
 20
143.7566
 30
0.0
 11
91.755123
 21
142.665883
 31
0.0
  0
LINE
  5
128
100
AcDbEntity
  8
ROHR
 62
     7
100
AcDbLine
 10
92.827237
 20
144.268197
 30
0.0
 11
91.750127
 21
143.19126
 31
0.0
  0
LINE
  5
127
100
AcDbEntity
  8
ROHR
 62
     7
100
AcDbLine
 10
92.970897
 20
141.760512
 30
0.0
 11
91.937024
 21
140.726294
 31
0.0
  0
LINE
  5
126
100
AcDbEntity
  8
ROHR
 62
     7
100
AcDbLine
 10
92.932312
 20
142.252127
 30
0.0
 11
91.822991
 21
141.142461
 31
0.0
  0
LINE
  5
125
100
AcDbEntity
  8
ROHR
 62
     7
100
AcDbLine
 10
92.869611
 20
143.250171
 30
0.0
 11
91.767008
 21
142.147396
 31
0.0
  0
LINE
  5
124
100
AcDbEntity
  8
ROHR
 62
     7
100
AcDbLine
 10
93.918643
 20
140.586768
 30
0.0
 11
92.945231
 21
139.613528
 31
0.0
  0
LINE
  5
123
100
AcDbEntity
  8
ROHR
 62
     7
100
AcDbLine
 10
95.839628
 20
146.220188
 30
0.0
 11
94.91617
 21
145.296902
 31
0.0
  0
LINE
  5
122
100
AcDbEntity
  8
ROHR
 62
     7
100
AcDbLine
 10
95.405718
 20
148.976436
 30
0.0
 11
94.804549
 21
148.375267
 31
0.0
  0
LINE
  5
121
100
AcDbEntity
  8
ROHR
 62
     7
100
AcDbLine
 10
95.651181
 20
147.622686
 30
0.0
 11
94.883097
 21
146.854774
 31
0.0
  0
LINE
  5
120
100
AcDbEntity
  8
ROHR
 62
     7
100
AcDbLine
 10
95.575734
 20
148.077439
 30
0.0
 11
94.862082
 21
147.363959
 31
0.0
  0
LINE
  5
11F
100
AcDbEntity
  8
ROHR
 62
     7
100
AcDbLine
 10
95.49443
 20
148.526335
 30
0.0
 11
94.8359
 21
147.867977
 31
0.0
  0
LINE
  5
11E
100
AcDbEntity
  8
ROHR
 62
     7
100
AcDbLine
 10
95.888893
 20
145.739252
 30
0.0
 11
94.916687
 21
144.766702
 31
0.0
  0
LINE
  5
11D
100
AcDbEntity
  8
ROHR
 62
     7
100
AcDbLine
 10
95.317179
 20
149.410002
 30
0.0
 11
94.769581
 21
148.862404
 31
0.0
  0
LINE
  5
11C
100
AcDbEntity
  8
ROHR
 62
     7
100
AcDbLine
 10
95.720256
 20
147.161388
 30
0.0
 11
94.899462
 21
146.340422
 31
0.0
  0
LINE
  5
11B
100
AcDbEntity
  8
ROHR
 62
     7
100
AcDbLine
 10
95.783301
 20
146.693888
 30
0.0
 11
94.910658
 21
145.82159
 31
0.0
  0
LINE
  5
11A
100
AcDbEntity
  8
ROHR
 62
     7
100
AcDbLine
 10
93.080623
 20
150.885881
 30
0.0
 11
92.397461
 21
150.202546
 31
0.0
  0
LINE
  5
119
100
AcDbEntity
  8
ROHR
 62
     7
100
AcDbLine
 10
95.035887
 20
150.719482
 30
0.0
 11
94.636773
 21
150.32054
 31
0.0
  0
LINE
  5
118
100
AcDbEntity
  8
ROHR
 62
     7
100
AcDbLine
 10
92.804327
 20
145.836404
 30
0.0
 11
91.781478
 21
144.813555
 31
0.0
  0
LINE
  5
117
100
AcDbEntity
  8
ROHR
 62
     7
100
AcDbLine
 10
92.808289
 20
146.370738
 30
0.0
 11
91.808522
 21
145.370972
 31
0.0
  0
LINE
  5
116
100
AcDbEntity
  8
ROHR
 62
     7
100
AcDbLine
 10
93.020679
 20
150.295391
 30
0.0
 11
92.281361
 21
149.556074
 31
0.0
  0
LINE
  5
115
100
AcDbEntity
  8
ROHR
 62
     7
100
AcDbLine
 10
92.96883
 20
149.71317
 30
0.0
 11
92.179042
 21
148.923382
 31
0.0
  0
LINE
  5
114
100
AcDbEntity
  8
ROHR
 62
     7
100
AcDbLine
 10
92.924561
 20
149.138528
 30
0.0
 11
92.089469
 21
148.303781
 31
0.0
  0
LINE
  5
113
100
AcDbEntity
  8
ROHR
 62
     7
100
AcDbLine
 10
92.887526
 20
148.571465
 30
0.0
 11
92.012127
 21
147.696067
 31
0.0
  0
LINE
  5
112
100
AcDbEntity
  8
ROHR
 62
     7
100
AcDbLine
 10
92.857726
 20
148.011121
 30
0.0
 11
91.945981
 21
147.099376
 31
0.0
  0
LINE
  5
111
100
AcDbEntity
  8
ROHR
 62
     7
100
AcDbLine
 10
92.834644
 20
147.457666
 30
0.0
 11
91.890343
 21
146.513365
 31
0.0
  0
LINE
  5
110
100
AcDbEntity
  8
ROHR
 62
     7
100
AcDbLine
 10
92.818279
 20
146.910929
 30
0.0
 11
91.844868
 21
145.937345
 31
0.0
  0
LINE
  5
10F
100
AcDbEntity
  8
ROHR
 62
     7
100
AcDbLine
 10
95.131661
 20
150.285056
 30
0.0
 11
94.685521
 21
149.838916
 31
0.0
  0
LINE
  5
10E
100
AcDbEntity
  8
ROHR
 62
     7
100
AcDbLine
 10
95.22554
 20
149.848735
 30
0.0
 11
94.729791
 21
149.352813
 31
0.0
  0
LINE
  5
10D
100
AcDbEntity
  8
ROHR
 62
     7
100
AcDbLine
 10
93.149181
 20
151.48481
 30
0.0
 11
92.528375
 21
150.863832
 31
0.0
  0
LINE
  5
10C
100
AcDbEntity
  8
ROHR
 62
     7
100
AcDbLine
 10
93.40963
 20
153.336032
 30
0.0
 11
93.023952
 21
152.950526
 31
0.0
  0
LINE
  5
10B
100
AcDbEntity
  8
ROHR
 62
     7
100
AcDbLine
 10
93.313167
 20
152.70937
 30
0.0
 11
92.840156
 21
152.236186
 31
0.0
  0
LINE
  5
10A
100
AcDbEntity
  8
ROHR
 62
     7
100
AcDbLine
 10
93.226523
 20
152.092353
 30
0.0
 11
92.67548
 21
151.541138
 31
0.0
  0
LINE
  5
109
100
AcDbEntity
  8
ROHR
 62
     7
100
AcDbLine
 10
94.937874
 20
151.152186
 30
0.0
 11
94.584063
 21
150.798031
 31
0.0
  0
LINE
  5
108
100
AcDbEntity
  8
ROHR
 62
     7
100
AcDbLine
 10
94.526874
 20
152.862332
 30
0.0
 11
94.332743
 21
152.668201
 31
0.0
  0
LINE
  5
107
100
AcDbEntity
  8
ROHR
 62
     7
100
AcDbLine
 10
94.419387
 20
153.285217
 30
0.0
 11
94.260396
 21
153.126054
 31
0.0
  0
LINE
  5
106
100
AcDbEntity
  8
ROHR
 62
     7
100
AcDbLine
 10
94.736336
 20
152.011049
 30
0.0
 11
94.466241
 21
151.740953
 31
0.0
  0
LINE
  5
105
100
AcDbEntity
  8
ROHR
 62
     7
100
AcDbLine
 10
94.838139
 20
151.582479
 30
0.0
 11
94.527047
 21
151.271387
 31
0.0
  0
LINE
  5
104
100
AcDbEntity
  8
ROHR
 62
     7
100
AcDbLine
 10
94.632639
 20
152.437724
 30
0.0
 11
94.401301
 21
152.206386
 31
0.0
  0
LINE
  5
103
100
AcDbEntity
  8
ROHR
 62
     7
100
AcDbLine
 10
93.970492
 20
154.957467
 30
0.0
 11
93.934663
 21
154.92181
 31
0.0
  0
LINE
  5
102
100
AcDbEntity
  8
ROHR
 62
     7
100
AcDbLine
 10
93.763441
 20
155.280789
 30
0.0
 11
93.714349
 21
155.231868
 31
0.0
  0
LINE
  5
101
100
AcDbEntity
  8
ROHR
 62
     7
100
AcDbLine
 10
93.634078
 20
154.621053
 30
0.0
 11
93.45855
 21
154.445525
 31
0.0
  0
LINE
  5
100
100
AcDbEntity
  8
ROHR
 62
     7
100
AcDbLine
 10
93.853703
 20
155.37105
 30
0.0
 11
93.844573
 21
155.361921
 31
0.0
  0
LINE
  5
FF
100
AcDbEntity
  8
ROHR
 62
     7
100
AcDbLine
 10
93.516428
 20
153.973031
 30
0.0
 11
93.229451
 21
153.686226
 31
0.0
  0
LINE
  5
FE
100
AcDbEntity
  8
ROHR
 62
     7
100
AcDbLine
 10
94.085558
 20
154.54216
 30
0.0
 11
94.021307
 21
154.478082
 31
0.0
  0
LINE
  5
FD
100
AcDbEntity
  8
ROHR
 62
     7
100
AcDbLine
 10
94.310006
 20
153.706036
 30
0.0
 11
94.18426
 21
153.58029
 31
0.0
  0
LINE
  5
FC
100
AcDbEntity
  8
ROHR
 62
     7
100
AcDbLine
 10
94.198557
 20
154.124959
 30
0.0
 11
94.104506
 21
154.030908
 31
0.0
  0
LINE
  5
FA
100
AcDbEntity
  8
GETRENNT
  6
AI9-LType3
 62
     7
100
AcDbLine
 10
100.394906
 20
92.743004
 30
0.0
 11
160.732652
 21
92.743004
 31
0.0
  0
LINE
  5
F9
100
AcDbEntity
  8
GETRENNT
  6
AI9-LType3
 62
     7
100
AcDbLine
 10
160.395033
 20
212.689343
 30
0.0
 11
100.139452
 21
212.689343
 31
0.0
  0
HATCH
  5
F6
100
AcDbEntity
  8
EBENE_1
 62
   152
100
AcDbHatch
 10
0.0
 20
0.0
 30
0.0
210
0.0
220
0.0
230
1.0
  2
SOLID
 70
     1
 71
     0
 91
        1
 92
        1
 93
        1
 72
     4
 94
        3
 73
     0
 74
     0
 95
       23
 96
       19
 40
0.0
 40
0.0
 40
0.0
 40
0.0
 40
1.0
 40
1.0
 40
1.0
 40
2.0
 40
2.0
 40
2.0
 40
3.0
 40
3.0
 40
3.0
 40
4.0
 40
4.0
 40
4.0
 40
5.0
 40
5.0
 40
5.0
 40
6.0
 40
6.0
 40
6.0
 40
6.0
 10
74.915323893229157
 20
136.98113064236111
 10
74.915323893229157
 20
136.98113064236111
 10
74.490371365017353
 20
137.24330240885416
 10
73.912456597222217
 20
137.51959906684027
 10
69.145822482638877
 20
139.79956325954859
 10
70.308197699652766
 20
135.17969021267359
 10
65.590311686197907
 20
138.08321668836805
 10
64.925236002604166
 20
138.49283854166666
 10
64.310803222656247
 20
137.49513888888887
 10
64.9762234157986
 20
137.08551703559027
 10
64.9762234157986
 20
137.08551703559027
 10
65.401348198784717
 20
136.82368977864581
 10
65.979090711805554
 20
136.54704861111111
 10
70.739695909288187
 20
134.26880696614583
 10
69.582832845052081
 20
138.87972276475693
 10
74.301580132378461
 20
135.9830864800347
 10
74.966828070746516
 20
135.57415364583332
 10
75.580744086371524
 20
136.5721978081597
 10
74.915323893229157
 20
136.98113064236111
 97
        0
 75
     0
 76
     1
 98
        1
 10
0.0
 20
0.0
  0
HATCH
  5
F5
100
AcDbEntity
  8
EBENE_1
 62
   152
100
AcDbHatch
 10
0.0
 20
0.0
 30
0.0
210
0.0
220
0.0
230
1.0
  2
SOLID
 70
     1
 71
     0
 91
        1
 92
        1
 93
        1
 72
     4
 94
        3
 73
     0
 74
     0
 95
       23
 96
       19
 40
0.0
 40
0.0
 40
0.0
 40
0.0
 40
1.0
 40
1.0
 40
1.0
 40
2.0
 40
2.0
 40
2.0
 40
3.0
 40
3.0
 40
3.0
 40
4.0
 40
4.0
 40
4.0
 40
5.0
 40
5.0
 40
5.0
 40
6.0
 40
6.0
 40
6.0
 40
6.0
 10
74.915323893229157
 20
134.22574327256945
 10
74.915323893229157
 20
134.22574327256945
 10
74.490371365017353
 20
134.4879150390625
 10
73.912456597222217
 20
134.76421169704861
 10
69.145822482638877
 20
137.04417588975693
 10
70.308197699652766
 20
132.42430284288193
 10
65.590311686197907
 20
135.32782931857636
 10
64.925236002604166
 20
135.73745117187499
 10
64.310803222656247
 20
134.73940700954859
 10
64.9762234157986
 20
134.33012966579861
 10
64.9762234157986
 20
134.33012966579861
 10
65.401348198784717
 20
134.06830240885415
 10
65.979090711805554
 20
133.79166124131945
 10
70.739695909288187
 20
131.51341959635417
 10
69.582832845052081
 20
136.12433539496527
 10
74.301580132378461
 20
133.22769911024304
 10
74.966828070746516
 20
132.81842176649303
 10
75.580744086371524
 20
133.81646592881944
 10
74.915323893229157
 20
134.22574327256945
 97
        0
 75
     0
 76
     1
 98
        1
 10
0.0
 20
0.0
  0
HATCH
  5
F4
100
AcDbEntity
  8
EBENE_1
 62
   152
100
AcDbHatch
 10
0.0
 20
0.0
 30
0.0
210
0.0
220
0.0
230
1.0
  2
SOLID
 70
     1
 71
     0
 91
        1
 92
        1
 93
        1
 72
     4
 94
        3
 73
     0
 74
     0
 95
       23
 96
       19
 40
0.0
 40
0.0
 40
0.0
 40
0.0
 40
1.0
 40
1.0
 40
1.0
 40
2.0
 40
2.0
 40
2.0
 40
3.0
 40
3.0
 40
3.0
 40
4.0
 40
4.0
 40
4.0
 40
5.0
 40
5.0
 40
5.0
 40
6.0
 40
6.0
 40
6.0
 40
6.0
 10
74.915323893229157
 20
131.47001139322916
 10
74.915323893229157
 20
131.47001139322916
 10
74.490371365017353
 20
131.73218315972221
 10
73.912456597222217
 20
132.00847981770832
 10
69.145822482638877
 20
134.28878851996527
 10
70.308197699652766
 20
129.66891547309027
 10
65.590311686197907
 20
132.5724419487847
 10
64.925236002604166
 20
132.98171929253471
 10
64.310803222656247
 20
131.98401963975692
 10
64.9762234157986
 20
131.57474229600695
 10
64.9762234157986
 20
131.57474229600695
 10
65.401348198784717
 20
131.31257052951386
 10
65.979090711805554
 20
131.03592936197916
 10
70.739695909288187
 20
128.75734320746525
 10
69.582832845052081
 20
133.36894802517361
 10
74.301580132378461
 20
130.47231174045137
 10
74.966828070746516
 20
130.06303439670137
 10
75.580744086371524
 20
131.06107855902778
 10
74.915323893229157
 20
131.47001139322916
 97
        0
 75
     0
 76
     1
 98
        1
 10
0.0
 20
0.0
  0
HATCH
  5
F3
100
AcDbEntity
  8
EBENE_1
 62
   152
100
AcDbHatch
 10
0.0
 20
0.0
 30
0.0
210
0.0
220
0.0
230
1.0
  2
SOLID
 70
     1
 71
     0
 91
        1
 92
        1
 93
        1
 72
     4
 94
        3
 73
     0
 74
     0
 95
       23
 96
       19
 40
0.0
 40
0.0
 40
0.0
 40
0.0
 40
1.0
 40
1.0
 40
1.0
 40
2.0
 40
2.0
 40
2.0
 40
3.0
 40
3.0
 40
3.0
 40
4.0
 40
4.0
 40
4.0
 40
5.0
 40
5.0
 40
5.0
 40
6.0
 40
6.0
 40
6.0
 40
6.0
 10
74.915323893229157
 20
139.73203938802081
 10
74.915323893229157
 20
139.73203938802081
 10
74.490371365017353
 20
139.99386664496527
 10
73.912456597222217
 20
140.2705078125
 10
69.145822482638877
 20
142.55012749565972
 10
70.308197699652766
 20
137.93059895833332
 10
65.590311686197907
 20
140.83446994357638
 10
64.925236002604166
 20
141.24340277777776
 10
64.310803222656247
 20
140.24570312499998
 10
64.9762234157986
 20
139.83642578125
 10
64.9762234157986
 20
139.83642578125
 10
65.401348198784717
 20
139.57425401475695
 10
65.979090711805554
 20
139.29795735677081
 10
70.739695909288187
 20
137.01937120225693
 10
69.582832845052081
 20
141.63028700086804
 10
74.301580132378461
 20
138.73433973524305
 10
74.966828070746516
 20
138.32471788194442
 10
75.580744086371524
 20
139.32276204427083
 10
74.915323893229157
 20
139.73203938802081
 97
        0
 75
     0
 76
     1
 98
        1
 10
0.0
 20
0.0
  0
HATCH
  5
F1
100
AcDbEntity
  8
SCHRAFFUR
 62
     7
100
AcDbHatch
 10
0.0
 20
0.0
 30
0.0
210
0.0
220
0.0
230
1.0
  2
SOLID
 70
     1
 71
     0
 91
        4
 92
        1
 93
        1
 72
     4
 94
        3
 73
     0
 74
     0
 95
       20
 96
       16
 40
0.0
 40
0.0
 40
0.0
 40
0.0
 40
1.0
 40
1.0
 40
1.0
 40
2.0
 40
2.0
 40
2.0
 40
3.0
 40
3.0
 40
3.0
 40
4.0
 40
4.0
 40
4.0
 40
5.0
 40
5.0
 40
5.0
 40
5.0
 10
109.62087131076387
 20
176.32928873697915
 10
109.62087131076387
 20
176.32928873697915
 10
109.62087131076387
 20
176.80936279296873
 10
109.62087131076387
 20
176.80936279296873
 10
109.62087131076387
 20
176.80936279296873
 10
114.42092285156249
 20
176.80936279296873
 10
114.42092285156249
 20
176.80936279296873
 10
114.42092285156249
 20
176.80936279296873
 10
114.42092285156249
 20
171.48290066189236
 10
114.42092285156249
 20
171.48290066189236
 10
114.42092285156249
 20
171.48290066189236
 10
109.62087131076387
 20
171.48290066189236
 10
109.62087131076387
 20
171.48290066189236
 10
109.62087131076387
 20
171.48290066189236
 10
109.62087131076387
 20
176.32928873697915
 10
109.62087131076387
 20
176.32928873697915
 97
        0
 92
        1
 93
        1
 72
     4
 94
        3
 73
     0
 74
     0
 95
       17
 96
       13
 40
0.0
 40
0.0
 40
0.0
 40
0.0
 40
1.0
 40
1.0
 40
1.0
 40
2.0
 40
2.0
 40
2.0
 40
3.0
 40
3.0
 40
3.0
 40
4.0
 40
4.0
 40
4.0
 40
4.0
 10
109.62087131076387
 20
171.48290066189236
 10
109.62087131076387
 20
171.48290066189236
 10
114.42092285156249
 20
171.48290066189236
 10
114.42092285156249
 20
171.48290066189236
 10
114.42092285156249
 20
171.48290066189236
 10
114.42092285156249
 20
152.80927734374998
 10
114.42092285156249
 20
152.80927734374998
 10
114.42092285156249
 20
152.80927734374998
 10
109.62087131076387
 20
152.80927734374998
 10
109.62087131076387
 20
152.80927734374998
 10
109.62087131076387
 20
152.80927734374998
 10
109.62087131076387
 20
171.48290066189236
 10
109.62087131076387
 20
171.48290066189236
 97
        0
 92
        1
 93
        1
 72
     4
 94
        3
 73
     0
 74
     0
 95
       17
 96
       13
 40
0.0
 40
0.0
 40
0.0
 40
0.0
 40
1.0
 40
1.0
 40
1.0
 40
2.0
 40
2.0
 40
2.0
 40
3.0
 40
3.0
 40
3.0
 40
4.0
 40
4.0
 40
4.0
 40
4.0
 10
109.62087131076387
 20
152.80927734374998
 10
109.62087131076387
 20
152.80927734374998
 10
114.42092285156249
 20
152.80927734374998
 10
114.42092285156249
 20
152.80927734374998
 10
114.42092285156249
 20
152.80927734374998
 10
114.42092285156249
 20
134.13582628038193
 10
114.42092285156249
 20
134.13582628038193
 10
114.42092285156249
 20
134.13582628038193
 10
109.62087131076387
 20
134.13582628038193
 10
109.62087131076387
 20
134.13582628038193
 10
109.62087131076387
 20
134.13582628038193
 10
109.62087131076387
 20
152.80927734374998
 10
109.62087131076387
 20
152.80927734374998
 97
        0
 92
        1
 93
        1
 72
     4
 94
        3
 73
     0
 74
     0
 95
       17
 96
       13
 40
0.0
 40
0.0
 40
0.0
 40
0.0
 40
1.0
 40
1.0
 40
1.0
 40
2.0
 40
2.0
 40
2.0
 40
3.0
 40
3.0
 40
3.0
 40
4.0
 40
4.0
 40
4.0
 40
4.0
 10
109.62087131076387
 20
134.13582628038193
 10
109.62087131076387
 20
134.13582628038193
 10
114.42092285156249
 20
134.13582628038193
 10
114.42092285156249
 20
134.13582628038193
 10
114.42092285156249
 20
134.13582628038193
 10
114.42092285156249
 20
128.80936414930554
 10
114.42092285156249
 20
128.80936414930554
 10
114.42092285156249
 20
128.80936414930554
 10
109.62087131076387
 20
128.80936414930554
 10
109.62087131076387
 20
128.80936414930554
 10
109.62087131076387
 20
128.80936414930554
 10
109.62087131076387
 20
134.13582628038193
 10
109.62087131076387
 20
134.13582628038193
 97
        0
 75
     0
 76
     1
 98
        1
 10
0.0
 20
0.0
  0
POLYLINE
  5
EB
100
AcDbEntity
  8
SCHRAFFUR
 62
     7
100
AcDb2dPolyline
 66
     1
 10
0.0
 20
0.0
 30
0.0
 70
     1
  0
VERTEX
  5
EC
100
AcDbEntity
  8
SCHRAFFUR
 62
     7
100
AcDbVertex
100
AcDb2dVertex
 10
102.795104
 20
106.058987
 30
0.0
  0
VERTEX
  5
ED
100
AcDbEntity
  8
SCHRAFFUR
 62
     7
100
AcDbVertex
100
AcDb2dVertex
 10
100.394906
 20
106.058987
 30
0.0
  0
VERTEX
  5
EE
100
AcDbEntity
  8
SCHRAFFUR
 62
     7
100
AcDbVertex
100
AcDb2dVertex
 10
100.394906
 20
101.880086
 30
0.0
  0
VERTEX
  5
EF
100
AcDbEntity
  8
SCHRAFFUR
 62
     7
100
AcDbVertex
100
AcDb2dVertex
 10
102.795104
 20
101.880086
 30
0.0
  0
SEQEND
  5
F0
100
AcDbEntity
  8
SCHRAFFUR
 62
     7
  0
LINE
  5
EA
100
AcDbEntity
  8
SCHRAFFUR
 62
     7
100
AcDbLine
 10
158.325564
 20
180.289426
 30
0.0
 11
160.395033
 21
178.219785
 31
0.0
  0
LINE
  5
E9
100
AcDbEntity
  8
SCHRAFFUR
 62
     7
100
AcDbLine
 10
155.61014
 20
180.289426
 30
0.0
 11
158.970142
 21
176.929424
 31
0.0
  0
LINE
  5
E8
100
AcDbEntity
  8
SCHRAFFUR
 62
     7
100
AcDbLine
 10
152.894716
 20
180.289426
 30
0.0
 11
156.255062
 21
176.929424
 31
0.0
  0
LINE
  5
E7
100
AcDbEntity
  8
SCHRAFFUR
 62
     7
100
AcDbLine
 10
150.179636
 20
180.289426
 30
0.0
 11
153.539638
 21
176.929424
 31
0.0
  0
LINE
  5
E6
100
AcDbEntity
  8
SCHRAFFUR
 62
     7
100
AcDbLine
 10
147.464556
 20
180.289426
 30
0.0
 11
150.824558
 21
176.929424
 31
0.0
  0
LINE
  5
E5
100
AcDbEntity
  8
SCHRAFFUR
 62
     7
100
AcDbLine
 10
144.749132
 20
180.289426
 30
0.0
 11
148.109134
 21
176.929424
 31
0.0
  0
LINE
  5
E4
100
AcDbEntity
  8
SCHRAFFUR
 62
     7
100
AcDbLine
 10
142.033708
 20
180.289426
 30
0.0
 11
145.393709
 21
176.929424
 31
0.0
  0
LINE
  5
E3
100
AcDbEntity
  8
SCHRAFFUR
 62
     7
100
AcDbLine
 10
139.318283
 20
180.289426
 30
0.0
 11
142.67863
 21
176.929424
 31
0.0
  0
LINE
  5
E2
100
AcDbEntity
  8
SCHRAFFUR
 62
     7
100
AcDbLine
 10
136.603204
 20
180.289426
 30
0.0
 11
139.963205
 21
176.929424
 31
0.0
  0
LINE
  5
E1
100
AcDbEntity
  8
SCHRAFFUR
 62
     7
100
AcDbLine
 10
133.888124
 20
180.289426
 30
0.0
 11
137.248126
 21
176.929424
 31
0.0
  0
LINE
  5
E0
100
AcDbEntity
  8
SCHRAFFUR
 62
     7
100
AcDbLine
 10
131.1727
 20
180.289426
 30
0.0
 11
134.532701
 21
176.929424
 31
0.0
  0
LINE
  5
DF
100
AcDbEntity
  8
SCHRAFFUR
 62
     7
100
AcDbLine
 10
128.457275
 20
180.289426
 30
0.0
 11
131.817277
 21
176.929424
 31
0.0
  0
LINE
  5
DE
100
AcDbEntity
  8
SCHRAFFUR
 62
     7
100
AcDbLine
 10
125.741851
 20
180.289426
 30
0.0
 11
129.102197
 21
176.929424
 31
0.0
  0
LINE
  5
DD
100
AcDbEntity
  8
SCHRAFFUR
 62
     7
100
AcDbLine
 10
123.026771
 20
180.289426
 30
0.0
 11
126.386773
 21
176.929424
 31
0.0
  0
LINE
  5
DC
100
AcDbEntity
  8
SCHRAFFUR
 62
     7
100
AcDbLine
 10
120.311692
 20
180.289426
 30
0.0
 11
123.671693
 21
176.929424
 31
0.0
  0
LINE
  5
DB
100
AcDbEntity
  8
SCHRAFFUR
 62
     7
100
AcDbLine
 10
117.596267
 20
180.289426
 30
0.0
 11
120.956269
 21
176.929424
 31
0.0
  0
LINE
  5
DA
100
AcDbEntity
  8
SCHRAFFUR
 62
     7
100
AcDbLine
 10
114.880843
 20
180.289426
 30
0.0
 11
118.240845
 21
176.929424
 31
0.0
  0
LINE
  5
D9
100
AcDbEntity
  8
SCHRAFFUR
 62
     7
100
AcDbLine
 10
112.165419
 20
180.289426
 30
0.0
 11
115.525765
 21
176.929424
 31
0.0
  0
LINE
  5
D8
100
AcDbEntity
  8
SCHRAFFUR
 62
     7
100
AcDbLine
 10
158.335211
 20
128.689475
 30
0.0
 11
160.395033
 21
126.629308
 31
0.0
  0
LINE
  5
D7
100
AcDbEntity
  8
SCHRAFFUR
 62
     7
100
AcDbLine
 10
155.619786
 20
128.689475
 30
0.0
 11
159.219911
 21
125.08935
 31
0.0
  0
LINE
  5
D6
100
AcDbEntity
  8
SCHRAFFUR
 62
     7
100
AcDbLine
 10
152.904362
 20
128.689475
 30
0.0
 11
156.504487
 21
125.08935
 31
0.0
  0
LINE
  5
D5
100
AcDbEntity
  8
SCHRAFFUR
 62
     7
100
AcDbLine
 10
150.188938
 20
128.689475
 30
0.0
 11
153.789063
 21
125.08935
 31
0.0
  0
LINE
  5
D4
100
AcDbEntity
  8
SCHRAFFUR
 62
     7
100
AcDbLine
 10
147.473858
 20
128.689475
 30
0.0
 11
151.073638
 21
125.08935
 31
0.0
  0
LINE
  5
D3
100
AcDbEntity
  8
SCHRAFFUR
 62
     7
100
AcDbLine
 10
144.758778
 20
128.689475
 30
0.0
 11
148.358558
 21
125.08935
 31
0.0
  0
LINE
  5
D2
100
AcDbEntity
  8
SCHRAFFUR
 62
     7
100
AcDbLine
 10
142.043354
 20
128.689475
 30
0.0
 11
145.643479
 21
125.08935
 31
0.0
  0
LINE
  5
D1
100
AcDbEntity
  8
SCHRAFFUR
 62
     7
100
AcDbLine
 10
139.32793
 20
128.689475
 30
0.0
 11
142.928054
 21
125.08935
 31
0.0
  0
LINE
  5
D0
100
AcDbEntity
  8
SCHRAFFUR
 62
     7
100
AcDbLine
 10
136.612505
 20
128.689475
 30
0.0
 11
140.21263
 21
125.08935
 31
0.0
  0
LINE
  5
CF
100
AcDbEntity
  8
SCHRAFFUR
 62
     7
100
AcDbLine
 10
133.897426
 20
128.689475
 30
0.0
 11
137.497206
 21
125.08935
 31
0.0
  0
LINE
  5
CE
100
AcDbEntity
  8
SCHRAFFUR
 62
     7
100
AcDbLine
 10
131.182346
 20
128.689475
 30
0.0
 11
134.782126
 21
125.08935
 31
0.0
  0
LINE
  5
CD
100
AcDbEntity
  8
SCHRAFFUR
 62
     7
100
AcDbLine
 10
128.466922
 20
128.689475
 30
0.0
 11
132.067046
 21
125.08935
 31
0.0
  0
LINE
  5
CC
100
AcDbEntity
  8
SCHRAFFUR
 62
     7
100
AcDbLine
 10
125.751497
 20
128.689475
 30
0.0
 11
129.351622
 21
125.08935
 31
0.0
  0
LINE
  5
CB
100
AcDbEntity
  8
SCHRAFFUR
 62
     7
100
AcDbLine
 10
123.036073
 20
128.689475
 30
0.0
 11
126.636198
 21
125.08935
 31
0.0
  0
LINE
  5
CA
100
AcDbEntity
  8
SCHRAFFUR
 62
     7
100
AcDbLine
 10
120.320993
 20
128.689475
 30
0.0
 11
123.920774
 21
125.08935
 31
0.0
  0
LINE
  5
C9
100
AcDbEntity
  8
SCHRAFFUR
 62
     7
100
AcDbLine
 10
117.605914
 20
128.689475
 30
0.0
 11
121.205694
 21
125.08935
 31
0.0
  0
LINE
  5
C8
100
AcDbEntity
  8
SCHRAFFUR
 62
     7
100
AcDbLine
 10
114.890489
 20
128.689475
 30
0.0
 11
118.490614
 21
125.08935
 31
0.0
  0
LINE
  5
C7
100
AcDbEntity
  8
SCHRAFFUR
 62
     7
100
AcDbLine
 10
112.175065
 20
128.689475
 30
0.0
 11
115.77519
 21
125.08935
 31
0.0
  0
LINE
  5
C6
100
AcDbEntity
  8
SCHRAFFUR
 62
     7
100
AcDbLine
 10
106.395228
 20
177.914033
 30
0.0
 11
107.379837
 21
176.929424
 31
0.0
  0
LINE
  5
C5
100
AcDbEntity
  8
SCHRAFFUR
 62
     7
100
AcDbLine
 10
106.735259
 20
180.289426
 30
0.0
 11
110.095261
 21
176.929424
 31
0.0
  0
LINE
  5
C4
100
AcDbEntity
  8
SCHRAFFUR
 62
     7
100
AcDbLine
 10
109.450339
 20
180.289426
 30
0.0
 11
112.810341
 21
176.929424
 31
0.0
  0
LINE
  5
C3
100
AcDbEntity
  8
SCHRAFFUR
 62
     7
100
AcDbLine
 10
106.395228
 20
126.314081
 30
0.0
 11
107.61996
 21
125.08935
 31
0.0
  0
LINE
  5
C2
100
AcDbEntity
  8
SCHRAFFUR
 62
     7
100
AcDbLine
 10
109.450339
 20
128.689475
 30
0.0
 11
113.050119
 21
125.08935
 31
0.0
  0
LINE
  5
C1
100
AcDbEntity
  8
SCHRAFFUR
 62
     7
100
AcDbLine
 10
106.735259
 20
128.689475
 30
0.0
 11
110.33504
 21
125.08935
 31
0.0
  0
LINE
  5
C0
100
AcDbEntity
  8
SCHRAFFUR
 62
     7
100
AcDbLine
 10
102.795104
 20
209.913113
 30
0.0
 11
105.571162
 21
212.689343
 31
0.0
  0
LINE
  5
BF
100
AcDbEntity
  8
SCHRAFFUR
 62
     7
100
AcDbLine
 10
104.947599
 20
201.28935
 30
0.0
 11
116.34742
 21
212.689343
 31
0.0
  0
LINE
  5
BE
100
AcDbEntity
  8
SCHRAFFUR
 62
     7
100
AcDbLine
 10
106.395228
 20
191.960376
 30
0.0
 11
127.124023
 21
212.689343
 31
0.0
  0
LINE
  5
BD
100
AcDbEntity
  8
SCHRAFFUR
 62
     7
100
AcDbLine
 10
106.395228
 20
181.18429
 30
0.0
 11
137.900282
 21
212.689343
 31
0.0
  0
LINE
  5
BC
100
AcDbEntity
  8
SCHRAFFUR
 62
     7
100
AcDbLine
 10
116.276451
 20
180.289426
 30
0.0
 11
148.676541
 21
212.689343
 31
0.0
  0
LINE
  5
BB
100
AcDbEntity
  8
SCHRAFFUR
 62
     7
100
AcDbLine
 10
127.05271
 20
180.289426
 30
0.0
 11
159.452799
 21
212.689343
 31
0.0
  0
LINE
  5
BA
100
AcDbEntity
  8
SCHRAFFUR
 62
     7
100
AcDbLine
 10
137.829313
 20
180.289426
 30
0.0
 11
160.395033
 21
202.855318
 31
0.0
  0
LINE
  5
B9
100
AcDbEntity
  8
SCHRAFFUR
 62
     7
100
AcDbLine
 10
148.605572
 20
180.289426
 30
0.0
 11
160.395033
 21
192.078887
 31
0.0
  0
LINE
  5
B8
100
AcDbEntity
  8
SCHRAFFUR
 62
     7
100
AcDbLine
 10
159.381831
 20
180.289426
 30
0.0
 11
160.395033
 21
181.302629
 31
0.0
  0
LINE
  5
B7
100
AcDbEntity
  8
SCHRAFFUR
 62
     7
100
AcDbLine
 10
106.395228
 20
116.526221
 30
0.0
 11
114.958013
 21
125.08935
 31
0.0
  0
LINE
  5
B6
100
AcDbEntity
  8
SCHRAFFUR
 62
     7
100
AcDbLine
 10
102.795104
 20
102.150182
 30
0.0
 11
104.734348
 21
104.089426
 31
0.0
  0
LINE
  5
B5
100
AcDbEntity
  8
SCHRAFFUR
 62
     7
100
AcDbLine
 10
106.395228
 20
105.749962
 30
0.0
 11
125.734616
 21
125.08935
 31
0.0
  0
LINE
  5
B4
100
AcDbEntity
  8
SCHRAFFUR
 62
     7
100
AcDbLine
 10
104.164357
 20
92.743004
 30
0.0
 11
136.510531
 21
125.08935
 31
0.0
  0
LINE
  5
B3
100
AcDbEntity
  8
SCHRAFFUR
 62
     7
100
AcDbLine
 10
114.940788
 20
92.743004
 30
0.0
 11
147.286789
 21
125.08935
 31
0.0
  0
LINE
  5
B2
100
AcDbEntity
  8
SCHRAFFUR
 62
     7
100
AcDbLine
 10
125.717046
 20
92.743004
 30
0.0
 11
158.063392
 21
125.08935
 31
0.0
  0
LINE
  5
B1
100
AcDbEntity
  8
SCHRAFFUR
 62
     7
100
AcDbLine
 10
136.493305
 20
92.743004
 30
0.0
 11
160.395033
 21
116.645076
 31
0.0
  0
LINE
  5
B0
100
AcDbEntity
  8
SCHRAFFUR
 62
     7
100
AcDbLine
 10
147.269564
 20
92.743004
 30
0.0
 11
160.395033
 21
105.868473
 31
0.0
  0
LINE
  5
AF
100
AcDbEntity
  8
SCHRAFFUR
 62
     7
100
AcDbLine
 10
158.045822
 20
92.743004
 30
0.0
 11
160.395033
 21
95.092215
 31
0.0
  0
LINE
  5
AE
100
AcDbEntity
  8
SCHRAFFUR
 62
     7
100
AcDbLine
 10
102.795104
 20
200.324723
 30
0.0
 11
103.75973
 21
201.28935
 31
0.0
  0
LINE
  5
AD
100
AcDbEntity
  8
SCHRAFFUR
 62
     7
100
AcDbLine
 10
102.795104
 20
196.930615
 30
0.0
 11
106.395228
 21
200.530568
 31
0.0
  0
LINE
  5
AC
100
AcDbEntity
  8
SCHRAFFUR
 62
     7
100
AcDbLine
 10
102.795104
 20
193.536507
 30
0.0
 11
106.395228
 21
197.13646
 31
0.0
  0
LINE
  5
AB
100
AcDbEntity
  8
SCHRAFFUR
 62
     7
100
AcDbLine
 10
102.795104
 20
190.142399
 30
0.0
 11
106.395228
 21
193.742352
 31
0.0
  0
LINE
  5
AA
100
AcDbEntity
  8
SCHRAFFUR
 62
     7
100
AcDbLine
 10
102.795104
 20
186.748291
 30
0.0
 11
106.395228
 21
190.348244
 31
0.0
  0
LINE
  5
A9
100
AcDbEntity
  8
SCHRAFFUR
 62
     7
100
AcDbLine
 10
102.795104
 20
183.354183
 30
0.0
 11
106.395228
 21
186.954135
 31
0.0
  0
LINE
  5
A8
100
AcDbEntity
  8
SCHRAFFUR
 62
     7
100
AcDbLine
 10
102.795104
 20
179.960075
 30
0.0
 11
106.395228
 21
183.560027
 31
0.0
  0
LINE
  5
A7
100
AcDbEntity
  8
SCHRAFFUR
 62
     7
100
AcDbLine
 10
103.158389
 20
176.929424
 30
0.0
 11
106.395228
 21
180.165919
 31
0.0
  0
LINE
  5
A6
100
AcDbEntity
  8
SCHRAFFUR
 62
     7
100
AcDbLine
 10
102.795104
 20
127.3514
 30
0.0
 11
104.133006
 21
128.689475
 31
0.0
  0
LINE
  5
A5
100
AcDbEntity
  8
SCHRAFFUR
 62
     7
100
AcDbLine
 10
102.795104
 20
123.957292
 30
0.0
 11
106.395228
 21
127.557072
 31
0.0
  0
LINE
  5
A4
100
AcDbEntity
  8
SCHRAFFUR
 62
     7
100
AcDbLine
 10
102.795104
 20
120.563184
 30
0.0
 11
106.395228
 21
124.162964
 31
0.0
  0
LINE
  5
A3
100
AcDbEntity
  8
SCHRAFFUR
 62
     7
100
AcDbLine
 10
102.795104
 20
117.169076
 30
0.0
 11
106.395228
 21
120.768856
 31
0.0
  0
LINE
  5
A2
100
AcDbEntity
  8
SCHRAFFUR
 62
     7
100
AcDbLine
 10
102.795104
 20
113.774967
 30
0.0
 11
106.395228
 21
117.374748
 31
0.0
  0
LINE
  5
A1
100
AcDbEntity
  8
SCHRAFFUR
 62
     7
100
AcDbLine
 10
102.795104
 20
110.380859
 30
0.0
 11
106.395228
 21
113.98064
 31
0.0
  0
LINE
  5
A0
100
AcDbEntity
  8
SCHRAFFUR
 62
     7
100
AcDbLine
 10
102.795104
 20
106.986751
 30
0.0
 11
106.395228
 21
110.586532
 31
0.0
  0
LINE
  5
9F
100
AcDbEntity
  8
SCHRAFFUR
 62
     7
100
AcDbLine
 10
103.291886
 20
104.089426
 30
0.0
 11
106.395228
 21
107.192424
 31
0.0
  0
LINE
  5
9D
100
AcDbEntity
  8
MITTELLINIE
  6
AI9-LType2
 62
     7
100
AcDbLine
 10
171.950572
 20
152.689388
 30
0.0
 11
89.431234
 21
152.689388
 31
0.0
  0
LINE
  5
9B
100
AcDbEntity
  8
MITTELLINIE
  6
AI9-LType1
 62
     7
100
AcDbLine
 10
107.33884
 20
171.482901
 30
0.0
 11
120.826389
 21
171.482901
 31
0.0
  0
LINE
  5
9A
100
AcDbEntity
  8
MITTELLINIE
  6
AI9-LType1
 62
     7
100
AcDbLine
 10
106.831722
 20
134.135826
 30
0.0
 11
120.473611
 21
134.135826
 31
0.0
  0
LINE
  5
97
100
AcDbEntity
  8
AM_8
 62
     7
100
AcDbLine
 10
104.318869
 20
198.890702
 30
0.0
 11
85.079906
 21
201.818344
 31
0.0
  0
LINE
  5
96
100
AcDbEntity
  8
AM_8
 62
     7
100
AcDbLine
 10
100.536671
 20
116.261637
 30
0.0
 11
63.908072
 21
105.766154
 31
0.0
  0
LINE
  5
95
100
AcDbEntity
  8
AM_8
 62
     7
100
AcDbLine
 10
112.129245
 20
172.943277
 30
0.0
 11
66.501023
 21
165.744577
 31
0.0
  0
LINE
  5
93
100
AcDbEntity
  8
AM_0
 62
     7
100
AcDbLine
 10
160.395033
 20
128.689475
 30
0.0
 11
160.395033
 21
92.689261
 31
0.0
  0
LINE
  5
92
100
AcDbEntity
  8
AM_0
 62
     7
100
AcDbLine
 10
102.795104
 20
128.689475
 30
0.0
 11
102.795104
 21
92.561792
 31
0.0
  0
LINE
  5
91
100
AcDbEntity
  8
AM_0
 62
     7
100
AcDbLine
 10
102.795104
 20
176.929424
 30
0.0
 11
102.795104
 21
212.611312
 31
0.0
  0
LINE
  5
90
100
AcDbEntity
  8
AM_0
 62
     7
100
AcDbLine
 10
109.620871
 20
129.289266
 30
0.0
 11
107.700575
 21
129.289266
 31
0.0
  0
LINE
  5
8F
100
AcDbEntity
  8
AM_0
 62
     7
100
AcDbLine
 10
102.795104
 20
104.089426
 30
0.0
 11
106.395228
 21
104.089426
 31
0.0
  0
LINE
  5
8E
100
AcDbEntity
  8
AM_0
 62
     7
100
AcDbLine
 10
106.395228
 20
201.28935
 30
0.0
 11
102.795104
 21
201.28935
 31
0.0
  0
LINE
  5
8D
100
AcDbEntity
  8
AM_0
 62
     7
100
AcDbLine
 10
106.395228
 20
176.929424
 30
0.0
 11
100.340473
 21
176.929424
 31
0.0
  0
LINE
  5
8C
100
AcDbEntity
  8
AM_0
 62
     7
100
AcDbLine
 10
116.340875
 20
129.289266
 30
0.0
 11
114.420923
 21
129.289266
 31
0.0
  0
LINE
  5
8B
100
AcDbEntity
  8
AM_0
 62
     7
100
AcDbLine
 10
114.420923
 20
129.289266
 30
0.0
 11
114.420923
 21
176.329289
 31
0.0
  0
LINE
  5
8A
100
AcDbEntity
  8
AM_0
 62
     7
100
AcDbLine
 10
114.420923
 20
176.329289
 30
0.0
 11
116.340875
 21
176.329289
 31
0.0
  0
LINE
  5
89
100
AcDbEntity
  8
AM_0
 62
     7
100
AcDbLine
 10
114.420923
 20
128.809364
 30
0.0
 11
114.420923
 21
176.809363
 31
0.0
  0
LINE
  5
88
100
AcDbEntity
  8
AM_0
 62
     7
100
AcDbLine
 10
114.420923
 20
176.809363
 30
0.0
 11
109.620871
 21
176.809363
 31
0.0
  0
LINE
  5
87
100
AcDbEntity
  8
AM_0
 62
     7
100
AcDbLine
 10
109.620871
 20
176.809363
 30
0.0
 11
109.620871
 21
128.809364
 31
0.0
  0
LINE
  5
86
100
AcDbEntity
  8
AM_0
 62
     7
100
AcDbLine
 10
109.620871
 20
128.809364
 30
0.0
 11
114.420923
 21
128.809364
 31
0.0
  0
LINE
  5
85
100
AcDbEntity
  8
AM_0
 62
     7
100
AcDbLine
 10
109.620871
 20
176.329289
 30
0.0
 11
109.620871
 21
129.289266
 31
0.0
  0
LINE
  5
84
100
AcDbEntity
  8
AM_0
 62
     7
100
AcDbLine
 10
107.700575
 20
176.329289
 30
0.0
 11
109.620871
 21
176.329289
 31
0.0
  0
SPLINE
  5
83
100
AcDbEntity
  8
AM_0
 62
     7
100
AcDbSpline
210
0.0
220
0.0
230
1.0
 70
     8
 71
     3
 72
     8
 73
     4
 74
     0
 42
0.00000001
 43
0.00000001
 40
0.0
 40
0.0
 40
0.0
 40
0.0
 40
1.0
 40
1.0
 40
1.0
 40
1.0
 10
166.5858696831597
 20
149.75933430989582
 30
0.0
 10
168.16647949218748
 20
154.31805691189234
 30
0.0
 10
168.84964192708333
 20
159.13981255425347
 30
0.0
 10
168.59608289930554
 20
163.95812310112845
 30
0.0
  0
SPLINE
  5
82
100
AcDbEntity
  8
AM_0
 62
     7
100
AcDbSpline
210
0.0
220
0.0
230
1.0
 70
     8
 71
     3
 72
     8
 73
     4
 74
     0
 42
0.00000001
 43
0.00000001
 40
0.0
 40
0.0
 40
0.0
 40
0.0
 40
1.0
 40
1.0
 40
1.0
 40
1.0
 10
164.91327582465277
 20
156.69637858072915
 30
0.0
 10
165.37078450520832
 20
154.36094835069443
 30
0.0
 10
165.92854546440969
 20
152.04653320312499
 30
0.0
 10
166.5858696831597
 20
149.75933430989582
 30
0.0
  0
SPLINE
  5
81
100
AcDbEntity
  8
AM_0
 62
     7
100
AcDbSpline
210
0.0
220
0.0
230
1.0
 70
     8
 71
     3
 72
     8
 73
     4
 74
     0
 42
0.00000001
 43
0.00000001
 40
0.0
 40
0.0
 40
0.0
 40
0.0
 40
1.0
 40
1.0
 40
1.0
 40
1.0
 10
164.41339246961803
 20
163.99825846354165
 30
0.0
 10
164.27868923611109
 20
161.3987616644965
 30
0.0
 10
164.47678222656248
 20
158.79271918402776
 30
0.0
 10
165.00319281684025
 20
156.24352077907986
 30
0.0
  0
SPLINE
  5
80
100
AcDbEntity
  8
AM_0
 62
     7
100
AcDbSpline
210
0.0
220
0.0
230
1.0
 70
     8
 71
     3
 72
     8
 73
     4
 74
     0
 42
0.00000001
 43
0.00000001
 40
0.0
 40
0.0
 40
0.0
 40
0.0
 40
1.0
 40
1.0
 40
1.0
 40
1.0
 10
166.5858696831597
 20
149.75933430989582
 30
0.0
 10
167.54739583333333
 20
154.37025010850692
 30
0.0
 10
167.82265896267359
 20
159.0979546440972
 30
0.0
 10
167.40304633246527
 20
163.78931342230902
 30
0.0
  0
SPLINE
  5
7F
100
AcDbEntity
  8
AM_0
 62
     7
100
AcDbSpline
210
0.0
220
0.0
230
1.0
 70
     8
 71
     3
 72
     8
 73
     4
 74
     0
 42
0.00000001
 43
0.00000001
 40
0.0
 40
0.0
 40
0.0
 40
0.0
 40
1.0
 40
1.0
 40
1.0
 40
1.0
 10
165.60298394097219
 20
163.78931342230902
 30
0.0
 10
165.27535536024305
 20
159.08968641493055
 30
0.0
 10
165.60608452690971
 20
154.36749403211803
 30
0.0
 10
166.5858696831597
 20
149.75933430989582
 30
0.0
  0
SPLINE
  5
7E
100
AcDbEntity
  8
AM_0
 62
     7
100
AcDbSpline
210
0.0
220
0.0
230
1.0
 70
     8
 71
     3
 72
    11
 73
     7
 74
     0
 42
0.00000001
 43
0.00000001
 40
0.0
 40
0.0
 40
0.0
 40
0.0
 40
1.0
 40
1.0
 40
1.0
 40
2.0
 40
2.0
 40
2.0
 40
2.0
 10
167.40304633246527
 20
163.78931342230902
 30
0.0
 10
167.40304633246527
 20
164.28644070095484
 30
0.0
 10
166.99997016059027
 20
164.68934461805554
 30
0.0
 10
166.50318739149304
 20
164.68934461805554
 30
0.0
 10
166.00606011284719
 20
164.68934461805554
 30
0.0
 10
165.60298394097219
 20
164.28644070095484
 30
0.0
 10
165.60298394097219
 20
163.78931342230902
 30
0.0
  0
SPLINE
  5
7D
100
AcDbEntity
  8
AM_0
 62
     7
100
AcDbSpline
210
0.0
220
0.0
230
1.0
 70
     8
 71
     3
 72
    11
 73
     7
 74
     0
 42
0.00000001
 43
0.00000001
 40
0.0
 40
0.0
 40
0.0
 40
0.0
 40
1.0
 40
1.0
 40
1.0
 40
2.0
 40
2.0
 40
2.0
 40
2.0
 10
168.60262858072915
 20
163.83375515407985
 30
0.0
 10
168.57782389322915
 20
164.99337429470484
 30
0.0
 10
167.61836480034719
 20
165.91338704427082
 30
0.0
 10
166.45874565972221
 20
165.88875461154512
 30
0.0
 10
165.31359592013888
 20
165.86463894314235
 30
0.0
 10
164.3996120876736
 20
164.92791748046872
 30
0.0
 10
164.40305718315972
 20
163.78293999565972
 30
0.0
  0
SPLINE
  5
7C
100
AcDbEntity
  8
AM_0
 62
     7
100
AcDbSpline
210
0.0
220
0.0
230
1.0
 70
     8
 71
     3
 72
     8
 73
     4
 74
     0
 42
0.00000001
 43
0.00000001
 40
0.0
 40
0.0
 40
0.0
 40
0.0
 40
1.0
 40
1.0
 40
1.0
 40
1.0
 10
93.847673882378459
 20
155.61926947699652
 30
0.0
 10
92.26671956380207
 20
151.060546875
 30
0.0
 10
91.583901638454847
 20
146.23879123263887
 30
0.0
 10
91.837288411458331
 20
141.42048068576386
 30
0.0
  0
SPLINE
  5
7B
100
AcDbEntity
  8
AM_0
 62
     7
100
AcDbSpline
210
0.0
220
0.0
230
1.0
 70
     8
 71
     3
 72
     8
 73
     4
 74
     0
 42
0.00000001
 43
0.00000001
 40
0.0
 40
0.0
 40
0.0
 40
0.0
 40
1.0
 40
1.0
 40
1.0
 40
1.0
 10
94.830387369791652
 20
141.58929036458332
 30
0.0
 10
95.158188205295133
 20
146.28874511718749
 30
0.0
 10
94.827286783854163
 20
151.01128200954861
 30
0.0
 10
93.847673882378459
 20
155.61926947699652
 30
0.0
  0
SPLINE
  5
7A
100
AcDbEntity
  8
AM_0
 62
     7
100
AcDbSpline
210
0.0
220
0.0
230
1.0
 70
     8
 71
     3
 72
     8
 73
     4
 74
     0
 42
0.00000001
 43
0.00000001
 40
0.0
 40
0.0
 40
0.0
 40
0.0
 40
1.0
 40
1.0
 40
1.0
 40
1.0
 10
96.019978841145829
 20
141.38017306857637
 30
0.0
 10
96.154682074652769
 20
143.97984212239581
 30
0.0
 10
95.956589084201383
 20
146.58605685763888
 30
0.0
 10
95.430006239149293
 20
149.13508300781248
 30
0.0
  0
SPLINE
  5
79
100
AcDbEntity
  8
AM_0
 62
     7
100
AcDbSpline
210
0.0
220
0.0
230
1.0
 70
     8
 71
     3
 72
     8
 73
     4
 74
     0
 42
0.00000001
 43
0.00000001
 40
0.0
 40
0.0
 40
0.0
 40
0.0
 40
1.0
 40
1.0
 40
1.0
 40
1.0
 10
93.847673882378459
 20
155.61926947699652
 30
0.0
 10
92.885975477430549
 20
151.00852593315972
 30
0.0
 10
92.610540093315961
 20
146.28082139756944
 30
0.0
 10
93.030324978298609
 20
141.58929036458332
 30
0.0
  0
SPLINE
  5
78
100
AcDbEntity
  8
AM_0
 62
     7
100
AcDbSpline
210
0.0
220
0.0
230
1.0
 70
     8
 71
     3
 72
     8
 73
     4
 74
     0
 42
0.00000001
 43
0.00000001
 40
0.0
 40
0.0
 40
0.0
 40
0.0
 40
1.0
 40
1.0
 40
1.0
 40
1.0
 10
95.520095486111103
 20
148.68239746093749
 30
0.0
 10
95.062759060329853
 20
151.01782769097221
 30
0.0
 10
94.504825846354152
 20
153.33224283854165
 30
0.0
 10
93.847673882378459
 20
155.61926947699652
 30
0.0
  0
SPLINE
  5
77
100
AcDbEntity
  8
AM_0
 62
     7
100
AcDbSpline
210
0.0
220
0.0
230
1.0
 70
     8
 71
     3
 72
    11
 73
     7
 74
     0
 42
0.00000001
 43
0.00000001
 40
0.0
 40
0.0
 40
0.0
 40
0.0
 40
1.0
 40
1.0
 40
1.0
 40
2.0
 40
2.0
 40
2.0
 40
2.0
 10
93.030324978298609
 20
141.58929036458332
 30
0.0
 10
93.030324978298609
 20
141.0921630859375
 30
0.0
 10
93.433228895399296
 20
140.6894314236111
 30
0.0
 10
93.93035617404513
 20
140.6894314236111
 30
0.0
 10
94.427311197916652
 20
140.6894314236111
 30
0.0
 10
94.830387369791652
 20
141.0921630859375
 30
0.0
 10
94.830387369791652
 20
141.58929036458332
 30
0.0
  0
SPLINE
  5
76
100
AcDbEntity
  8
AM_0
 62
     7
100
AcDbSpline
210
0.0
220
0.0
230
1.0
 70
     8
 71
     3
 72
    11
 73
     7
 74
     0
 42
0.00000001
 43
0.00000001
 40
0.0
 40
0.0
 40
0.0
 40
0.0
 40
1.0
 40
1.0
 40
1.0
 40
2.0
 40
2.0
 40
2.0
 40
2.0
 10
91.830742730034714
 20
141.54484863281249
 30
0.0
 10
91.855547417534709
 20
140.38522949218748
 30
0.0
 10
92.815178765190964
 20
139.46538899739582
 30
0.0
 10
93.974625651041663
 20
139.48984917534722
 30
0.0
 10
95.119603135850681
 20
139.51396484374999
 30
0.0
 10
96.03393147786457
 20
140.45068630642359
 30
0.0
 10
96.030314127604157
 20
141.59583604600692
 30
0.0
  0
LINE
  5
75
100
AcDbEntity
  8
AM_0
 62
     7
100
AcDbLine
 10
102.795104
 20
128.449352
 30
0.0
 11
102.795104
 21
92.76712
 31
0.0
  0
HATCH
  5
74
100
AcDbEntity
  8
AM_0
 62
     7
100
AcDbHatch
 10
0.0
 20
0.0
 30
0.0
210
0.0
220
0.0
230
1.0
  2
SOLID
 70
     1
 71
     0
 91
        6
 92
       16
 93
        1
 72
     4
 94
        3
 73
     0
 74
     0
 95
       17
 96
       13
 40
0.0
 40
0.0
 40
0.0
 40
0.0
 40
1.0
 40
1.0
 40
1.0
 40
2.0
 40
2.0
 40
2.0
 40
3.0
 40
3.0
 40
3.0
 40
4.0
 40
4.0
 40
4.0
 40
4.0
 10
102.79510362413194
 20
96.719333224826386
 10
102.79510362413194
 20
96.719333224826386
 10
100.39490559895832
 20
96.719333224826386
 10
100.39490559895832
 20
96.719333224826386
 10
100.39490559895832
 20
96.719333224826386
 10
100.39490559895832
 20
93.522629123263883
 10
100.39490559895832
 20
93.522629123263883
 10
100.39490559895832
 20
93.522629123263883
 10
102.79510362413194
 20
93.522629123263883
 10
102.79510362413194
 20
93.522629123263883
 10
102.79510362413194
 20
93.522629123263883
 10
102.79510362413194
 20
96.719333224826386
 10
102.79510362413194
 20
96.719333224826386
 97
        0
 92
       16
 93
        1
 72
     4
 94
        3
 73
     0
 74
     0
 95
       17
 96
       13
 40
0.0
 40
0.0
 40
0.0
 40
0.0
 40
1.0
 40
1.0
 40
1.0
 40
2.0
 40
2.0
 40
2.0
 40
3.0
 40
3.0
 40
3.0
 40
4.0
 40
4.0
 40
4.0
 40
4.0
 10
102.79510362413194
 20
103.1134304470486
 10
102.79510362413194
 20
103.1134304470486
 10
100.39490559895832
 20
103.1134304470486
 10
100.39490559895832
 20
103.1134304470486
 10
100.39490559895832
 20
103.1134304470486
 10
100.39490559895832
 20
99.916381835937486
 10
100.39490559895832
 20
99.916381835937486
 10
100.39490559895832
 20
99.916381835937486
 10
102.79510362413194
 20
99.916381835937486
 10
102.79510362413194
 20
99.916381835937486
 10
102.79510362413194
 20
99.916381835937486
 10
102.79510362413194
 20
103.1134304470486
 10
102.79510362413194
 20
103.1134304470486
 97
        0
 92
       16
 93
        1
 72
     4
 94
        3
 73
     0
 74
     0
 95
       17
 96
       13
 40
0.0
 40
0.0
 40
0.0
 40
0.0
 40
1.0
 40
1.0
 40
1.0
 40
2.0
 40
2.0
 40
2.0
 40
3.0
 40
3.0
 40
3.0
 40
4.0
 40
4.0
 40
4.0
 40
4.0
 10
102.79510362413194
 20
109.50752766927083
 10
102.79510362413194
 20
109.50752766927083
 10
100.39490559895832
 20
109.50752766927083
 10
100.39490559895832
 20
109.50752766927083
 10
100.39490559895832
 20
109.50752766927083
 10
100.39490559895832
 20
106.31047905815971
 10
100.39490559895832
 20
106.31047905815971
 10
100.39490559895832
 20
106.31047905815971
 10
102.79510362413194
 20
106.31047905815971
 10
102.79510362413194
 20
106.31047905815971
 10
102.79510362413194
 20
106.31047905815971
 10
102.79510362413194
 20
109.50752766927083
 10
102.79510362413194
 20
109.50752766927083
 97
        0
 92
       16
 93
        1
 72
     4
 94
        3
 73
     0
 74
     0
 95
       17
 96
       13
 40
0.0
 40
0.0
 40
0.0
 40
0.0
 40
1.0
 40
1.0
 40
1.0
 40
2.0
 40
2.0
 40
2.0
 40
3.0
 40
3.0
 40
3.0
 40
4.0
 40
4.0
 40
4.0
 40
4.0
 10
102.79510362413194
 20
115.90128038194443
 10
102.79510362413194
 20
115.90128038194443
 10
100.39490559895832
 20
115.90128038194443
 10
100.39490559895832
 20
115.90128038194443
 10
100.39490559895832
 20
115.90128038194443
 10
100.39490559895832
 20
112.70457628038193
 10
100.39490559895832
 20
112.70457628038193
 10
100.39490559895832
 20
112.70457628038193
 10
102.79510362413194
 20
112.70457628038193
 10
102.79510362413194
 20
112.70457628038193
 10
102.79510362413194
 20
112.70457628038193
 10
102.79510362413194
 20
115.90128038194443
 10
102.79510362413194
 20
115.90128038194443
 97
        0
 92
       16
 93
        1
 72
     4
 94
        3
 73
     0
 74
     0
 95
       17
 96
       13
 40
0.0
 40
0.0
 40
0.0
 40
0.0
 40
1.0
 40
1.0
 40
1.0
 40
2.0
 40
2.0
 40
2.0
 40
3.0
 40
3.0
 40
3.0
 40
4.0
 40
4.0
 40
4.0
 40
4.0
 10
102.79510362413194
 20
122.29537760416666
 10
102.79510362413194
 20
122.29537760416666
 10
100.39490559895832
 20
122.29537760416666
 10
100.39490559895832
 20
122.29537760416666
 10
100.39490559895832
 20
122.29537760416666
 10
100.39490559895832
 20
119.09832899305555
 10
100.39490559895832
 20
119.09832899305555
 10
100.39490559895832
 20
119.09832899305555
 10
102.79510362413194
 20
119.09832899305555
 10
102.79510362413194
 20
119.09832899305555
 10
102.79510362413194
 20
119.09832899305555
 10
102.79510362413194
 20
122.29537760416666
 10
102.79510362413194
 20
122.29537760416666
 97
        0
 92
       16
 93
        1
 72
     4
 94
        3
 73
     0
 74
     0
 95
       17
 96
       13
 40
0.0
 40
0.0
 40
0.0
 40
0.0
 40
1.0
 40
1.0
 40
1.0
 40
2.0
 40
2.0
 40
2.0
 40
3.0
 40
3.0
 40
3.0
 40
4.0
 40
4.0
 40
4.0
 40
4.0
 10
102.79510362413194
 20
128.68947482638887
 10
102.79510362413194
 20
128.68947482638887
 10
100.39490559895832
 20
128.68947482638887
 10
100.39490559895832
 20
128.68947482638887
 10
100.39490559895832
 20
128.68947482638887
 10
100.39490559895832
 20
125.49242621527776
 10
100.39490559895832
 20
125.49242621527776
 10
100.39490559895832
 20
125.49242621527776
 10
102.79510362413194
 20
125.49242621527776
 10
102.79510362413194
 20
125.49242621527776
 10
102.79510362413194
 20
125.49242621527776
 10
102.79510362413194
 20
128.68947482638887
 10
102.79510362413194
 20
128.68947482638887
 97
        0
 75
     0
 76
     1
 98
        1
 10
0.0
 20
0.0
  0
HATCH
  5
73
100
AcDbEntity
  8
AM_0
 62
     7
100
AcDbHatch
 10
0.0
 20
0.0
 30
0.0
210
0.0
220
0.0
230
1.0
  2
SOLID
 70
     1
 71
     0
 91
        6
 92
       16
 93
        1
 72
     4
 94
        3
 73
     0
 74
     0
 95
       17
 96
       13
 40
0.0
 40
0.0
 40
0.0
 40
0.0
 40
1.0
 40
1.0
 40
1.0
 40
2.0
 40
2.0
 40
2.0
 40
3.0
 40
3.0
 40
3.0
 40
4.0
 40
4.0
 40
4.0
 40
4.0
 10
102.79510362413194
 20
180.05894911024305
 10
102.79510362413194
 20
180.05894911024305
 10
100.39490559895832
 20
180.05894911024305
 10
100.39490559895832
 20
180.05894911024305
 10
100.39490559895832
 20
180.05894911024305
 10
100.39490559895832
 20
176.87912597656248
 10
100.39490559895832
 20
176.87912597656248
 10
100.39490559895832
 20
176.87912597656248
 10
102.79510362413194
 20
176.87912597656248
 10
102.79510362413194
 20
176.87912597656248
 10
102.79510362413194
 20
176.87912597656248
 10
102.79510362413194
 20
180.05894911024305
 10
102.79510362413194
 20
180.05894911024305
 97
        0
 92
       16
 93
        1
 72
     4
 94
        3
 73
     0
 74
     0
 95
       17
 96
       13
 40
0.0
 40
0.0
 40
0.0
 40
0.0
 40
1.0
 40
1.0
 40
1.0
 40
2.0
 40
2.0
 40
2.0
 40
3.0
 40
3.0
 40
3.0
 40
4.0
 40
4.0
 40
4.0
 40
4.0
 10
102.79510362413194
 20
186.41842312282984
 10
102.79510362413194
 20
186.41842312282984
 10
100.39490559895832
 20
186.41842312282984
 10
100.39490559895832
 20
186.41842312282984
 10
100.39490559895832
 20
186.41842312282984
 10
100.39490559895832
 20
183.23859998914929
 10
100.39490559895832
 20
183.23859998914929
 10
100.39490559895832
 20
183.23859998914929
 10
102.79510362413194
 20
183.23859998914929
 10
102.79510362413194
 20
183.23859998914929
 10
102.79510362413194
 20
183.23859998914929
 10
102.79510362413194
 20
186.41842312282984
 10
102.79510362413194
 20
186.41842312282984
 97
        0
 92
       16
 93
        1
 72
     4
 94
        3
 73
     0
 74
     0
 95
       17
 96
       13
 40
0.0
 40
0.0
 40
0.0
 40
0.0
 40
1.0
 40
1.0
 40
1.0
 40
2.0
 40
2.0
 40
2.0
 40
3.0
 40
3.0
 40
3.0
 40
4.0
 40
4.0
 40
4.0
 40
4.0
 10
102.79510362413194
 20
192.77772488064235
 10
102.79510362413194
 20
192.77772488064235
 10
100.39490559895832
 20
192.77772488064235
 10
100.39490559895832
 20
192.77772488064235
 10
100.39490559895832
 20
192.77772488064235
 10
100.39490559895832
 20
189.59807400173608
 10
100.39490559895832
 20
189.59807400173608
 10
100.39490559895832
 20
189.59807400173608
 10
102.79510362413194
 20
189.59807400173608
 10
102.79510362413194
 20
189.59807400173608
 10
102.79510362413194
 20
189.59807400173608
 10
102.79510362413194
 20
192.77772488064235
 10
102.79510362413194
 20
192.77772488064235
 97
        0
 92
       16
 93
        1
 72
     4
 94
        3
 73
     0
 74
     0
 95
       17
 96
       13
 40
0.0
 40
0.0
 40
0.0
 40
0.0
 40
1.0
 40
1.0
 40
1.0
 40
2.0
 40
2.0
 40
2.0
 40
3.0
 40
3.0
 40
3.0
 40
4.0
 40
4.0
 40
4.0
 40
4.0
 10
102.79510362413194
 20
199.13737114800347
 10
102.79510362413194
 20
199.13737114800347
 10
100.39490559895832
 20
199.13737114800347
 10
100.39490559895832
 20
199.13737114800347
 10
100.39490559895832
 20
199.13737114800347
 10
100.39490559895832
 20
195.9575480143229
 10
100.39490559895832
 20
195.9575480143229
 10
100.39490559895832
 20
195.9575480143229
 10
102.79510362413194
 20
195.9575480143229
 10
102.79510362413194
 20
195.9575480143229
 10
102.79510362413194
 20
195.9575480143229
 10
102.79510362413194
 20
199.13737114800347
 10
102.79510362413194
 20
199.13737114800347
 97
        0
 92
       16
 93
        1
 72
     4
 94
        3
 73
     0
 74
     0
 95
       17
 96
       13
 40
0.0
 40
0.0
 40
0.0
 40
0.0
 40
1.0
 40
1.0
 40
1.0
 40
2.0
 40
2.0
 40
2.0
 40
3.0
 40
3.0
 40
3.0
 40
4.0
 40
4.0
 40
4.0
 40
4.0
 10
102.79510362413194
 20
205.49667290581596
 10
102.79510362413194
 20
205.49667290581596
 10
100.39490559895832
 20
205.49667290581596
 10
100.39490559895832
 20
205.49667290581596
 10
100.39490559895832
 20
205.49667290581596
 10
100.39490559895832
 20
202.31702202690971
 10
100.39490559895832
 20
202.31702202690971
 10
100.39490559895832
 20
202.31702202690971
 10
102.79510362413194
 20
202.31702202690971
 10
102.79510362413194
 20
202.31702202690971
 10
102.79510362413194
 20
202.31702202690971
 10
102.79510362413194
 20
205.49667290581596
 10
102.79510362413194
 20
205.49667290581596
 97
        0
 92
       16
 93
        1
 72
     4
 94
        3
 73
     0
 74
     0
 95
       17
 96
       13
 40
0.0
 40
0.0
 40
0.0
 40
0.0
 40
1.0
 40
1.0
 40
1.0
 40
2.0
 40
2.0
 40
2.0
 40
3.0
 40
3.0
 40
3.0
 40
4.0
 40
4.0
 40
4.0
 40
4.0
 10
102.79510362413194
 20
211.85631917317707
 10
102.79510362413194
 20
211.85631917317707
 10
100.39490559895832
 20
211.85631917317707
 10
100.39490559895832
 20
211.85631917317707
 10
100.39490559895832
 20
211.85631917317707
 10
100.39490559895832
 20
208.6764960394965
 10
100.39490559895832
 20
208.6764960394965
 10
100.39490559895832
 20
208.6764960394965
 10
102.79510362413194
 20
208.6764960394965
 10
102.79510362413194
 20
208.6764960394965
 10
102.79510362413194
 20
208.6764960394965
 10
102.79510362413194
 20
211.85631917317707
 10
102.79510362413194
 20
211.85631917317707
 97
        0
 75
     0
 76
     1
 98
        1
 10
0.0
 20
0.0
  0
LINE
  5
72
100
AcDbEntity
  8
AM_0
 62
     7
100
AcDbLine
 10
102.795104
 20
165.889271
 30
0.0
 11
102.795104
 21
201.28935
 31
0.0
  0
LINE
  5
71
100
AcDbEntity
  8
AM_0
 62
     7
100
AcDbLine
 10
100.394906
 20
165.889271
 30
0.0
 11
100.394906
 21
212.887264
 31
0.0
  0
LINE
  5
70
100
AcDbEntity
  8
AM_0
 62
     7
100
AcDbLine
 10
102.795104
 20
139.489505
 30
0.0
 11
102.795104
 21
104.089426
 31
0.0
  0
LINE
  5
6F
100
AcDbEntity
  8
AM_0
 62
     7
100
AcDbLine
 10
102.795104
 20
139.489505
 30
0.0
 11
102.795104
 21
104.089426
 31
0.0
  0
LINE
  5
6E
100
AcDbEntity
  8
AM_0
 62
     7
100
AcDbLine
 10
100.394906
 20
139.489505
 30
0.0
 11
100.394906
 21
92.743004
 31
0.0
  0
POLYLINE
  5
67
100
AcDbEntity
  8
SCHRAUBE
 62
     7
100
AcDb2dPolyline
 66
     1
 10
0.0
 20
0.0
 30
0.0
 70
     1
  0
VERTEX
  5
68
100
AcDbEntity
  8
SCHRAUBE
 62
     7
100
AcDbVertex
100
AcDb2dVertex
 10
116.340875
 20
173.786808
 30
0.0
  0
VERTEX
  5
69
100
AcDbEntity
  8
SCHRAUBE
 62
     7
100
AcDbVertex
100
AcDb2dVertex
 10
116.340875
 20
169.178993
 30
0.0
  0
VERTEX
  5
6A
100
AcDbEntity
  8
SCHRAUBE
 62
     7
100
AcDbVertex
100
AcDb2dVertex
 10
116.820776
 20
169.178993
 30
0.0
  0
VERTEX
  5
6B
100
AcDbEntity
  8
SCHRAUBE
 62
     7
100
AcDbVertex
100
AcDb2dVertex
 10
116.820776
 20
173.786808
 30
0.0
  0
SEQEND
  5
6C
100
AcDbEntity
  8
SCHRAUBE
 62
     7
  0
LINE
  5
66
100
AcDbEntity
  8
SCHRAUBE
 62
     7
100
AcDbLine
 10
116.820776
 20
172.779462
 30
0.0
 11
116.820776
 21
170.186339
 31
0.0
  0
SPLINE
  5
65
100
AcDbEntity
  8
SCHRAUBE
 62
     7
100
AcDbSpline
210
0.0
220
0.0
230
1.0
 70
     8
 71
     3
 72
     8
 73
     4
 74
     0
 42
0.00000001
 43
0.00000001
 40
0.0
 40
0.0
 40
0.0
 40
0.0
 40
1.0
 40
1.0
 40
1.0
 40
1.0
 10
116.96925998263887
 20
170.61852620442707
 30
0.0
 10
116.7715115017361
 20
171.17783745659722
 30
0.0
 10
116.7715115017361
 20
171.78796386718747
 30
0.0
 10
116.96925998263887
 20
172.34710286458332
 30
0.0
  0
SPLINE
  5
64
100
AcDbEntity
  8
SCHRAUBE
 62
     7
100
AcDbSpline
210
0.0
220
0.0
230
1.0
 70
     8
 71
     3
 72
     8
 73
     4
 74
     0
 42
0.00000001
 43
0.00000001
 40
0.0
 40
0.0
 40
0.0
 40
0.0
 40
1.0
 40
1.0
 40
1.0
 40
1.0
 10
118.30457899305554
 20
172.34710286458332
 30
0.0
 10
118.50232747395832
 20
171.78796386718747
 30
0.0
 10
118.50232747395832
 20
171.17783745659722
 30
0.0
 10
118.30457899305554
 20
170.61852620442707
 30
0.0
  0
LINE
  5
63
100
AcDbEntity
  8
SCHRAUBE
 62
     7
100
AcDbLine
 10
118.452718
 20
172.779462
 30
0.0
 11
118.452718
 21
170.186339
 31
0.0
  0
LINE
  5
62
100
AcDbEntity
  8
SCHRAUBE
 62
     7
100
AcDbLine
 10
116.96926
 20
173.21165
 30
0.0
 11
118.304579
 21
173.21165
 31
0.0
  0
LINE
  5
61
100
AcDbEntity
  8
SCHRAUBE
 62
     7
100
AcDbLine
 10
116.96926
 20
172.347103
 30
0.0
 11
118.304579
 21
172.347103
 31
0.0
  0
SPLINE
  5
60
100
AcDbEntity
  8
SCHRAUBE
 62
     7
100
AcDbSpline
210
0.0
220
0.0
230
1.0
 70
     8
 71
     3
 72
     8
 73
     4
 74
     0
 42
0.00000001
 43
0.00000001
 40
0.0
 40
0.0
 40
0.0
 40
0.0
 40
1.0
 40
1.0
 40
1.0
 40
1.0
 10
118.30457899305554
 20
173.21164957682291
 30
0.0
 10
118.50232747395832
 20
172.9575737847222
 30
0.0
 10
118.50232747395832
 20
172.60135091145833
 30
0.0
 10
118.30457899305554
 20
172.34710286458332
 30
0.0
  0
SPLINE
  5
5F
100
AcDbEntity
  8
SCHRAUBE
 62
     7
100
AcDbSpline
210
0.0
220
0.0
230
1.0
 70
     8
 71
     3
 72
     8
 73
     4
 74
     0
 42
0.00000001
 43
0.00000001
 40
0.0
 40
0.0
 40
0.0
 40
0.0
 40
1.0
 40
1.0
 40
1.0
 40
1.0
 10
116.96925998263887
 20
172.34710286458332
 30
0.0
 10
116.7715115017361
 20
172.60135091145833
 30
0.0
 10
116.7715115017361
 20
172.9575737847222
 30
0.0
 10
116.96925998263887
 20
173.21164957682291
 30
0.0
  0
SPLINE
  5
5E
100
AcDbEntity
  8
SCHRAUBE
 62
     7
100
AcDbSpline
210
0.0
220
0.0
230
1.0
 70
     8
 71
     3
 72
     8
 73
     4
 74
     0
 42
0.00000001
 43
0.00000001
 40
0.0
 40
0.0
 40
0.0
 40
0.0
 40
1.0
 40
1.0
 40
1.0
 40
1.0
 10
116.96925998263887
 20
169.75397949218748
 30
0.0
 10
116.7715115017361
 20
170.00822753906249
 30
0.0
 10
116.7715115017361
 20
170.36427815755206
 30
0.0
 10
116.96925998263887
 20
170.61852620442707
 30
0.0
  0
SPLINE
  5
5D
100
AcDbEntity
  8
SCHRAUBE
 62
     7
100
AcDbSpline
210
0.0
220
0.0
230
1.0
 70
     8
 71
     3
 72
     8
 73
     4
 74
     0
 42
0.00000001
 43
0.00000001
 40
0.0
 40
0.0
 40
0.0
 40
0.0
 40
1.0
 40
1.0
 40
1.0
 40
1.0
 10
118.30457899305554
 20
170.61852620442707
 30
0.0
 10
118.50232747395832
 20
170.36427815755206
 30
0.0
 10
118.50232747395832
 20
170.00822753906249
 30
0.0
 10
118.30457899305554
 20
169.75397949218748
 30
0.0
  0
LINE
  5
5C
100
AcDbEntity
  8
SCHRAUBE
 62
     7
100
AcDbLine
 10
116.96926
 20
170.618526
 30
0.0
 11
118.304579
 21
170.618526
 31
0.0
  0
LINE
  5
5B
100
AcDbEntity
  8
SCHRAUBE
 62
     7
100
AcDbLine
 10
116.96926
 20
169.753979
 30
0.0
 11
118.304579
 21
169.753979
 31
0.0
  0
POLYLINE
  5
55
100
AcDbEntity
  8
SCHRAUBE
 62
     7
100
AcDb2dPolyline
 66
     1
 10
0.0
 20
0.0
 30
0.0
 70
     1
  0
VERTEX
  5
56
100
AcDbEntity
  8
SCHRAUBE
 62
     7
100
AcDbVertex
100
AcDb2dVertex
 10
116.340875
 20
131.831746
 30
0.0
  0
VERTEX
  5
57
100
AcDbEntity
  8
SCHRAUBE
 62
     7
100
AcDbVertex
100
AcDb2dVertex
 10
116.340875
 20
136.439906
 30
0.0
  0
VERTEX
  5
58
100
AcDbEntity
  8
SCHRAUBE
 62
     7
100
AcDbVertex
100
AcDb2dVertex
 10
116.820776
 20
136.439906
 30
0.0
  0
VERTEX
  5
59
100
AcDbEntity
  8
SCHRAUBE
 62
     7
100
AcDbVertex
100
AcDb2dVertex
 10
116.820776
 20
131.831746
 30
0.0
  0
SEQEND
  5
5A
100
AcDbEntity
  8
SCHRAUBE
 62
     7
  0
LINE
  5
54
100
AcDbEntity
  8
SCHRAUBE
 62
     7
100
AcDbLine
 10
116.820776
 20
135.43256
 30
0.0
 11
116.820776
 21
132.839092
 31
0.0
  0
SPLINE
  5
53
100
AcDbEntity
  8
SCHRAUBE
 62
     7
100
AcDbSpline
210
0.0
220
0.0
230
1.0
 70
     8
 71
     3
 72
     8
 73
     4
 74
     0
 42
0.00000001
 43
0.00000001
 40
0.0
 40
0.0
 40
0.0
 40
0.0
 40
1.0
 40
1.0
 40
1.0
 40
1.0
 10
116.96925998263887
 20
133.27145182291665
 30
0.0
 10
116.7715115017361
 20
133.83059082031249
 30
0.0
 10
116.7715115017361
 20
134.44106174045137
 30
0.0
 10
116.96925998263887
 20
135.00020073784722
 30
0.0
  0
SPLINE
  5
52
100
AcDbEntity
  8
SCHRAUBE
 62
     7
100
AcDbSpline
210
0.0
220
0.0
230
1.0
 70
     8
 71
     3
 72
     8
 73
     4
 74
     0
 42
0.00000001
 43
0.00000001
 40
0.0
 40
0.0
 40
0.0
 40
0.0
 40
1.0
 40
1.0
 40
1.0
 40
1.0
 10
118.30457899305554
 20
135.00020073784722
 30
0.0
 10
118.50232747395832
 20
134.44106174045137
 30
0.0
 10
118.50232747395832
 20
133.83059082031249
 30
0.0
 10
118.30457899305554
 20
133.27145182291665
 30
0.0
  0
LINE
  5
51
100
AcDbEntity
  8
SCHRAUBE
 62
     7
100
AcDbLine
 10
118.452718
 20
135.43256
 30
0.0
 11
118.452718
 21
132.839092
 31
0.0
  0
LINE
  5
50
100
AcDbEntity
  8
SCHRAUBE
 62
     7
100
AcDbLine
 10
116.96926
 20
135.864575
 30
0.0
 11
118.304579
 21
135.864575
 31
0.0
  0
LINE
  5
4F
100
AcDbEntity
  8
SCHRAUBE
 62
     7
100
AcDbLine
 10
116.96926
 20
135.000201
 30
0.0
 11
118.304579
 21
135.000201
 31
0.0
  0
SPLINE
  5
4E
100
AcDbEntity
  8
SCHRAUBE
 62
     7
100
AcDbSpline
210
0.0
220
0.0
230
1.0
 70
     8
 71
     3
 72
     8
 73
     4
 74
     0
 42
0.00000001
 43
0.00000001
 40
0.0
 40
0.0
 40
0.0
 40
0.0
 40
1.0
 40
1.0
 40
1.0
 40
1.0
 10
118.30457899305554
 20
135.86457519531248
 30
0.0
 10
118.50232747395832
 20
135.61032714843748
 30
0.0
 10
118.50232747395832
 20
135.2544487847222
 30
0.0
 10
118.30457899305554
 20
135.00020073784722
 30
0.0
  0
SPLINE
  5
4D
100
AcDbEntity
  8
SCHRAUBE
 62
     7
100
AcDbSpline
210
0.0
220
0.0
230
1.0
 70
     8
 71
     3
 72
     8
 73
     4
 74
     0
 42
0.00000001
 43
0.00000001
 40
0.0
 40
0.0
 40
0.0
 40
0.0
 40
1.0
 40
1.0
 40
1.0
 40
1.0
 10
116.96925998263887
 20
135.00020073784722
 30
0.0
 10
116.7715115017361
 20
135.2544487847222
 30
0.0
 10
116.7715115017361
 20
135.61032714843748
 30
0.0
 10
116.96925998263887
 20
135.86457519531248
 30
0.0
  0
SPLINE
  5
4C
100
AcDbEntity
  8
SCHRAUBE
 62
     7
100
AcDbSpline
210
0.0
220
0.0
230
1.0
 70
     8
 71
     3
 72
     8
 73
     4
 74
     0
 42
0.00000001
 43
0.00000001
 40
0.0
 40
0.0
 40
0.0
 40
0.0
 40
1.0
 40
1.0
 40
1.0
 40
1.0
 10
116.96925998263887
 20
132.40707736545139
 30
0.0
 10
116.7715115017361
 20
132.66132541232636
 30
0.0
 10
116.7715115017361
 20
133.01720377604167
 30
0.0
 10
116.96925998263887
 20
133.27145182291665
 30
0.0
  0
SPLINE
  5
4B
100
AcDbEntity
  8
SCHRAUBE
 62
     7
100
AcDbSpline
210
0.0
220
0.0
230
1.0
 70
     8
 71
     3
 72
     8
 73
     4
 74
     0
 42
0.00000001
 43
0.00000001
 40
0.0
 40
0.0
 40
0.0
 40
0.0
 40
1.0
 40
1.0
 40
1.0
 40
1.0
 10
118.30457899305554
 20
133.27145182291665
 30
0.0
 10
118.50232747395832
 20
133.01720377604167
 30
0.0
 10
118.50232747395832
 20
132.66132541232636
 30
0.0
 10
118.30457899305554
 20
132.40707736545139
 30
0.0
  0
LINE
  5
4A
100
AcDbEntity
  8
SCHRAUBE
 62
     7
100
AcDbLine
 10
116.96926
 20
133.271452
 30
0.0
 11
118.304579
 21
133.271452
 31
0.0
  0
LINE
  5
49
100
AcDbEntity
  8
SCHRAUBE
 62
     7
100
AcDbLine
 10
116.96926
 20
132.407077
 30
0.0
 11
118.304579
 21
132.407077
 31
0.0
  0
MTEXT
  5
47
100
AcDbEntity
  8
TEXT
 62
     7
100
AcDbMText
 10
34.156227
 20
187.605947
 30
0.0
 40
5.512152
 41
0.0
 71
     1
 72
     2
  1
\fArial|b0|i0;\H5.5122;\C7;\U+0066\U+006C\U+0061\U+006E\U+0073\U+0063\U+0068
  7
STD
210
0.0
220
0.0
230
1.0
 73
     1
 44
1.0
  0
MTEXT
  5
46
100
AcDbEntity
  8
TEXT
 62
     7
100
AcDbMText
 10
34.156227
 20
195.014281
 30
0.0
 40
5.512152
 41
0.0
 71
     1
 72
     2
  1
\fArial|b0|i0;\H5.5122;\C7;\U+0041\U+006E\U+0073\U+0063\U+0068\U+0077\U+0065\U+0069\U+00DF\U+002D
  7
STD
210
0.0
220
0.0
230
1.0
 73
     1
 44
1.0
  0
MTEXT
  5
45
100
AcDbEntity
  8
TEXT
 62
     7
100
AcDbMText
 10
34.156227
 20
202.422614
 30
0.0
 40
5.512152
 41
0.0
 71
     1
 72
     2
  1
\fArial|b0|i0;\H5.5122;\C7;\U+006D\U+0069\U+0074\U+0020\U+004B\U+006C\U+0065\U+0062\U+0065\U+002D\U+0020\U+002F\U+0020
  7
STD
210
0.0
220
0.0
230
1.0
 73
     1
 44
1.0
  0
MTEXT
  5
44
100
AcDbEntity
  8
TEXT
 62
     7
100
AcDbMText
 10
34.156227
 20
209.830947
 30
0.0
 40
5.512152
 41
0.0
 71
     1
 72
     2
  1
\fArial|b0|i0;\H5.5122;\C7;\U+0046\U+0075\U+0074\U+0074\U+0065\U+0072\U+0072\U+006F\U+0068\U+0072
  7
STD
210
0.0
220
0.0
230
1.0
 73
     1
 44
1.0
  0
INSERT
  5
3E
100
AcDbEntity
  8
TEXT
 62
     7
100
AcDbBlockReference
  2
AI9-BLK2
 10
50.282633
 20
156.109679
 30
0.0
  0
INSERT
  5
38
100
AcDbEntity
  8
TEXT
 62
     7
100
AcDbBlockReference
  2
AI9-BLK1
 10
59.500761
 20
103.175787
 30
0.0
  0
POLYLINE
  5
30
100
AcDbEntity
  8
0
 62
     7
100
AcDb2dPolyline
 66
     1
 10
0.0
 20
0.0
 30
0.0
 70
     1
  0
VERTEX
  5
31
100
AcDbEntity
  8
0
 62
     7
100
AcDbVertex
100
AcDb2dVertex
 10
24.520639
 20
221.677253
 30
0.0
  0
VERTEX
  5
32
100
AcDbEntity
  8
0
 62
     7
100
AcDbVertex
100
AcDb2dVertex
 10
24.520639
 20
77.417497
 30
0.0
  0
VERTEX
  5
33
100
AcDbEntity
  8
0
 62
     7
100
AcDbVertex
100
AcDb2dVertex
 10
186.188463
 20
77.417497
 30
0.0
  0
VERTEX
  5
34
100
AcDbEntity
  8
0
 62
     7
100
AcDbVertex
100
AcDb2dVertex
 10
186.188463
 20
221.677253
 30
0.0
  0
SEQEND
  5
35
100
AcDbEntity
  8
0
 62
     7
  0
POLYLINE
  5
2A
100
AcDbEntity
  8
0
 62
     7
100
AcDb2dPolyline
 66
     1
 10
0.0
 20
0.0
 30
0.0
 70
     1
  0
VERTEX
  5
2B
100
AcDbEntity
  8
0
 62
     7
100
AcDbVertex
100
AcDb2dVertex
 10
167.027875
 20
94.023201
 30
0.0
  0
VERTEX
  5
2C
100
AcDbEntity
  8
0
 62
     7
100
AcDbVertex
100
AcDb2dVertex
 10
186.077875
 20
94.023201
 30
0.0
  0
VERTEX
  5
2D
100
AcDbEntity
  8
0
 62
     7
100
AcDbVertex
100
AcDb2dVertex
 10
186.077875
 20
77.265568
 30
0.0
  0
VERTEX
  5
2E
100
AcDbEntity
  8
0
 62
     7
100
AcDbVertex
100
AcDb2dVertex
 10
167.027875
 20
77.265568
 30
0.0
  0
SEQEND
  5
2F
100
AcDbEntity
  8
0
 62
     7
  0
MTEXT
  5
29
100
AcDbEntity
  8
0
 62
     7
100
AcDbMText
 10
168.174059
 20
91.5667
 30
0.0
 40
9.449404
 41
0.0
 71
     1
 72
     2
  1
\fMyriad Roman|b0|i0;\H9.4494;\C7;\U+0031\U+002E\U+0031
  7
STD
210
0.0
220
0.0
230
1.0
 73
     1
 44
1.0
  0
ENDSEC
  0
SECTION
  2
OBJECTS
  0
DICTIONARY
  5
19
100
AcDbDictionary
280
     0
281
     1
  3
ACAD_GROUP
350
1A
  3
ACAD_MLINESTYLE
350
1B
  3
ACAD_LAYOUT
350
1E
  3
ACAD_PLOTSETTINGS
350
22
  3
ACAD_PLOTSTYLENAME
350
1F
  3
ACAD_WIPEOUT_VARS
350
23
  0
DICTIONARY
  5
1A
102
{ACAD_REACTORS
330
19
102
}
100
AcDbDictionary
280
     0
281
     1
  0
DICTIONARY
  5
1B
102
{ACAD_REACTORS
330
19
102
}
100
AcDbDictionary
280
     0
281
     1
  3
Standard
350
1C
  0
MLINESTYLE
  5
1C
102
{ACAD_REACTORS
330
1B
102
}
100
AcDbMlineStyle
  2
Standard
 70
     0
  3

 62
     0
 51
90.0
 52
90.0
 71
     2
 49
0.5
 62
   256
  6
ByLayer
 49
-0.5
 62
   256
  6
ByLayer
  0
ACDBDICTIONARYWDFLT
  5
1F
102
{ACAD_REACTORS
330
19
102
}
100
AcDbDictionary
281
     1
  3
Normal
350
1D
100
AcDbDictionaryWithDefault
340
1D
  0
ACDBPLACEHOLDER
  5
1D
102
{ACAD_REACTORS
330
1F
102
}
  0
LAYOUT
  5
20
102
{ACAD_REACTORS
330
1E
102
}
100
AcDbPlotSettings
  1

  2

  4

  6

 40
0.0
 41
0.0
 42
0.0
 43
0.0
 44
0.0
 45
0.0
 46
0.0
 47
0.0
 48
0.0
 49
0.0
140
0.0
141
0.0
142
1.0
143
1.0
 70
  1024
 72
     0
 73
     0
 74
     0
  7

 75
     0
147
1.0
148
0.0
149
0.0
100
AcDbLayout
  1
Model
 70
     0
 71
     0
 10
0.0
 20
0.0
 11
0.0
 21
0.0
 12
0.0
 22
0.0
 32
0.0
 14
0.0
 24
0.0
 34
0.0
 15
0.0
 25
0.0
 35
0.0
146
0.0
 13
0.0
 23
0.0
 33
0.0
 16
0.0
 26
0.0
 36
0.0
 17
0.0
 27
0.0
 37
0.0
 76
     0
330
A
331
0
345
0
346
0
  0
LAYOUT
  5
21
102
{ACAD_REACTORS
330
1E
102
}
100
AcDbPlotSettings
  1

  2

  4

  6

 40
0.0
 41
0.0
 42
0.0
 43
0.0
 44
0.0
 45
0.0
 46
0.0
 47
0.0
 48
0.0
 49
0.0
140
0.0
141
0.0
142
1.0
143
1.0
 70
     0
 72
     0
 73
     0
 74
     0
  7

 75
     0
147
1.0
148
0.0
149
0.0
100
AcDbLayout
  1
Layout1
 70
     0
 71
     0
 10
0.0
 20
0.0
 11
0.0
 21
0.0
 12
0.0
 22
0.0
 32
0.0
 14
0.0
 24
0.0
 34
0.0
 15
0.0
 25
0.0
 35
0.0
146
0.0
 13
0.0
 23
0.0
 33
0.0
 16
0.0
 26
0.0
 36
0.0
 17
0.0
 27
0.0
 37
0.0
 76
     0
330
B
331
0
345
0
346
0
  0
DICTIONARY
  5
1E
102
{ACAD_REACTORS
330
19
102
}
100
AcDbDictionary
280
     0
281
     1
  3
Layout1
350
21
  3
Model
350
20
  0
DICTIONARY
  5
22
102
{ACAD_REACTORS
330
19
102
}
100
AcDbDictionary
280
     0
281
     1
  0
WIPEOUTVARIABLES
  5
23
100
AcDbWipeoutVariables
 70
     1
  0
ENDSEC
  0
EOF
