  0
SECTION
  2
HEADER
  9
$ACADVER
  1
AC1015
  9
$ACADMAINTVER
 70
     6
  9
$DWGCODEPAGE
  3
ANSI_932
  9
$INSBASE
 10
0.0
 20
0.0
 30
0.0
  9
$EXTMIN
 10
24.167862
 20
76.91279
 30
1.000000E+20
  9
$EXTMAX
 10
186.541241
 20
222.030031
 30
-1.000000E+20
  9
$LIMMIN
 10
24.167862
 20
76.91279
  9
$LIMMAX
 10
186.541241
 20
222.030031
  9
$ORTHOMODE
 70
     0
  9
$REGENMODE
 70
     1
  9
$FILLMODE
 70
     1
  9
$QTEXTMODE
 70
     0
  9
$MIRRTEXT
 70
     1
  9
$LTSCALE
 40
1.0
  9
$ATTMODE
 70
     1
  9
$TEXTSIZE
 40
0.2
  9
$TRACEWID
 40
0.05
  9
$TEXTSTYLE
  7
Standard
  9
$CLAYER
  8
0
  9
$CELTYPE
  6
Continuous
  9
$CECOLOR
 62
   256
  9
$CELTSCALE
 40
1.0
  9
$DISPSILH
 70
     0
  9
$DIMSCALE
 40
1.0
  9
$DIMASZ
 40
0.18
  9
$DIMEXO
 40
0.0625
  9
$DIMDLI
 40
0.38
  9
$DIMRND
 40
0.0
  9
$DIMDLE
 40
0.0
  9
$DIMEXE
 40
0.18
  9
$DIMTP
 40
0.0
  9
$DIMTM
 40
0.0
  9
$DIMTXT
 40
0.18
  9
$DIMCEN
 40
0.09
  9
$DIMTSZ
 40
0.0
  9
$DIMTOL
 70
     0
  9
$DIMLIM
 70
     0
  9
$DIMTIH
 70
     1
  9
$DIMTOH
 70
     1
  9
$DIMSE1
 70
     0
  9
$DIMSE2
 70
     0
  9
$DIMTAD
 70
     0
  9
$DIMZIN
 70
     0
  9
$DIMBLK
  1

  9
$DIMASO
 70
     1
  9
$DIMSHO
 70
     1
  9
$DIMPOST
  1

  9
$DIMAPOST
  1

  9
$DIMALT
 70
     0
  9
$DIMALTD
 70
     2
  9
$DIMALTF
 40
25.4
  9
$DIMLFAC
 40
1.0
  9
$DIMTOFL
 70
     0
  9
$DIMTVP
 40
0.0
  9
$DIMTIX
 70
     0
  9
$DIMSOXD
 70
     0
  9
$DIMSAH
 70
     0
  9
$DIMBLK1
  1

  9
$DIMBLK2
  1

  9
$DIMSTYLE
  2
Standard
  9
$DIMCLRD
 70
     0
  9
$DIMCLRE
 70
     0
  9
$DIMCLRT
 70
     0
  9
$DIMTFAC
 40
1.0
  9
$DIMGAP
 40
0.09
  9
$DIMJUST
 70
     0
  9
$DIMSD1
 70
     0
  9
$DIMSD2
 70
     0
  9
$DIMTOLJ
 70
     1
  9
$DIMTZIN
 70
     0
  9
$DIMALTZ
 70
     0
  9
$DIMALTTZ
 70
     0
  9
$DIMUPT
 70
     0
  9
$DIMDEC
 70
     4
  9
$DIMTDEC
 70
     4
  9
$DIMALTU
 70
     2
  9
$DIMALTTD
 70
     2
  9
$DIMTXSTY
  7
Standard
  9
$DIMAUNIT
 70
     0
  9
$DIMADEC
 70
     0
  9
$DIMALTRND
 40
0.0
  9
$DIMAZIN
 70
     0
  9
$DIMDSEP
 70
     0
  9
$DIMATFIT
 70
     3
  9
$DIMFRAC
 70
     0
  9
$DIMLDRBLK
  1

  9
$DIMLUNIT
 70
     2
  9
$DIMLWD
 70
     0
  9
$DIMLWE
 70
     0
  9
$DIMTMOVE
 70
     0
  9
$LUNITS
 70
     2
  9
$LUPREC
 70
     4
  9
$SKETCHINC
 40
0.1
  9
$FILLETRAD
 40
0.0
  9
$AUNITS
 70
     0
  9
$AUPREC
 70
     0
  9
$MENU
  1
acad
  9
$ELEVATION
 40
0.0
  9
$PELEVATION
 40
0.0
  9
$THICKNESS
 40
0.0
  9
$LIMCHECK
 70
     0
  9
$CHAMFERA
 40
0.0
  9
$CHAMFERB
 40
0.0
  9
$CHAMFERC
 40
0.0
  9
$CHAMFERD
 40
0.0
  9
$SKPOLY
 70
     0
  9
$TDCREATE
 40
0.000000000
  9
$TDUCREATE
 40
0.000000000
  9
$TDUPDATE
 40
0.000000000
  9
$TDUUPDATE
 40
0.000000000
  9
$TDINDWG
 40
0.0000000000
  9
$TDUSRTIMER
 40
0.0000000000
  9
$USRTIMER
 70
     1
  9
$ANGBASE
 50
0.0
  9
$ANGDIR
 70
     0
  9
$PDMODE
 70
     0
  9
$PDSIZE
 40
0.0
  9
$PLINEWID
 40
0.0
  9
$SPLFRAME
 70
     0
  9
$SPLINETYPE
 70
     6
  9
$SPLINESEGS
 70
     8
  9
$HANDSEED
  5
1D2
  9
$SURFTAB1
 70
     6
  9
$SURFTAB2
 70
     6
  9
$SURFTYPE
 70
     6
  9
$SURFU
 70
     6
  9
$SURFV
 70
     6
  9
$UCSBASE
  2

  9
$UCSNAME
  2

  9
$UCSORG
 10
0.0
 20
0.0
 30
0.0
  9
$UCSXDIR
 10
1.0
 20
0.0
 30
0.0
  9
$UCSYDIR
 10
0.0
 20
1.0
 30
0.0
  9
$UCSORTHOREF
  2

  9
$UCSORTHOVIEW
 70
     0
  9
$UCSORGTOP
 10
0.0
 20
0.0
 30
0.0
  9
$UCSORGBOTTOM
 10
0.0
 20
0.0
 30
0.0
  9
$UCSORGLEFT
 10
0.0
 20
0.0
 30
0.0
  9
$UCSORGRIGHT
 10
0.0
 20
0.0
 30
0.0
  9
$UCSORGFRONT
 10
0.0
 20
0.0
 30
0.0
  9
$UCSORGBACK
 10
0.0
 20
0.0
 30
0.0
  9
$PUCSBASE
  2

  9
$PUCSNAME
  2

  9
$PUCSORG
 10
0.0
 20
0.0
 30
0.0
  9
$PUCSXDIR
 10
1.0
 20
0.0
 30
0.0
  9
$PUCSYDIR
 10
0.0
 20
1.0
 30
0.0
  9
$PUCSORTHOREF
  2

  9
$PUCSORTHOVIEW
 70
     0
  9
$PUCSORGTOP
 10
0.0
 20
0.0
 30
0.0
  9
$PUCSORGBOTTOM
 10
0.0
 20
0.0
 30
0.0
  9
$PUCSORGLEFT
 10
0.0
 20
0.0
 30
0.0
  9
$PUCSORGRIGHT
 10
0.0
 20
0.0
 30
0.0
  9
$PUCSORGFRONT
 10
0.0
 20
0.0
 30
0.0
  9
$PUCSORGBACK
 10
0.0
 20
0.0
 30
0.0
  9
$USERI1
 70
     0
  9
$USERI2
 70
     0
  9
$USERI3
 70
     0
  9
$USERI4
 70
     0
  9
$USERI5
 70
     0
  9
$USERR1
 40
0.0
  9
$USERR2
 40
0.0
  9
$USERR3
 40
0.0
  9
$USERR4
 40
0.0
  9
$USERR5
 40
0.0
  9
$WORLDVIEW
 70
     1
  9
$SHADEDGE
 70
     3
  9
$SHADEDIF
 70
    70
  9
$TILEMODE
 70
     1
  9
$MAXACTVP
 70
    16
  9
$PINSBASE
 10
0.0
 20
0.0
 30
0.0
  9
$PLIMCHECK
 70
     0
  9
$PEXTMIN
 10
1.000000E+20
 20
1.000000E+20
 30
1.000000E+20
  9
$PEXTMAX
 10
-1.000000E+20
 20
-1.000000E+20
 30
-1.000000E+20
  9
$PLIMMIN
 10
0.0
 20
0.0
  9
$PLIMMAX
 10
12.0
 20
9.0
  9
$UNITMODE
 70
     0
  9
$VISRETAIN
 70
     0
  9
$PLINEGEN
 70
     1
  9
$PSLTSCALE
 70
     0
  9
$TREEDEPTH
 70
  3020
  9
$CMLSTYLE
  2
Standard
  9
$CMLJUST
 70
     0
  9
$CMLSCALE
 40
1.0
  9
$PROXYGRAPHICS
 70
     0
  9
$MEASUREMENT
 70
     1
  9
$CELWEIGHT
370
     0
  9
$ENDCAPS
280
     0
  9
$JOINSTYLE
280
     0
  9
$LWDISPLAY
290
     0
  9
$INSUNITS
 70
     0
  9
$HYPERLINKBASE
  1

  9
$STYLESHEET
  1

  9
$XEDIT
290
     1
  9
$CEPSNTYPE
380
     0
  9
$PSTYLEMODE
290
     1
  9
$FINGERPRINTGUID
  2

  9
$VERSIONGUID
  2

  9
$EXTNAMES
290
     1
  9
$PSVPSCALE
 40
0.0
  0
ENDSEC
  0
SECTION
  2
CLASSES
  0
CLASS
  1
LWPOLYLINE
  2
AcDbPolyline
  3
AutoCAD 2000
 90
    32768
280
     0
281
     1
  0
CLASS
  1
IMAGE
  2
AcDbRasterImage
  3
ISM
 90
    32895
280
     0
281
     1
  0
CLASS
  1
OLE2FRAME
  2
AcDbOle2Frame
  3
AutoCAD 2000
 90
    32768
280
     0
281
     1
  0
CLASS
  1
HATCH
  2
AcDbHatch
  3
AutoCAD 2000
 90
        0
280
     0
281
     1
  0
CLASS
  1
DICTIONARYVAR
  2
AcDbDictionaryVar
  3
AutoCAD 2000
 90
    32768
280
     0
281
     0
  0
CLASS
  1
RASTERVARIABLES
  2
AcDbRasterVariables
  3
ISM
 90
    32768
280
     0
281
     0
  0
CLASS
  1
IMAGEDEF
  2
AcDbRasterImageDef
  3
ISM
 90
    32768
280
     0
281
     0
  0
CLASS
  1
IMAGEDEF_REACTOR
  2
AcDbRasterImageDefReactor
  3
ISM
 90
    32769
280
     0
281
     0
  0
CLASS
  1
IDBUFFER
  2
AcDbIdBuffer
  3
AutoCAD 2000
 90
    32768
280
     0
281
     0
  0
CLASS
  1
SPATIAL_FILTER
  2
AcDbSpatialFilter
  3
AutoCAD 2000
 90
    32768
280
     0
281
     0
  0
CLASS
  1
XRECORD
  2
AcDbXrecord
  3
AutoCAD 2000
 90
    32768
280
     0
281
     0
  0
CLASS
  1
SORTENTSTABLE
  2
AcDbSortentsTable
  3
AutoCAD 2000
 90
    32768
280
     0
281
     0
  0
CLASS
  1
LAYER_INDEX
  2
AcDbLayerIndex
  3
AutoCAD 2000
 90
    32768
280
     0
281
     0
  0
CLASS
  1
SPATIAL_INDEX
  2
AcDbSpatialIndex
  3
AutoCAD 2000
 90
    32768
280
     0
281
     0
  0
CLASS
  1
OBJECT_PTR
  2
CAseDLPNTableRecord
  3
"ASE-LPNTableRecord"
 90
    32769
280
     0
281
     0
  0
CLASS
  1
LAYOUT
  2
AcDbLayout
  3
AutoCAD 2000
 90
        0
280
     0
281
     0
  0
CLASS
  1
PLOTSETTINGS
  2
AcDbPlotSettings
  3
AutoCAD 2000
 90
    32768
280
     0
281
     0
  0
CLASS
  1
ACDBDICTIONARYWDFLT
  2
AcDbDictionaryWithDefault
  3
AutoCAD 2000
 90
        0
280
     0
281
     0
  0
CLASS
  1
ACDBPLACEHOLDER
  2
AcDbPlaceHolder
  3
AutoCAD 2000
 90
        0
280
     0
281
     0
  0
CLASS
  1
VBA_PROJECT
  2
AcDbVbaProject
  3
acadvba
 90
    32768
280
     0
281
     0
  0
CLASS
  1
WIPEOUT
  2
AcDbWipeout
  3
WipeOut|AutoCAD Express Tool|expresstools@autodesk.com
 90
    32895
280
     0
281
     1
  0
CLASS
  1
WIPEOUTVARIABLES
  2
AcDbWipeoutVariables
  3
WipeOut|AutoCAD Express Tool|expresstools@autodesk.com
 90
        0
280
     0
281
     0
  0
CLASS
  1
RTEXT
  2
RText
  3
RText|AutoCAD Express Tool|expresstools@autodesk.com
 90
    32768
280
     0
281
     1
  0
CLASS
  1
ARCALIGNEDTEXT
  2
AcDbArcAlignedText
  3
ATEXT|AutoCAD Express Tool|expresstools@autodesk.com
 90
    32768
280
     0
281
     1
  0
ENDSEC
  0
SECTION
  2
TABLES
  0
TABLE
  2
VPORT
  5
7
100
AcDbSymbolTable
 70
     1
  0
VPORT
  5
15
100
AcDbSymbolTableRecord
100
AcDbViewportTableRecord
  2
*ACTIVE
 70
     0
 10
0.0
 20
0.0
 11
1.0
 21
1.0
 12
6.591288
 22
4.579184
 13
0.0
 23
0.0
 14
1.0
 24
1.0
 15
0.0
 25
0.0
 16
0.0
 26
0.0
 36
1.0
 17
0.0
 27
0.0
 37
0.0
 40
9.158369
 41
0.688564
 42
50.0
 43
0.0
 44
0.0
 50
0.0
 51
0.0
 71
     0
 72
   100
 73
     1
 74
     1
 75
     0
 76
     0
 77
     0
 78
     0
281
     0
 65
     0
110
0.0
120
0.0
130
0.0
111
1.0
121
0.0
131
0.0
112
0.0
122
1.0
132
0.0
345
0
346
0
 79
     0
146
0.0
  0
ENDTAB
  0
TABLE
  2
LTYPE
  5
4
100
AcDbSymbolTable
 70
     5
  0
LTYPE
  5
11
100
AcDbSymbolTableRecord
100
AcDbLinetypeTableRecord
  2
ByBlock
 70
    64
  3

 72
    65
 73
     0
 40
0.0
  0
LTYPE
  5
12
100
AcDbSymbolTableRecord
100
AcDbLinetypeTableRecord
  2
ByLayer
 70
    64
  3

 72
    65
 73
     0
 40
0.0
  0
LTYPE
  5
13
100
AcDbSymbolTableRecord
100
AcDbLinetypeTableRecord
  2
Continuous
 70
    64
  3
Solid line
 72
    65
 73
     0
 40
0.0
  0
LTYPE
  5
B4
100
AcDbSymbolTableRecord
100
AcDbLinetypeTableRecord
  2
AI9-LType1
 70
    64
  3
Illustrator Dash Style No.1
 72
    65
 73
     4
 40
14.816667
 49
8.466667
 74
     0
 49
-2.822222
 74
     0
 49
0.705556
 74
     0
 49
-2.822222
 74
     0
  0
LTYPE
  5
14C
100
AcDbSymbolTableRecord
100
AcDbLinetypeTableRecord
  2
AI9-LType2
 70
    64
  3
Illustrator Dash Style No.2
 72
    65
 73
     6
 40
17.638889
 49
8.466667
 74
     0
 49
-2.822222
 74
     0
 49
0.705556
 74
     0
 49
-2.116667
 74
     0
 49
0.705556
 74
     0
 49
-2.822222
 74
     0
  0
ENDTAB
  0
TABLE
  2
LAYER
  5
2
100
AcDbSymbolTable
 70
    10
  0
LAYER
  5
14
100
AcDbSymbolTableRecord
100
AcDbLayerTableRecord
  2
0
 70
     0
 62
     7
  6
Continuous
290
     1
370
    -3
390
1D
  0
LAYER
  5
28
100
AcDbSymbolTableRecord
100
AcDbLayerTableRecord
  2
RAHMEN
 70
     0
 62
     7
  6
Continuous
290
     1
370
    -3
390
1D
  0
LAYER
  5
36
100
AcDbSymbolTableRecord
100
AcDbLayerTableRecord
  2
TEXT
 70
     0
 62
   253
  6
Continuous
290
     1
370
    -3
390
1D
  0
LAYER
  5
4B
100
AcDbSymbolTableRecord
100
AcDbLayerTableRecord
  2
AM_0
 70
     0
 62
     4
  6
Continuous
290
     1
370
    -3
390
1D
  0
LAYER
  5
AC
100
AcDbSymbolTableRecord
100
AcDbLayerTableRecord
  2
AM_8
 70
     0
 62
     6
  6
Continuous
290
     1
370
    -3
390
1D
  0
LAYER
  5
B0
100
AcDbSymbolTableRecord
100
AcDbLayerTableRecord
  2
MITTELLINIE
 70
     0
 62
     2
  6
Continuous
290
     1
370
    -3
390
1D
  0
LAYER
  5
B6
100
AcDbSymbolTableRecord
100
AcDbLayerTableRecord
  2
SCHRAFFUR
 70
     0
 62
     5
  6
Continuous
290
     1
370
    -3
390
1D
  0
LAYER
  5
146
100
AcDbSymbolTableRecord
100
AcDbLayerTableRecord
  2
WASSER
 70
     0
 62
     3
  6
Continuous
290
     1
370
    -3
390
1D
  0
LAYER
  5
14B
100
AcDbSymbolTableRecord
100
AcDbLayerTableRecord
  2
GETRENNT
 70
     0
 62
     1
  6
Continuous
290
     1
370
    -3
390
1D
  0
LAYER
  5
14F
100
AcDbSymbolTableRecord
100
AcDbLayerTableRecord
  2
ROHR
 70
     0
 62
   160
  6
Continuous
290
     1
370
    -3
390
1D
  0
ENDTAB
  0
TABLE
  2
STYLE
  5
3
100
AcDbSymbolTable
 70
     5
  0
STYLE
  5
17
100
AcDbSymbolTableRecord
100
AcDbTextStyleTableRecord
  2
Standard
 70
     0
 40
0.0
 41
1.0
 50
0.0
 71
     0
 42
0.0
  3
txt
  4

  0
STYLE
  5
24
100
AcDbSymbolTableRecord
100
AcDbTextStyleTableRecord
  2
STD
 70
     0
 40
0.0
 41
1.0
 50
0.0
 71
     0
 42
0.0
  3
txt
  4

  0
STYLE
  5
25
100
AcDbSymbolTableRecord
100
AcDbTextStyleTableRecord
  2
TATESTD
 70
     4
 40
0.0
 41
1.0
 50
0.0
 71
     0
 42
0.0
  3
txt
  4

  0
STYLE
  5
26
100
AcDbSymbolTableRecord
100
AcDbTextStyleTableRecord
  2
KANJISTD
 70
     0
 40
0.0
 41
1.0
 50
0.0
 71
     0
 42
0.0
  3
txt
  4
extfont
  0
STYLE
  5
27
100
AcDbSymbolTableRecord
100
AcDbTextStyleTableRecord
  2
KANJITATE
 70
     4
 40
0.0
 41
1.0
 50
0.0
 71
     0
 42
0.0
  3
txt
  4
extfont
  0
ENDTAB
  0
TABLE
  2
VIEW
  5
5
100
AcDbSymbolTable
 70
     0
  0
ENDTAB
  0
TABLE
  2
UCS
  5
6
100
AcDbSymbolTable
 70
     0
  0
ENDTAB
  0
TABLE
  2
APPID
  5
8
100
AcDbSymbolTable
 70
     1
  0
APPID
  5
16
100
AcDbSymbolTableRecord
100
AcDbRegAppTableRecord
  2
ACAD
 70
     0
  0
ENDTAB
  0
TABLE
  2
DIMSTYLE
  5
9
100
AcDbSymbolTable
 70
     1
100
AcDbDimStyleTable
 71
     0
  0
DIMSTYLE
105
18
100
AcDbSymbolTableRecord
100
AcDbDimStyleTableRecord
  2
Standard
 70
     0
  3

  4

 40
1.0
 41
0.18
 42
0.0625
 43
0.38
 44
0.18
 45
0.0
 46
0.0
 47
0.0
 48
0.0
 71
     0
 72
     0
 73
     1
 74
     1
 75
     0
 76
     0
 77
     0
 78
     0
 79
     0
140
0.18
141
0.09
142
0.0
143
25.4
144
1.0
145
0.0
146
1.0
147
0.09
148
0.0
170
     0
171
     2
172
     0
173
     0
174
     0
175
     0
176
     0
177
     0
178
     0
179
     0
271
     4
272
     4
273
     2
274
     2
275
     0
276
     0
277
     2
278
    46
279
     0
280
     0
281
     0
282
     0
283
     1
284
     0
285
     0
286
     0
288
     0
340
17
341
0
342
0
343
0
344
0
371
    -2
372
    -2
  0
ENDTAB
  0
TABLE
  2
BLOCK_RECORD
  5
1
100
AcDbSymbolTable
 70
     5
  0
BLOCK_RECORD
  5
A
100
AcDbSymbolTableRecord
100
AcDbBlockTableRecord
  2
*MODEL_SPACE
340
20
  0
BLOCK_RECORD
  5
B
100
AcDbSymbolTableRecord
100
AcDbBlockTableRecord
  2
*PAPER_SPACE
340
21
  0
BLOCK_RECORD
  5
37
100
AcDbSymbolTableRecord
100
AcDbBlockTableRecord
  2
AI9-BLK1
340
0
102
{BLKREFS
331
38
102
}
  0
BLOCK_RECORD
  5
3D
100
AcDbSymbolTableRecord
100
AcDbBlockTableRecord
  2
AI9-BLK2
340
0
102
{BLKREFS
331
3E
102
}
  0
BLOCK_RECORD
  5
44
100
AcDbSymbolTableRecord
100
AcDbBlockTableRecord
  2
AI9-BLK3
340
0
102
{BLKREFS
331
45
102
}
  0
BLOCK_RECORD
  5
150
100
AcDbSymbolTableRecord
100
AcDbBlockTableRecord
  2
AI9-BLK4
340
0
102
{BLKREFS
331
151
102
}
  0
BLOCK_RECORD
  5
191
100
AcDbSymbolTableRecord
100
AcDbBlockTableRecord
  2
AI9-BLK5
340
0
102
{BLKREFS
331
192
102
}
  0
ENDTAB
  0
ENDSEC
  0
SECTION
  2
BLOCKS
  0
BLOCK
  5
D
100
AcDbEntity
  8
0
100
AcDbBlockBegin
  2
*MODEL_SPACE
 70
     0
 10
0.0
 20
0.0
 30
0.0
  3
*MODEL_SPACE
  1

  0
ENDBLK
  5
E
100
AcDbEntity
  8
0
100
AcDbBlockEnd
  0
BLOCK
  5
F
100
AcDbEntity
 67
     1
  8
0
100
AcDbBlockBegin
  2
*PAPER_SPACE
 70
     0
 10
0.0
 20
0.0
 30
0.0
  3
*PAPER_SPACE
  1

  0
ENDBLK
  5
10
100
AcDbEntity
 67
     1
  8
0
100
AcDbBlockEnd
  0
BLOCK
  5
39
100
AcDbEntity
  8
TEXT
 62
     7
100
AcDbBlockBegin
  2
AI9-BLK1
 70
     0
 10
0.0
 20
0.0
 30
0.0
  3
AI9-BLK1
  1

  0
MTEXT
  5
3B
100
AcDbEntity
  8
TEXT
 62
     7
100
AcDbMText
 10
-25.472778
 20
1.249364
 30
0.0
 40
5.512152
 41
0.0
 71
     1
 72
     2
  1
\fArial|b0|i0;\H5.5122;\C7;\U+0061\U+0062\U+0064\U+0069\U+0063\U+0068\U+0074\U+0075\U+006E\U+0067
  7
STD
210
0.0
220
0.0
230
1.0
 73
     1
 44
1.0
  0
MTEXT
  5
3A
100
AcDbEntity
  8
TEXT
 62
     7
100
AcDbMText
 10
-25.472778
 20
8.657697
 30
0.0
 40
5.512152
 41
0.0
 71
     1
 72
     2
  1
\fArial|b0|i0;\H5.5122;\C7;\U+0041\U+0075\U+00DF\U+0065\U+006E\U+002D
  7
STD
210
0.0
220
0.0
230
1.0
 73
     1
 44
1.0
  0
ENDBLK
  5
3C
100
AcDbEntity
  8
TEXT
100
AcDbBlockEnd
  0
BLOCK
  5
3F
100
AcDbEntity
  8
TEXT
 62
     7
100
AcDbBlockBegin
  2
AI9-BLK2
 70
     0
 10
0.0
 20
0.0
 30
0.0
  3
AI9-BLK2
  1

  0
MTEXT
  5
42
100
AcDbEntity
  8
TEXT
 62
     7
100
AcDbMText
 10
-19.540754
 20
0.467499
 30
0.0
 40
5.512152
 41
0.0
 71
     1
 72
     2
  1
\fArial|b0|i0;\H5.5122;\C7;\U+0032\U+0030
  7
STD
210
0.0
220
0.0
230
1.0
 73
     1
 44
1.0
  0
MTEXT
  5
41
100
AcDbEntity
  8
TEXT
 62
     7
100
AcDbMText
 10
-19.540754
 20
7.875832
 30
0.0
 40
5.512152
 41
0.0
 71
     1
 72
     2
  1
\fArial|b0|i0;\H5.5122;\C7;\U+0053\U+0074\U+0061\U+006E\U+0064\U+0061\U+0072\U+0064\U+0020
  7
STD
210
0.0
220
0.0
230
1.0
 73
     1
 44
1.0
  0
MTEXT
  5
40
100
AcDbEntity
  8
TEXT
 62
     7
100
AcDbMText
 10
-19.540754
 20
15.284166
 30
0.0
 40
5.512152
 41
0.0
 71
     1
 72
     2
  1
\fArial|b0|i0;\H5.5122;\C7;\U+0046\U+0048\U+0052\U+004B\U+002D
  7
STD
210
0.0
220
0.0
230
1.0
 73
     1
 44
1.0
  0
ENDBLK
  5
43
100
AcDbEntity
  8
TEXT
100
AcDbBlockEnd
  0
BLOCK
  5
46
100
AcDbEntity
  8
TEXT
 62
     7
100
AcDbBlockBegin
  2
AI9-BLK3
 70
     0
 10
0.0
 20
0.0
 30
0.0
  3
AI9-BLK3
  1

  0
MTEXT
  5
49
100
AcDbEntity
  8
TEXT
 62
     7
100
AcDbMText
 10
-20.905959
 20
0.091639
 30
0.0
 40
5.512152
 41
0.0
 71
     1
 72
     2
  1
\fArial|b0|i0;\H5.5122;\C7;\U+006B\U+0065\U+0068\U+006C\U+0065\U+0020\U+0050\U+004D\U+0042\U+0043
  7
STD
210
0.0
220
0.0
230
1.0
 73
     1
 44
1.0
  0
MTEXT
  5
48
100
AcDbEntity
  8
TEXT
 62
     7
100
AcDbMText
 10
-20.905959
 20
7.499973
 30
0.0
 40
5.512152
 41
0.0
 71
     1
 72
     2
  1
\fArial|b0|i0;\H5.5122;\C7;\U+006D\U+0069\U+0074\U+0020\U+0048\U+006F\U+0068\U+006C\U+002D
  7
STD
210
0.0
220
0.0
230
1.0
 73
     1
 44
1.0
  0
MTEXT
  5
47
100
AcDbEntity
  8
TEXT
 62
     7
100
AcDbMText
 10
-20.905959
 20
14.908306
 30
0.0
 40
5.512152
 41
0.0
 71
     1
 72
     2
  1
\fArial|b0|i0;\H5.5122;\C7;\U+0046\U+0075\U+0074\U+0074\U+0065\U+0072\U+0072\U+006F\U+0068\U+0072
  7
STD
210
0.0
220
0.0
230
1.0
 73
     1
 44
1.0
  0
ENDBLK
  5
4A
100
AcDbEntity
  8
TEXT
100
AcDbBlockEnd
  0
BLOCK
  5
152
100
AcDbEntity
  8
ROHR
  6
AI9-LType2
 62
     7
100
AcDbBlockBegin
  2
AI9-BLK4
 70
     0
 10
0.0
 20
0.0
 30
0.0
  3
AI9-BLK4
  1

  0
LINE
  5
18F
100
AcDbEntity
  8
ROHR
 62
     7
100
AcDbLine
 10
1.081071
 20
2.072225
 30
0.0
 11
2.123901
 21
3.115572
 31
0.0
  0
LINE
  5
18E
100
AcDbEntity
  8
ROHR
 62
     7
100
AcDbLine
 10
1.082794
 20
1.54392
 30
0.0
 11
2.105987
 21
2.566424
 31
0.0
  0
LINE
  5
18D
100
AcDbEntity
  8
ROHR
 62
     7
100
AcDbLine
 10
1.079004
 20
1.009585
 30
0.0
 11
2.078426
 21
2.00918
 31
0.0
  0
LINE
  5
18C
100
AcDbEntity
  8
ROHR
 62
     7
100
AcDbLine
 10
0.999422
 20
-1.191142
 30
0.0
 11
1.874821
 21
-0.315743
 31
0.0
  0
LINE
  5
18B
100
AcDbEntity
  8
ROHR
 62
     7
100
AcDbLine
 10
1.029395
 20
-0.630969
 30
0.0
 11
1.940967
 21
0.280948
 31
0.0
  0
LINE
  5
18A
100
AcDbEntity
  8
ROHR
 62
     7
100
AcDbLine
 10
1.052132
 20
-0.077515
 30
0.0
 11
1.996777
 21
0.866958
 31
0.0
  0
LINE
  5
189
100
AcDbEntity
  8
ROHR
 62
     7
100
AcDbLine
 10
1.068669
 20
0.469222
 30
0.0
 11
2.042253
 21
1.442806
 31
0.0
  0
LINE
  5
188
100
AcDbEntity
  8
ROHR
 62
     7
100
AcDbLine
 10
0.868164
 20
6.101953
 30
0.0
 11
1.773191
 21
7.007152
 31
0.0
  0
LINE
  5
187
100
AcDbEntity
  8
ROHR
 62
     7
100
AcDbLine
 10
0.916051
 20
5.619812
 30
0.0
 11
1.950269
 21
6.653857
 31
0.0
  0
LINE
  5
186
100
AcDbEntity
  8
ROHR
 62
     7
100
AcDbLine
 10
0.95498
 20
5.128197
 30
0.0
 11
2.064646
 21
6.237518
 31
0.0
  0
LINE
  5
185
100
AcDbEntity
  8
ROHR
 62
     7
100
AcDbLine
 10
0.988398
 20
4.631414
 30
0.0
 11
2.101164
 21
5.74418
 31
0.0
  0
LINE
  5
184
100
AcDbEntity
  8
ROHR
 62
     7
100
AcDbLine
 10
1.017337
 20
4.130153
 30
0.0
 11
2.120456
 21
5.232756
 31
0.0
  0
LINE
  5
183
100
AcDbEntity
  8
ROHR
 62
     7
100
AcDbLine
 10
1.041452
 20
3.623551
 30
0.0
 11
2.13217
 21
4.714441
 31
0.0
  0
LINE
  5
182
100
AcDbEntity
  8
ROHR
 62
     7
100
AcDbLine
 10
1.060056
 20
3.111955
 30
0.0
 11
2.137337
 21
4.189064
 31
0.0
  0
LINE
  5
181
100
AcDbEntity
  8
ROHR
 62
     7
100
AcDbLine
 10
1.073147
 20
2.595018
 30
0.0
 11
2.134926
 21
3.656108
 31
0.0
  0
LINE
  5
180
100
AcDbEntity
  8
ROHR
 62
     7
100
AcDbLine
 10
0.962904
 20
-1.758204
 30
0.0
 11
1.797306
 21
-0.923458
 31
0.0
  0
LINE
  5
17F
100
AcDbEntity
  8
ROHR
 62
     7
100
AcDbLine
 10
-1.518254
 20
-1.59594
 30
0.0
 11
-0.917429
 21
-0.995116
 31
0.0
  0
LINE
  5
17E
100
AcDbEntity
  8
ROHR
 62
     7
100
AcDbLine
 10
-1.051099
 20
-3.771863
 30
0.0
 11
-0.696598
 21
-3.417879
 31
0.0
  0
LINE
  5
17D
100
AcDbEntity
  8
ROHR
 62
     7
100
AcDbLine
 10
-1.148939
 20
-3.339331
 30
0.0
 11
-0.749997
 21
-2.940389
 31
0.0
  0
LINE
  5
17C
100
AcDbEntity
  8
ROHR
 62
     7
100
AcDbLine
 10
-1.244368
 20
-2.904732
 30
0.0
 11
-0.798229
 21
-2.458592
 31
0.0
  0
LINE
  5
17B
100
AcDbEntity
  8
ROHR
 62
     7
100
AcDbLine
 10
-1.33842
 20
-2.468239
 30
0.0
 11
-0.842326
 21
-1.972489
 31
0.0
  0
LINE
  5
17A
100
AcDbEntity
  8
ROHR
 62
     7
100
AcDbLine
 10
-1.430059
 20
-2.02985
 30
0.0
 11
-0.882633
 21
-1.48208
 31
0.0
  0
LINE
  5
179
100
AcDbEntity
  8
ROHR
 62
     7
100
AcDbLine
 10
0.574297
 20
-5.329046
 30
0.0
 11
1.046965
 21
-4.856034
 31
0.0
  0
LINE
  5
178
100
AcDbEntity
  8
ROHR
 62
     7
100
AcDbLine
 10
-0.745863
 20
-5.057572
 30
0.0
 11
-0.514353
 21
-4.826407
 31
0.0
  0
LINE
  5
177
100
AcDbEntity
  8
ROHR
 62
     7
100
AcDbLine
 10
0.253215
 20
-7.240729
 30
0.0
 11
0.428225
 21
-7.06503
 31
0.0
  0
LINE
  5
176
100
AcDbEntity
  8
ROHR
 62
     7
100
AcDbLine
 10
0.123679
 20
-7.90081
 30
0.0
 11
0.172599
 21
-7.851889
 31
0.0
  0
LINE
  5
175
100
AcDbEntity
  8
ROHR
 62
     7
100
AcDbLine
 10
0.033417
 20
-7.990727
 30
0.0
 11
0.043064
 21
-7.982114
 31
0.0
  0
LINE
  5
174
100
AcDbEntity
  8
ROHR
 62
     7
100
AcDbLine
 10
-0.198437
 20
-7.161837
 30
0.0
 11
-0.134359
 21
-7.097758
 31
0.0
  0
LINE
  5
173
100
AcDbEntity
  8
ROHR
 62
     7
100
AcDbLine
 10
-0.311781
 20
-6.744636
 30
0.0
 11
-0.217386
 21
-6.650929
 31
0.0
  0
LINE
  5
172
100
AcDbEntity
  8
ROHR
 62
     7
100
AcDbLine
 10
-0.532267
 20
-5.905066
 30
0.0
 11
-0.373104
 21
-5.745903
 31
0.0
  0
LINE
  5
171
100
AcDbEntity
  8
ROHR
 62
     7
100
AcDbLine
 10
-0.639754
 20
-5.482353
 30
0.0
 11
-0.445451
 21
-5.287705
 31
0.0
  0
LINE
  5
170
100
AcDbEntity
  8
ROHR
 62
     7
100
AcDbLine
 10
-0.422713
 20
-6.325712
 30
0.0
 11
-0.297312
 21
-6.200311
 31
0.0
  0
LINE
  5
16F
100
AcDbEntity
  8
ROHR
 62
     7
100
AcDbLine
 10
-0.083027
 20
-7.577315
 30
0.0
 11
-0.047542
 21
-7.541831
 31
0.0
  0
LINE
  5
16E
100
AcDbEntity
  8
ROHR
 62
     7
100
AcDbLine
 10
0.47749
 20
-5.955709
 30
0.0
 11
0.862996
 21
-5.570203
 31
0.0
  0
LINE
  5
16D
100
AcDbEntity
  8
ROHR
 62
     7
100
AcDbLine
 10
0.370348
 20
-6.593051
 30
0.0
 11
0.657669
 21
-6.306075
 31
0.0
  0
LINE
  5
16C
100
AcDbEntity
  8
ROHR
 62
     7
100
AcDbLine
 10
-0.849216
 20
-4.63107
 30
0.0
 11
-0.579121
 21
-4.36063
 31
0.0
  0
LINE
  5
16B
100
AcDbEntity
  8
ROHR
 62
     7
100
AcDbLine
 10
-0.950846
 20
-4.202327
 30
0.0
 11
-0.639754
 21
-3.891235
 31
0.0
  0
LINE
  5
16A
100
AcDbEntity
  8
ROHR
 62
     7
100
AcDbLine
 10
0.737939
 20
-4.104315
 30
0.0
 11
1.358401
 21
-3.483508
 31
0.0
  0
LINE
  5
169
100
AcDbEntity
  8
ROHR
 62
     7
100
AcDbLine
 10
0.806152
 20
-3.505729
 30
0.0
 11
1.490004
 21
-2.822394
 31
0.0
  0
LINE
  5
168
100
AcDbEntity
  8
ROHR
 62
     7
100
AcDbLine
 10
0.866097
 20
-2.915412
 30
0.0
 11
1.606104
 21
-2.17575
 31
0.0
  0
LINE
  5
167
100
AcDbEntity
  8
ROHR
 62
     7
100
AcDbLine
 10
0.918118
 20
-2.332846
 30
0.0
 11
1.707734
 21
-1.543231
 31
0.0
  0
LINE
  5
166
100
AcDbEntity
  8
ROHR
 62
     7
100
AcDbLine
 10
0.660425
 20
-4.712029
 30
0.0
 11
1.21164
 21
-4.160986
 31
0.0
  0
LINE
  5
165
100
AcDbEntity
  8
ROHR
 62
     7
100
AcDbLine
 10
-2.130103
 20
5.225349
 30
0.0
 11
0.560173
 21
7.915624
 31
0.0
  0
LINE
  5
164
100
AcDbEntity
  8
ROHR
 62
     7
100
AcDbLine
 10
-2.137337
 20
4.687225
 30
0.0
 11
-0.907438
 21
5.917813
 31
0.0
  0
LINE
  5
163
100
AcDbEntity
  8
ROHR
 62
     7
100
AcDbLine
 10
-1.763544
 20
-0.242362
 30
0.0
 11
-0.996322
 21
0.525549
 31
0.0
  0
LINE
  5
162
100
AcDbEntity
  8
ROHR
 62
     7
100
AcDbLine
 10
-1.688786
 20
-0.69746
 30
0.0
 11
-0.974618
 21
0.016536
 31
0.0
  0
LINE
  5
161
100
AcDbEntity
  8
ROHR
 62
     7
100
AcDbLine
 10
-1.607137
 20
-1.146183
 30
0.0
 11
-0.948779
 21
-0.487826
 31
0.0
  0
LINE
  5
160
100
AcDbEntity
  8
ROHR
 62
     7
100
AcDbLine
 10
-2.135615
 20
4.158747
 30
0.0
 11
-0.942234
 21
5.352473
 31
0.0
  0
LINE
  5
15F
100
AcDbEntity
  8
ROHR
 62
     7
100
AcDbLine
 10
-2.125279
 20
3.639054
 30
0.0
 11
-0.971861
 21
4.7923
 31
0.0
  0
LINE
  5
15E
100
AcDbEntity
  8
ROHR
 62
     7
100
AcDbLine
 10
-2.106331
 20
3.12763
 30
0.0
 11
-0.995977
 21
4.238329
 31
0.0
  0
LINE
  5
15D
100
AcDbEntity
  8
ROHR
 62
     7
100
AcDbLine
 10
-2.001945
 20
1.641243
 30
0.0
 11
-1.029395
 21
2.613622
 31
0.0
  0
LINE
  5
15C
100
AcDbEntity
  8
ROHR
 62
     7
100
AcDbLine
 10
-1.952336
 20
1.16048
 30
0.0
 11
-1.029395
 21
2.083594
 31
0.0
  0
LINE
  5
15B
100
AcDbEntity
  8
ROHR
 62
     7
100
AcDbLine
 10
-1.895836
 20
0.686263
 30
0.0
 11
-1.023193
 21
1.558733
 31
0.0
  0
LINE
  5
15A
100
AcDbEntity
  8
ROHR
 62
     7
100
AcDbLine
 10
-1.83348
 20
0.218936
 30
0.0
 11
-1.012514
 21
1.03973
 31
0.0
  0
LINE
  5
159
100
AcDbEntity
  8
ROHR
 62
     7
100
AcDbLine
 10
-2.04432
 20
2.129069
 30
0.0
 11
-1.024227
 21
3.149162
 31
0.0
  0
LINE
  5
158
100
AcDbEntity
  8
ROHR
 62
     7
100
AcDbLine
 10
-2.079115
 20
2.624646
 30
0.0
 11
-1.012858
 21
3.690731
 31
0.0
  0
LINE
  5
157
100
AcDbEntity
  8
ROHR
 62
     7
100
AcDbLine
 10
-2.054655
 20
6.361197
 30
0.0
 11
-0.475079
 21
7.941117
 31
0.0
  0
LINE
  5
156
100
AcDbEntity
  8
ROHR
 62
     7
100
AcDbLine
 10
-2.112533
 20
5.773291
 30
0.0
 11
0.105075
 21
7.990727
 31
0.0
  0
LINE
  5
155
100
AcDbEntity
  8
ROHR
 62
     7
100
AcDbLine
 10
-0.03135
 20
6.793384
 30
0.0
 11
0.942234
 21
7.766968
 31
0.0
  0
LINE
  5
154
100
AcDbEntity
  8
ROHR
 62
     7
100
AcDbLine
 10
0.401009
 20
6.695715
 30
0.0
 11
1.267451
 21
7.562329
 31
0.0
  0
LINE
  5
153
100
AcDbEntity
  8
ROHR
 62
     7
100
AcDbLine
 10
0.693498
 20
6.458004
 30
0.0
 11
1.544092
 21
7.308598
 31
0.0
  0
ENDBLK
  5
190
100
AcDbEntity
  8
ROHR
100
AcDbBlockEnd
  0
BLOCK
  5
193
100
AcDbEntity
  8
ROHR
 62
     7
100
AcDbBlockBegin
  2
AI9-BLK5
 70
     0
 10
0.0
 20
0.0
 30
0.0
  3
AI9-BLK5
  1

  0
LINE
  5
1D0
100
AcDbEntity
  8
ROHR
 62
     7
100
AcDbLine
 10
2.124935
 20
-3.639054
 30
0.0
 11
0.971861
 21
-4.792472
 31
0.0
  0
LINE
  5
1CF
100
AcDbEntity
  8
ROHR
 62
     7
100
AcDbLine
 10
-0.989087
 20
-4.631586
 30
0.0
 11
-2.101681
 21
-5.744352
 31
0.0
  0
LINE
  5
1CE
100
AcDbEntity
  8
ROHR
 62
     7
100
AcDbLine
 10
2.135615
 20
-4.158919
 30
0.0
 11
0.942061
 21
-5.352645
 31
0.0
  0
LINE
  5
1CD
100
AcDbEntity
  8
ROHR
 62
     7
100
AcDbLine
 10
2.137337
 20
-4.687397
 30
0.0
 11
0.906749
 21
-5.917985
 31
0.0
  0
LINE
  5
1CC
100
AcDbEntity
  8
ROHR
 62
     7
100
AcDbLine
 10
-1.018026
 20
-4.130669
 30
0.0
 11
-2.120456
 21
-5.232756
 31
0.0
  0
LINE
  5
1CB
100
AcDbEntity
  8
ROHR
 62
     7
100
AcDbLine
 10
2.05431
 20
-6.361369
 30
0.0
 11
0.47439
 21
-7.940945
 31
0.0
  0
LINE
  5
1CA
100
AcDbEntity
  8
ROHR
 62
     7
100
AcDbLine
 10
2.112016
 20
-5.773291
 30
0.0
 11
-0.10542
 21
-7.990554
 31
0.0
  0
LINE
  5
1C9
100
AcDbEntity
  8
ROHR
 62
     7
100
AcDbLine
 10
2.129414
 20
-5.225521
 30
0.0
 11
-0.560689
 21
-7.915796
 31
0.0
  0
LINE
  5
1C8
100
AcDbEntity
  8
ROHR
 62
     7
100
AcDbLine
 10
-0.91674
 20
-5.620329
 30
0.0
 11
-1.950613
 21
-6.653857
 31
0.0
  0
LINE
  5
1C7
100
AcDbEntity
  8
ROHR
 62
     7
100
AcDbLine
 10
-0.955325
 20
-5.128369
 30
0.0
 11
-2.064646
 21
-6.23769
 31
0.0
  0
LINE
  5
1C6
100
AcDbEntity
  8
ROHR
 62
     7
100
AcDbLine
 10
-0.401526
 20
-6.695888
 30
0.0
 11
-1.26814
 21
-7.562329
 31
0.0
  0
LINE
  5
1C5
100
AcDbEntity
  8
ROHR
 62
     7
100
AcDbLine
 10
0.031006
 20
-6.793384
 30
0.0
 11
-0.942234
 21
-7.766968
 31
0.0
  0
LINE
  5
1C4
100
AcDbEntity
  8
ROHR
 62
     7
100
AcDbLine
 10
-0.694014
 20
-6.458176
 30
0.0
 11
-1.544781
 21
-7.309115
 31
0.0
  0
LINE
  5
1C3
100
AcDbEntity
  8
ROHR
 62
     7
100
AcDbLine
 10
-0.868509
 20
-6.102642
 30
0.0
 11
-1.773535
 21
-7.007324
 31
0.0
  0
LINE
  5
1C2
100
AcDbEntity
  8
ROHR
 62
     7
100
AcDbLine
 10
1.05041
 20
3.771346
 30
0.0
 11
0.696254
 21
3.417535
 31
0.0
  0
LINE
  5
1C1
100
AcDbEntity
  8
ROHR
 62
     7
100
AcDbLine
 10
1.244024
 20
2.904905
 30
0.0
 11
0.797884
 21
2.45842
 31
0.0
  0
LINE
  5
1C0
100
AcDbEntity
  8
ROHR
 62
     7
100
AcDbLine
 10
1.14825
 20
3.339331
 30
0.0
 11
0.749308
 21
2.940044
 31
0.0
  0
LINE
  5
1BF
100
AcDbEntity
  8
ROHR
 62
     7
100
AcDbLine
 10
1.337903
 20
2.468066
 30
0.0
 11
0.841981
 21
1.972662
 31
0.0
  0
LINE
  5
1BE
100
AcDbEntity
  8
ROHR
 62
     7
100
AcDbLine
 10
0.950502
 20
4.201638
 30
0.0
 11
0.63941
 21
3.891235
 31
0.0
  0
LINE
  5
1BD
100
AcDbEntity
  8
ROHR
 62
     7
100
AcDbLine
 10
-0.918807
 20
2.332674
 30
0.0
 11
-1.708423
 21
1.543058
 31
0.0
  0
LINE
  5
1BC
100
AcDbEntity
  8
ROHR
 62
     7
100
AcDbLine
 10
-1.041797
 20
-3.62424
 30
0.0
 11
-2.132686
 21
-4.714958
 31
0.0
  0
LINE
  5
1BB
100
AcDbEntity
  8
ROHR
 62
     7
100
AcDbLine
 10
-1.0604
 20
-3.111955
 30
0.0
 11
-2.137337
 21
-4.189236
 31
0.0
  0
LINE
  5
1BA
100
AcDbEntity
  8
ROHR
 62
     7
100
AcDbLine
 10
-1.073492
 20
-2.59519
 30
0.0
 11
-2.134926
 21
-3.656624
 31
0.0
  0
LINE
  5
1B9
100
AcDbEntity
  8
ROHR
 62
     7
100
AcDbLine
 10
-1.081415
 20
-2.072225
 30
0.0
 11
-2.12459
 21
-3.115744
 31
0.0
  0
LINE
  5
1B8
100
AcDbEntity
  8
ROHR
 62
     7
100
AcDbLine
 10
-1.083138
 20
-1.544092
 30
0.0
 11
-2.105987
 21
-2.566596
 31
0.0
  0
LINE
  5
1B7
100
AcDbEntity
  8
ROHR
 62
     7
100
AcDbLine
 10
-1.079348
 20
-1.009757
 30
0.0
 11
-2.078943
 21
-2.00918
 31
0.0
  0
LINE
  5
1B6
100
AcDbEntity
  8
ROHR
 62
     7
100
AcDbLine
 10
-0.999939
 20
1.190625
 30
0.0
 11
-1.875338
 21
0.315226
 31
0.0
  0
LINE
  5
1B5
100
AcDbEntity
  8
ROHR
 62
     7
100
AcDbLine
 10
-1.029911
 20
0.630452
 30
0.0
 11
-1.941484
 21
-0.28112
 31
0.0
  0
LINE
  5
1B4
100
AcDbEntity
  8
ROHR
 62
     7
100
AcDbLine
 10
-1.052821
 20
0.077515
 30
0.0
 11
-1.997294
 21
-0.867131
 31
0.0
  0
LINE
  5
1B3
100
AcDbEntity
  8
ROHR
 62
     7
100
AcDbLine
 10
-1.069185
 20
-0.469222
 30
0.0
 11
-2.042769
 21
-1.442806
 31
0.0
  0
LINE
  5
1B2
100
AcDbEntity
  8
ROHR
 62
     7
100
AcDbLine
 10
-0.963249
 20
1.758032
 30
0.0
 11
-1.797995
 21
0.923286
 31
0.0
  0
LINE
  5
1B1
100
AcDbEntity
  8
ROHR
 62
     7
100
AcDbLine
 10
-0.738284
 20
4.104142
 30
0.0
 11
-1.35909
 21
3.483681
 31
0.0
  0
LINE
  5
1B0
100
AcDbEntity
  8
ROHR
 62
     7
100
AcDbLine
 10
-0.806669
 20
3.50504
 30
0.0
 11
-1.490004
 21
2.822222
 31
0.0
  0
LINE
  5
1AF
100
AcDbEntity
  8
ROHR
 62
     7
100
AcDbLine
 10
-0.866786
 20
2.91524
 30
0.0
 11
-1.606104
 21
2.175578
 31
0.0
  0
LINE
  5
1AE
100
AcDbEntity
  8
ROHR
 62
     7
100
AcDbLine
 10
-0.574297
 20
5.328874
 30
0.0
 11
-1.047481
 21
4.856207
 31
0.0
  0
LINE
  5
1AD
100
AcDbEntity
  8
ROHR
 62
     7
100
AcDbLine
 10
-0.660942
 20
4.711857
 30
0.0
 11
-1.211985
 21
4.160297
 31
0.0
  0
LINE
  5
1AC
100
AcDbEntity
  8
ROHR
 62
     7
100
AcDbLine
 10
0.639237
 20
5.48218
 30
0.0
 11
0.445106
 21
5.287877
 31
0.0
  0
LINE
  5
1AB
100
AcDbEntity
  8
ROHR
 62
     7
100
AcDbLine
 10
0.848872
 20
4.630897
 30
0.0
 11
0.578776
 21
4.360457
 31
0.0
  0
LINE
  5
1AA
100
AcDbEntity
  8
ROHR
 62
     7
100
AcDbLine
 10
0.74483
 20
5.0574
 30
0.0
 11
0.514008
 21
4.82589
 31
0.0
  0
LINE
  5
1A9
100
AcDbEntity
  8
ROHR
 62
     7
100
AcDbLine
 10
-0.477835
 20
5.955709
 30
0.0
 11
-0.863513
 21
5.570203
 31
0.0
  0
LINE
  5
1A8
100
AcDbEntity
  8
ROHR
 62
     7
100
AcDbLine
 10
-0.371381
 20
6.592535
 30
0.0
 11
-0.658013
 21
6.305903
 31
0.0
  0
LINE
  5
1A7
100
AcDbEntity
  8
ROHR
 62
     7
100
AcDbLine
 10
-0.124023
 20
7.900293
 30
0.0
 11
-0.173116
 21
7.851373
 31
0.0
  0
LINE
  5
1A6
100
AcDbEntity
  8
ROHR
 62
     7
100
AcDbLine
 10
-0.253559
 20
7.240557
 30
0.0
 11
-0.428914
 21
7.065202
 31
0.0
  0
LINE
  5
1A5
100
AcDbEntity
  8
ROHR
 62
     7
100
AcDbLine
 10
-0.034106
 20
7.990554
 30
0.0
 11
-0.043064
 21
7.981425
 31
0.0
  0
LINE
  5
1A4
100
AcDbEntity
  8
ROHR
 62
     7
100
AcDbLine
 10
0.083027
 20
7.577143
 30
0.0
 11
0.047026
 21
7.541314
 31
0.0
  0
LINE
  5
1A3
100
AcDbEntity
  8
ROHR
 62
     7
100
AcDbLine
 10
0.197921
 20
7.161837
 30
0.0
 11
0.133842
 21
7.097758
 31
0.0
  0
LINE
  5
1A2
100
AcDbEntity
  8
ROHR
 62
     7
100
AcDbLine
 10
0.422369
 20
6.325712
 30
0.0
 11
0.296623
 21
6.199794
 31
0.0
  0
LINE
  5
1A1
100
AcDbEntity
  8
ROHR
 62
     7
100
AcDbLine
 10
0.53175
 20
5.904894
 30
0.0
 11
0.372759
 21
5.74573
 31
0.0
  0
LINE
  5
1A0
100
AcDbEntity
  8
ROHR
 62
     7
100
AcDbLine
 10
0.311092
 20
6.744463
 30
0.0
 11
0.217041
 21
6.650412
 31
0.0
  0
LINE
  5
19F
100
AcDbEntity
  8
ROHR
 62
     7
100
AcDbLine
 10
1.951991
 20
-1.160653
 30
0.0
 11
1.028878
 21
-2.083594
 31
0.0
  0
LINE
  5
19E
100
AcDbEntity
  8
ROHR
 62
     7
100
AcDbLine
 10
1.895836
 20
-0.686263
 30
0.0
 11
1.022849
 21
-1.55925
 31
0.0
  0
LINE
  5
19D
100
AcDbEntity
  8
ROHR
 62
     7
100
AcDbLine
 10
2.105815
 20
-3.128147
 30
0.0
 11
0.995288
 21
-4.238501
 31
0.0
  0
LINE
  5
19C
100
AcDbEntity
  8
ROHR
 62
     7
100
AcDbLine
 10
2.078771
 20
-2.624474
 30
0.0
 11
1.012514
 21
-3.690731
 31
0.0
  0
LINE
  5
19B
100
AcDbEntity
  8
ROHR
 62
     7
100
AcDbLine
 10
2.043803
 20
-2.129758
 30
0.0
 11
1.02371
 21
-3.149506
 31
0.0
  0
LINE
  5
19A
100
AcDbEntity
  8
ROHR
 62
     7
100
AcDbLine
 10
2.001428
 20
-1.641243
 30
0.0
 11
1.02905
 21
-2.613794
 31
0.0
  0
LINE
  5
199
100
AcDbEntity
  8
ROHR
 62
     7
100
AcDbLine
 10
1.517909
 20
1.595768
 30
0.0
 11
0.917084
 21
0.994944
 31
0.0
  0
LINE
  5
198
100
AcDbEntity
  8
ROHR
 62
     7
100
AcDbLine
 10
1.763544
 20
0.241846
 30
0.0
 11
0.995805
 21
-0.525722
 31
0.0
  0
LINE
  5
197
100
AcDbEntity
  8
ROHR
 62
     7
100
AcDbLine
 10
1.688269
 20
0.697287
 30
0.0
 11
0.974618
 21
-0.016536
 31
0.0
  0
LINE
  5
196
100
AcDbEntity
  8
ROHR
 62
     7
100
AcDbLine
 10
1.60662
 20
1.146183
 30
0.0
 11
0.948435
 21
0.487137
 31
0.0
  0
LINE
  5
195
100
AcDbEntity
  8
ROHR
 62
     7
100
AcDbLine
 10
1.429715
 20
2.029161
 30
0.0
 11
0.882117
 21
1.48208
 31
0.0
  0
LINE
  5
194
100
AcDbEntity
  8
ROHR
 62
     7
100
AcDbLine
 10
1.832791
 20
-0.219108
 30
0.0
 11
1.011825
 21
-1.03973
 31
0.0
  0
ENDBLK
  5
1D1
100
AcDbEntity
  8
ROHR
100
AcDbBlockEnd
  0
ENDSEC
  0
SECTION
  2
ENTITIES
  0
INSERT
  5
192
100
AcDbEntity
  8
ROHR
 62
     7
100
AcDbBlockReference
  2
AI9-BLK5
 10
76.423931
 20
142.771992
 30
0.0
  0
INSERT
  5
151
100
AcDbEntity
  8
ROHR
  6
AI9-LType2
 62
     7
100
AcDbBlockReference
  2
AI9-BLK4
 10
167.770294
 20
153.159471
 30
0.0
  0
LINE
  5
14E
100
AcDbEntity
  8
GETRENNT
  6
AI9-LType2
 62
     7
100
AcDbLine
 10
97.015611
 20
87.768975
 30
0.0
 11
157.083952
 21
87.768975
 31
0.0
  0
LINE
  5
14D
100
AcDbEntity
  8
GETRENNT
  6
AI9-LType2
 62
     7
100
AcDbLine
 10
157.015739
 20
207.897215
 30
0.0
 11
97.015611
 21
207.897215
 31
0.0
  0
HATCH
  5
14A
100
AcDbEntity
  8
WASSER
 62
   152
100
AcDbHatch
 10
0.0
 20
0.0
 30
0.0
210
0.0
220
0.0
230
1.0
  2
SOLID
 70
     1
 71
     0
 91
        1
 92
        1
 93
        1
 72
     4
 94
        3
 73
     0
 74
     0
 95
       23
 96
       19
 40
0.0
 40
0.0
 40
0.0
 40
0.0
 40
1.0
 40
1.0
 40
1.0
 40
2.0
 40
2.0
 40
2.0
 40
3.0
 40
3.0
 40
3.0
 40
4.0
 40
4.0
 40
4.0
 40
5.0
 40
5.0
 40
5.0
 40
6.0
 40
6.0
 40
6.0
 40
6.0
 10
62.275957573784716
 20
131.83622504340278
 10
62.275957573784716
 20
131.83622504340278
 10
61.8506605360243
 20
132.09839680989583
 10
61.272745768229164
 20
132.37469346788194
 10
56.506111653645831
 20
134.65465766059026
 10
57.66848687065972
 20
130.03478461371526
 10
52.95077311197916
 20
132.93831108940972
 10
52.2853529188368
 20
133.3475884331597
 10
51.671264648437493
 20
132.34988878038195
 10
52.336512586805554
 20
131.94061143663194
 10
52.336512586805554
 20
131.94061143663194
 10
52.761637369791664
 20
131.67878417968748
 10
53.339379882812494
 20
131.40214301215278
 10
58.099985080295134
 20
129.1239013671875
 10
56.943294270833327
 20
133.7348171657986
 10
61.662041558159714
 20
130.83818088107637
 10
62.327289496527769
 20
130.42890353732636
 10
62.941033257378464
 20
131.42694769965277
 10
62.275957573784716
 20
131.83622504340278
 97
        0
 75
     0
 76
     1
 98
        1
 10
0.0
 20
0.0
  0
HATCH
  5
149
100
AcDbEntity
  8
WASSER
 62
   152
100
AcDbHatch
 10
0.0
 20
0.0
 30
0.0
210
0.0
220
0.0
230
1.0
  2
SOLID
 70
     1
 71
     0
 91
        1
 92
        1
 93
        1
 72
     4
 94
        3
 73
     0
 74
     0
 95
       23
 96
       19
 40
0.0
 40
0.0
 40
0.0
 40
0.0
 40
1.0
 40
1.0
 40
1.0
 40
2.0
 40
2.0
 40
2.0
 40
3.0
 40
3.0
 40
3.0
 40
4.0
 40
4.0
 40
4.0
 40
5.0
 40
5.0
 40
5.0
 40
6.0
 40
6.0
 40
6.0
 40
6.0
 10
62.275957573784716
 20
129.08083767361109
 10
62.275957573784716
 20
129.08083767361109
 10
61.8506605360243
 20
129.34300944010417
 10
61.272745768229164
 20
129.61861707899305
 10
56.506111653645831
 20
131.89858127170137
 10
57.66848687065972
 20
127.2793972439236
 10
52.95077311197916
 20
130.18292371961803
 10
52.2853529188368
 20
130.59220106336804
 10
51.671264648437493
 20
129.59450141059025
 10
52.336512586805554
 20
129.18522406684028
 10
52.336512586805554
 20
129.18522406684028
 10
52.761637369791664
 20
128.92339680989582
 10
53.339379882812494
 20
128.64675564236109
 10
58.099985080295134
 20
126.36851399739582
 10
56.943294270833327
 20
130.97942979600694
 10
61.662041558159714
 20
128.08244900173611
 10
62.327289496527769
 20
127.67351616753471
 10
62.941033257378464
 20
128.67156032986111
 10
62.275957573784716
 20
129.08083767361109
 97
        0
 75
     0
 76
     1
 98
        1
 10
0.0
 20
0.0
  0
HATCH
  5
148
100
AcDbEntity
  8
WASSER
 62
   152
100
AcDbHatch
 10
0.0
 20
0.0
 30
0.0
210
0.0
220
0.0
230
1.0
  2
SOLID
 70
     1
 71
     0
 91
        1
 92
        1
 93
        1
 72
     4
 94
        3
 73
     0
 74
     0
 95
       23
 96
       19
 40
0.0
 40
0.0
 40
0.0
 40
0.0
 40
1.0
 40
1.0
 40
1.0
 40
2.0
 40
2.0
 40
2.0
 40
3.0
 40
3.0
 40
3.0
 40
4.0
 40
4.0
 40
4.0
 40
5.0
 40
5.0
 40
5.0
 40
6.0
 40
6.0
 40
6.0
 40
6.0
 10
62.275957573784716
 20
126.32545030381944
 10
62.275957573784716
 20
126.32545030381944
 10
61.8506605360243
 20
126.58762207031249
 10
61.272745768229164
 20
126.86322970920138
 10
56.506111653645831
 20
129.14319390190971
 10
57.66848687065972
 20
124.52332085503471
 10
52.95077311197916
 20
127.42719184027777
 10
52.2853529188368
 20
127.83681369357637
 10
51.671264648437493
 20
126.83911404079861
 10
52.336512586805554
 20
126.4298366970486
 10
52.336512586805554
 20
126.4298366970486
 10
52.761637369791664
 20
126.16732042100693
 10
53.339379882812494
 20
125.89102376302083
 10
58.099985080295134
 20
123.61243760850694
 10
56.943294270833327
 20
128.22335340711805
 10
61.662041558159714
 20
125.32706163194443
 10
62.327289496527769
 20
124.91812879774304
 10
62.941033257378464
 20
125.91617296006943
 10
62.275957573784716
 20
126.32545030381944
 97
        0
 75
     0
 76
     1
 98
        1
 10
0.0
 20
0.0
  0
HATCH
  5
147
100
AcDbEntity
  8
WASSER
 62
   152
100
AcDbHatch
 10
0.0
 20
0.0
 30
0.0
210
0.0
220
0.0
230
1.0
  2
SOLID
 70
     1
 71
     0
 91
        1
 92
        1
 93
        1
 72
     4
 94
        3
 73
     0
 74
     0
 95
       23
 96
       19
 40
0.0
 40
0.0
 40
0.0
 40
0.0
 40
1.0
 40
1.0
 40
1.0
 40
2.0
 40
2.0
 40
2.0
 40
3.0
 40
3.0
 40
3.0
 40
4.0
 40
4.0
 40
4.0
 40
5.0
 40
5.0
 40
5.0
 40
6.0
 40
6.0
 40
6.0
 40
6.0
 10
62.275957573784716
 20
134.58713378906248
 10
62.275957573784716
 20
134.58713378906248
 10
61.8506605360243
 20
134.84896104600693
 10
61.272745768229164
 20
135.12525770399304
 10
56.506111653645831
 20
137.40522189670136
 10
57.66848687065972
 20
132.78534884982636
 10
52.95077311197916
 20
135.68921983506942
 10
52.2853529188368
 20
136.09849717881943
 10
51.671264648437493
 20
135.10045301649305
 10
52.336512586805554
 20
134.69117567274304
 10
52.336512586805554
 20
134.69117567274304
 10
52.761637369791664
 20
134.42934841579859
 10
53.339379882812494
 20
134.15305175781248
 10
58.099985080295134
 20
131.8744656032986
 10
56.943294270833327
 20
136.48538140190971
 10
61.662041558159714
 20
133.5890896267361
 10
62.327289496527769
 20
133.17981228298609
 10
62.941033257378464
 20
134.1778564453125
 10
62.275957573784716
 20
134.58713378906248
 97
        0
 75
     0
 76
     1
 98
        1
 10
0.0
 20
0.0
  0
HATCH
  5
145
100
AcDbEntity
  8
SCHRAFFUR
 62
     7
100
AcDbHatch
 10
0.0
 20
0.0
 30
0.0
210
0.0
220
0.0
230
1.0
  2
SOLID
 70
     1
 71
     0
 91
        4
 92
        1
 93
        1
 72
     4
 94
        3
 73
     0
 74
     0
 95
       23
 96
       19
 40
0.0
 40
0.0
 40
0.0
 40
0.0
 40
1.0
 40
1.0
 40
1.0
 40
2.0
 40
2.0
 40
2.0
 40
3.0
 40
3.0
 40
3.0
 40
4.0
 40
4.0
 40
4.0
 40
5.0
 40
5.0
 40
5.0
 40
6.0
 40
6.0
 40
6.0
 40
6.0
 10
94.845201280381943
 20
179.67585449218748
 10
94.845201280381943
 20
179.67585449218748
 10
99.415809461805551
 20
179.67585449218748
 10
99.415809461805551
 20
179.67585449218748
 10
99.415809461805551
 20
179.67585449218748
 10
99.415809461805551
 20
175.49712592230901
 10
99.415809461805551
 20
175.49712592230901
 10
99.415809461805551
 20
175.49712592230901
 10
85.210647243923603
 20
175.49712592230901
 10
85.210647243923603
 20
175.49712592230901
 10
85.210647243923603
 20
175.49712592230901
 10
85.214436848958329
 20
176.69705268012152
 10
85.214436848958329
 20
176.69705268012152
 10
85.214436848958329
 20
176.69705268012152
 10
89.215915256076386
 20
176.69705268012152
 10
89.215915256076386
 20
176.69705268012152
 10
91.397005208333326
 20
176.95664062499998
 10
93.40377332899304
 20
178.01841905381943
 10
94.845201280381943
 20
179.67585449218748
 97
        0
 92
        1
 93
        1
 72
     4
 94
        3
 73
     0
 74
     0
 95
       20
 96
       16
 40
0.0
 40
0.0
 40
0.0
 40
0.0
 40
1.0
 40
1.0
 40
1.0
 40
2.0
 40
2.0
 40
2.0
 40
3.0
 40
3.0
 40
3.0
 40
4.0
 40
4.0
 40
4.0
 40
5.0
 40
5.0
 40
5.0
 40
5.0
 10
97.015611436631929
 20
188.03365614149303
 10
97.015611436631929
 20
188.03365614149303
 10
99.415809461805551
 20
188.03365614149303
 10
99.415809461805551
 20
188.03365614149303
 10
99.415809461805551
 20
188.03365614149303
 10
99.415809461805551
 20
183.85475531684025
 10
99.415809461805551
 20
183.85475531684025
 10
99.415809461805551
 20
183.85475531684025
 10
96.865577528211801
 20
183.85475531684025
 10
96.865577528211801
 20
183.85475531684025
 10
96.971169704861097
 20
184.42009548611108
 10
97.021640353732636
 20
184.9943929036458
 10
97.015611436631929
 20
185.56972384982637
 10
97.015611436631929
 20
185.56972384982637
 10
97.015611436631929
 20
188.03365614149303
 10
97.015611436631929
 20
188.03365614149303
 97
        0
 92
        1
 93
        1
 72
     4
 94
        3
 73
     0
 74
     0
 95
       20
 96
       16
 40
0.0
 40
0.0
 40
0.0
 40
0.0
 40
1.0
 40
1.0
 40
1.0
 40
2.0
 40
2.0
 40
2.0
 40
3.0
 40
3.0
 40
3.0
 40
4.0
 40
4.0
 40
4.0
 40
5.0
 40
5.0
 40
5.0
 40
5.0
 10
97.015611436631929
 20
196.39111328124997
 10
97.015611436631929
 20
196.39111328124997
 10
99.415809461805551
 20
196.39111328124997
 10
99.415809461805551
 20
196.39111328124997
 10
99.415809461805551
 20
196.39111328124997
 10
99.415809461805551
 20
192.2123847113715
 10
99.415809461805551
 20
192.2123847113715
 10
99.415809461805551
 20
192.2123847113715
 10
98.215882703993046
 20
192.2123847113715
 10
98.215882703993046
 20
192.2123847113715
 10
98.215882703993046
 20
192.2123847113715
 10
97.015611436631929
 20
192.2123847113715
 10
97.015611436631929
 20
192.2123847113715
 10
97.015611436631929
 20
192.2123847113715
 10
97.015611436631929
 20
196.39111328124997
 10
97.015611436631929
 20
196.39111328124997
 97
        0
 92
        1
 93
        1
 72
     4
 94
        3
 73
     0
 74
     0
 95
       17
 96
       13
 40
0.0
 40
0.0
 40
0.0
 40
0.0
 40
1.0
 40
1.0
 40
1.0
 40
2.0
 40
2.0
 40
2.0
 40
3.0
 40
3.0
 40
3.0
 40
4.0
 40
4.0
 40
4.0
 40
4.0
 10
97.015611436631929
 20
204.74891493055554
 10
97.015611436631929
 20
204.74891493055554
 10
99.415809461805551
 20
204.74891493055554
 10
99.415809461805551
 20
204.74891493055554
 10
99.415809461805551
 20
204.74891493055554
 10
99.415809461805551
 20
200.57001410590277
 10
99.415809461805551
 20
200.57001410590277
 10
99.415809461805551
 20
200.57001410590277
 10
97.015611436631929
 20
200.57001410590277
 10
97.015611436631929
 20
200.57001410590277
 10
97.015611436631929
 20
200.57001410590277
 10
97.015611436631929
 20
204.74891493055554
 10
97.015611436631929
 20
204.74891493055554
 97
        0
 75
     0
 76
     1
 98
        1
 10
0.0
 20
0.0
  0
HATCH
  5
144
100
AcDbEntity
  8
SCHRAFFUR
 62
     7
100
AcDbHatch
 10
0.0
 20
0.0
 30
0.0
210
0.0
220
0.0
230
1.0
  2
SOLID
 70
     1
 71
     0
 91
        4
 92
        1
 93
        1
 72
     4
 94
        3
 73
     0
 74
     0
 95
       20
 96
       16
 40
0.0
 40
0.0
 40
0.0
 40
0.0
 40
1.0
 40
1.0
 40
1.0
 40
2.0
 40
2.0
 40
2.0
 40
3.0
 40
3.0
 40
3.0
 40
4.0
 40
4.0
 40
4.0
 40
5.0
 40
5.0
 40
5.0
 40
5.0
 10
101.66580132378472
 20
171.41727159288192
 10
101.66580132378472
 20
171.41727159288192
 10
101.66580132378472
 20
171.89717339409719
 10
101.66580132378472
 20
171.89717339409719
 10
101.66580132378472
 20
171.89717339409719
 10
106.46550835503471
 20
171.89717339409719
 10
106.46550835503471
 20
171.89717339409719
 10
106.46550835503471
 20
171.89717339409719
 10
106.46550835503471
 20
166.57071126302083
 10
106.46550835503471
 20
166.57071126302083
 10
106.46550835503471
 20
166.57071126302083
 10
101.66580132378472
 20
166.57071126302083
 10
101.66580132378472
 20
166.57071126302083
 10
101.66580132378472
 20
166.57071126302083
 10
101.66580132378472
 20
171.41727159288192
 10
101.66580132378472
 20
171.41727159288192
 97
        0
 92
        1
 93
        1
 72
     4
 94
        3
 73
     0
 74
     0
 95
       17
 96
       13
 40
0.0
 40
0.0
 40
0.0
 40
0.0
 40
1.0
 40
1.0
 40
1.0
 40
2.0
 40
2.0
 40
2.0
 40
3.0
 40
3.0
 40
3.0
 40
4.0
 40
4.0
 40
4.0
 40
4.0
 10
101.66580132378472
 20
166.57071126302083
 10
101.66580132378472
 20
166.57071126302083
 10
106.46550835503471
 20
166.57071126302083
 10
106.46550835503471
 20
166.57071126302083
 10
106.46550835503471
 20
166.57071126302083
 10
106.46550835503471
 20
147.89726019965278
 10
106.46550835503471
 20
147.89726019965278
 10
106.46550835503471
 20
147.89726019965278
 10
101.66580132378472
 20
147.89726019965278
 10
101.66580132378472
 20
147.89726019965278
 10
101.66580132378472
 20
147.89726019965278
 10
101.66580132378472
 20
166.57071126302083
 10
101.66580132378472
 20
166.57071126302083
 97
        0
 92
        1
 93
        1
 72
     4
 94
        3
 73
     0
 74
     0
 95
       17
 96
       13
 40
0.0
 40
0.0
 40
0.0
 40
0.0
 40
1.0
 40
1.0
 40
1.0
 40
2.0
 40
2.0
 40
2.0
 40
3.0
 40
3.0
 40
3.0
 40
4.0
 40
4.0
 40
4.0
 40
4.0
 10
101.66580132378472
 20
147.89726019965278
 10
101.66580132378472
 20
147.89726019965278
 10
106.46550835503471
 20
147.89726019965278
 10
106.46550835503471
 20
147.89726019965278
 10
106.46550835503471
 20
147.89726019965278
 10
106.46550835503471
 20
129.2234646267361
 10
106.46550835503471
 20
129.2234646267361
 10
106.46550835503471
 20
129.2234646267361
 10
101.66580132378472
 20
129.2234646267361
 10
101.66580132378472
 20
129.2234646267361
 10
101.66580132378472
 20
129.2234646267361
 10
101.66580132378472
 20
147.89726019965278
 10
101.66580132378472
 20
147.89726019965278
 97
        0
 92
        1
 93
        1
 72
     4
 94
        3
 73
     0
 74
     0
 95
       17
 96
       13
 40
0.0
 40
0.0
 40
0.0
 40
0.0
 40
1.0
 40
1.0
 40
1.0
 40
2.0
 40
2.0
 40
2.0
 40
3.0
 40
3.0
 40
3.0
 40
4.0
 40
4.0
 40
4.0
 40
4.0
 10
101.66580132378472
 20
129.2234646267361
 10
101.66580132378472
 20
129.2234646267361
 10
106.46550835503471
 20
129.2234646267361
 10
106.46550835503471
 20
129.2234646267361
 10
106.46550835503471
 20
129.2234646267361
 10
106.46550835503471
 20
123.89700249565971
 10
106.46550835503471
 20
123.89700249565971
 10
106.46550835503471
 20
123.89700249565971
 10
101.66580132378472
 20
123.89700249565971
 10
101.66580132378472
 20
123.89700249565971
 10
101.66580132378472
 20
123.89700249565971
 10
101.66580132378472
 20
129.2234646267361
 10
101.66580132378472
 20
129.2234646267361
 97
        0
 75
     0
 76
     1
 98
        1
 10
0.0
 20
0.0
  0
POLYLINE
  5
13D
100
AcDbEntity
  8
SCHRAFFUR
 62
     7
100
AcDb2dPolyline
 66
     1
 10
0.0
 20
0.0
 30
0.0
  0
VERTEX
  5
13E
100
AcDbEntity
  8
SCHRAFFUR
 62
     7
100
AcDbVertex
100
AcDb2dVertex
 10
95.904913
 20
179.675854
 30
0.0
  0
VERTEX
  5
13F
100
AcDbEntity
  8
SCHRAFFUR
 62
     7
100
AcDbVertex
100
AcDb2dVertex
 10
99.415809
 20
179.675854
 30
0.0
  0
VERTEX
  5
140
100
AcDbEntity
  8
SCHRAFFUR
 62
     7
100
AcDbVertex
100
AcDb2dVertex
 10
99.415809
 20
175.497126
 30
0.0
  0
VERTEX
  5
141
100
AcDbEntity
  8
SCHRAFFUR
 62
     7
100
AcDbVertex
100
AcDb2dVertex
 10
85.210647
 20
175.497126
 30
0.0
  0
VERTEX
  5
142
100
AcDbEntity
  8
SCHRAFFUR
 62
     7
100
AcDbVertex
100
AcDb2dVertex
 10
85.214437
 20
176.697053
 30
0.0
  0
SEQEND
  5
143
100
AcDbEntity
  8
SCHRAFFUR
 62
     7
  0
POLYLINE
  5
137
100
AcDbEntity
  8
SCHRAFFUR
 62
     7
100
AcDb2dPolyline
 66
     1
 10
0.0
 20
0.0
 30
0.0
  0
VERTEX
  5
138
100
AcDbEntity
  8
SCHRAFFUR
 62
     7
100
AcDbVertex
100
AcDb2dVertex
 10
98.025197
 20
183.854755
 30
0.0
  0
VERTEX
  5
139
100
AcDbEntity
  8
SCHRAFFUR
 62
     7
100
AcDbVertex
100
AcDb2dVertex
 10
99.415809
 20
183.854755
 30
0.0
  0
VERTEX
  5
13A
100
AcDbEntity
  8
SCHRAFFUR
 62
     7
100
AcDbVertex
100
AcDb2dVertex
 10
99.415809
 20
179.675854
 30
0.0
  0
VERTEX
  5
13B
100
AcDbEntity
  8
SCHRAFFUR
 62
     7
100
AcDbVertex
100
AcDb2dVertex
 10
94.845201
 20
179.675854
 30
0.0
  0
SEQEND
  5
13C
100
AcDbEntity
  8
SCHRAFFUR
 62
     7
  0
POLYLINE
  5
131
100
AcDbEntity
  8
SCHRAFFUR
 62
     7
100
AcDb2dPolyline
 66
     1
 10
0.0
 20
0.0
 30
0.0
  0
VERTEX
  5
132
100
AcDbEntity
  8
SCHRAFFUR
 62
     7
100
AcDbVertex
100
AcDb2dVertex
 10
98.215883
 20
188.033656
 30
0.0
  0
VERTEX
  5
133
100
AcDbEntity
  8
SCHRAFFUR
 62
     7
100
AcDbVertex
100
AcDb2dVertex
 10
99.415809
 20
188.033656
 30
0.0
  0
VERTEX
  5
134
100
AcDbEntity
  8
SCHRAFFUR
 62
     7
100
AcDbVertex
100
AcDb2dVertex
 10
99.415809
 20
183.854755
 30
0.0
  0
VERTEX
  5
135
100
AcDbEntity
  8
SCHRAFFUR
 62
     7
100
AcDbVertex
100
AcDb2dVertex
 10
96.865578
 20
183.854755
 30
0.0
  0
SEQEND
  5
136
100
AcDbEntity
  8
SCHRAFFUR
 62
     7
  0
POLYLINE
  5
12B
100
AcDbEntity
  8
SCHRAFFUR
 62
     7
100
AcDb2dPolyline
 66
     1
 10
0.0
 20
0.0
 30
0.0
  0
VERTEX
  5
12C
100
AcDbEntity
  8
SCHRAFFUR
 62
     7
100
AcDbVertex
100
AcDb2dVertex
 10
98.215883
 20
192.212385
 30
0.0
  0
VERTEX
  5
12D
100
AcDbEntity
  8
SCHRAFFUR
 62
     7
100
AcDbVertex
100
AcDb2dVertex
 10
99.415809
 20
192.212385
 30
0.0
  0
VERTEX
  5
12E
100
AcDbEntity
  8
SCHRAFFUR
 62
     7
100
AcDbVertex
100
AcDb2dVertex
 10
99.415809
 20
188.033656
 30
0.0
  0
VERTEX
  5
12F
100
AcDbEntity
  8
SCHRAFFUR
 62
     7
100
AcDbVertex
100
AcDb2dVertex
 10
97.015611
 20
188.033656
 30
0.0
  0
SEQEND
  5
130
100
AcDbEntity
  8
SCHRAFFUR
 62
     7
  0
POLYLINE
  5
125
100
AcDbEntity
  8
SCHRAFFUR
 62
     7
100
AcDb2dPolyline
 66
     1
 10
0.0
 20
0.0
 30
0.0
  0
VERTEX
  5
126
100
AcDbEntity
  8
SCHRAFFUR
 62
     7
100
AcDbVertex
100
AcDb2dVertex
 10
98.215883
 20
196.391113
 30
0.0
  0
VERTEX
  5
127
100
AcDbEntity
  8
SCHRAFFUR
 62
     7
100
AcDbVertex
100
AcDb2dVertex
 10
99.415809
 20
196.391113
 30
0.0
  0
VERTEX
  5
128
100
AcDbEntity
  8
SCHRAFFUR
 62
     7
100
AcDbVertex
100
AcDb2dVertex
 10
99.415809
 20
192.212385
 30
0.0
  0
VERTEX
  5
129
100
AcDbEntity
  8
SCHRAFFUR
 62
     7
100
AcDbVertex
100
AcDb2dVertex
 10
97.015611
 20
192.212385
 30
0.0
  0
SEQEND
  5
12A
100
AcDbEntity
  8
SCHRAFFUR
 62
     7
  0
POLYLINE
  5
11F
100
AcDbEntity
  8
SCHRAFFUR
 62
     7
100
AcDb2dPolyline
 66
     1
 10
0.0
 20
0.0
 30
0.0
  0
VERTEX
  5
120
100
AcDbEntity
  8
SCHRAFFUR
 62
     7
100
AcDbVertex
100
AcDb2dVertex
 10
97.015611
 20
200.570014
 30
0.0
  0
VERTEX
  5
121
100
AcDbEntity
  8
SCHRAFFUR
 62
     7
100
AcDbVertex
100
AcDb2dVertex
 10
99.415809
 20
200.570014
 30
0.0
  0
VERTEX
  5
122
100
AcDbEntity
  8
SCHRAFFUR
 62
     7
100
AcDbVertex
100
AcDb2dVertex
 10
99.415809
 20
196.391113
 30
0.0
  0
VERTEX
  5
123
100
AcDbEntity
  8
SCHRAFFUR
 62
     7
100
AcDbVertex
100
AcDb2dVertex
 10
97.015611
 20
196.391113
 30
0.0
  0
SEQEND
  5
124
100
AcDbEntity
  8
SCHRAFFUR
 62
     7
  0
POLYLINE
  5
119
100
AcDbEntity
  8
SCHRAFFUR
 62
     7
100
AcDb2dPolyline
 66
     1
 10
0.0
 20
0.0
 30
0.0
  0
VERTEX
  5
11A
100
AcDbEntity
  8
SCHRAFFUR
 62
     7
100
AcDbVertex
100
AcDb2dVertex
 10
97.015611
 20
204.748915
 30
0.0
  0
VERTEX
  5
11B
100
AcDbEntity
  8
SCHRAFFUR
 62
     7
100
AcDbVertex
100
AcDb2dVertex
 10
99.415809
 20
204.748915
 30
0.0
  0
VERTEX
  5
11C
100
AcDbEntity
  8
SCHRAFFUR
 62
     7
100
AcDbVertex
100
AcDb2dVertex
 10
99.415809
 20
200.570014
 30
0.0
  0
VERTEX
  5
11D
100
AcDbEntity
  8
SCHRAFFUR
 62
     7
100
AcDbVertex
100
AcDb2dVertex
 10
97.015611
 20
200.570014
 30
0.0
  0
SEQEND
  5
11E
100
AcDbEntity
  8
SCHRAFFUR
 62
     7
  0
HATCH
  5
118
100
AcDbEntity
  8
SCHRAFFUR
 62
     7
100
AcDbHatch
 10
0.0
 20
0.0
 30
0.0
210
0.0
220
0.0
230
1.0
  2
SOLID
 70
     1
 71
     0
 91
        4
 92
       16
 93
        1
 72
     4
 94
        3
 73
     0
 74
     0
 95
       23
 96
       19
 40
0.0
 40
0.0
 40
0.0
 40
0.0
 40
1.0
 40
1.0
 40
1.0
 40
2.0
 40
2.0
 40
2.0
 40
3.0
 40
3.0
 40
3.0
 40
4.0
 40
4.0
 40
4.0
 40
5.0
 40
5.0
 40
5.0
 40
6.0
 40
6.0
 40
6.0
 40
6.0
 10
94.845201280381943
 20
116.11832139756943
 10
94.845201280381943
 20
116.11832139756943
 10
99.415809461805551
 20
116.11832139756943
 10
99.415809461805551
 20
116.11832139756943
 10
99.415809461805551
 20
116.11832139756943
 10
99.415809461805551
 20
120.29687771267361
 10
99.415809461805551
 20
120.29687771267361
 10
99.415809461805551
 20
120.29687771267361
 10
85.210647243923603
 20
120.29687771267361
 10
85.210647243923603
 20
120.29687771267361
 10
85.210647243923603
 20
120.29687771267361
 10
85.214436848958329
 20
119.0969509548611
 10
85.214436848958329
 20
119.0969509548611
 10
85.214436848958329
 20
119.0969509548611
 10
89.215915256076386
 20
119.0969509548611
 10
89.215915256076386
 20
119.0969509548611
 10
91.397005208333326
 20
118.83753526475694
 10
93.40377332899304
 20
117.77575683593749
 10
94.845201280381943
 20
116.11832139756943
 97
        0
 92
       16
 93
        1
 72
     4
 94
        3
 73
     0
 74
     0
 95
       20
 96
       16
 40
0.0
 40
0.0
 40
0.0
 40
0.0
 40
1.0
 40
1.0
 40
1.0
 40
2.0
 40
2.0
 40
2.0
 40
3.0
 40
3.0
 40
3.0
 40
4.0
 40
4.0
 40
4.0
 40
5.0
 40
5.0
 40
5.0
 40
5.0
 10
97.015611436631929
 20
107.76086425781249
 10
97.015611436631929
 20
107.76086425781249
 10
99.415809461805551
 20
107.76086425781249
 10
99.415809461805551
 20
107.76086425781249
 10
99.415809461805551
 20
107.76086425781249
 10
99.415809461805551
 20
111.93907606336805
 10
99.415809461805551
 20
111.93907606336805
 10
99.415809461805551
 20
111.93907606336805
 10
96.865577528211801
 20
111.93907606336805
 10
96.865577528211801
 20
111.93907606336805
 10
96.971169704861097
 20
111.37408040364582
 10
97.021640353732636
 20
110.7997829861111
 10
97.015611436631929
 20
110.22479654947915
 10
97.015611436631929
 20
110.22479654947915
 10
97.015611436631929
 20
107.76086425781249
 10
97.015611436631929
 20
107.76086425781249
 97
        0
 92
       16
 93
        1
 72
     4
 94
        3
 73
     0
 74
     0
 95
       20
 96
       16
 40
0.0
 40
0.0
 40
0.0
 40
0.0
 40
1.0
 40
1.0
 40
1.0
 40
2.0
 40
2.0
 40
2.0
 40
3.0
 40
3.0
 40
3.0
 40
4.0
 40
4.0
 40
4.0
 40
5.0
 40
5.0
 40
5.0
 40
5.0
 10
97.015611436631929
 20
99.403062608506929
 10
97.015611436631929
 20
99.403062608506929
 10
99.415809461805551
 20
99.403062608506929
 10
99.415809461805551
 20
99.403062608506929
 10
99.415809461805551
 20
99.403062608506929
 10
99.415809461805551
 20
103.58196343315971
 10
99.415809461805551
 20
103.58196343315971
 10
99.415809461805551
 20
103.58196343315971
 10
98.215882703993046
 20
103.58196343315971
 10
98.215882703993046
 20
103.58196343315971
 10
98.215882703993046
 20
103.58196343315971
 10
97.015611436631929
 20
103.58196343315971
 10
97.015611436631929
 20
103.58196343315971
 10
97.015611436631929
 20
103.58196343315971
 10
97.015611436631929
 20
99.403062608506929
 10
97.015611436631929
 20
99.403062608506929
 97
        0
 92
       16
 93
        1
 72
     4
 94
        3
 73
     0
 74
     0
 95
       17
 96
       13
 40
0.0
 40
0.0
 40
0.0
 40
0.0
 40
1.0
 40
1.0
 40
1.0
 40
2.0
 40
2.0
 40
2.0
 40
3.0
 40
3.0
 40
3.0
 40
4.0
 40
4.0
 40
4.0
 40
4.0
 10
97.015611436631929
 20
91.045260959201386
 10
97.015611436631929
 20
91.045260959201386
 10
99.415809461805551
 20
91.045260959201386
 10
99.415809461805551
 20
91.045260959201386
 10
99.415809461805551
 20
91.045260959201386
 10
99.415809461805551
 20
95.224506293402769
 10
99.415809461805551
 20
95.224506293402769
 10
99.415809461805551
 20
95.224506293402769
 10
97.015611436631929
 20
95.224506293402769
 10
97.015611436631929
 20
95.224506293402769
 10
97.015611436631929
 20
95.224506293402769
 10
97.015611436631929
 20
91.045260959201386
 10
97.015611436631929
 20
91.045260959201386
 97
        0
 75
     0
 76
     1
 98
        1
 10
0.0
 20
0.0
  0
POLYLINE
  5
112
100
AcDbEntity
  8
SCHRAFFUR
 62
     7
100
AcDb2dPolyline
 66
     1
 10
0.0
 20
0.0
 30
0.0
  0
VERTEX
  5
113
100
AcDbEntity
  8
SCHRAFFUR
 62
     7
100
AcDbVertex
100
AcDb2dVertex
 10
97.015611
 20
91.045261
 30
0.0
  0
VERTEX
  5
114
100
AcDbEntity
  8
SCHRAFFUR
 62
     7
100
AcDbVertex
100
AcDb2dVertex
 10
99.415809
 20
91.045261
 30
0.0
  0
VERTEX
  5
115
100
AcDbEntity
  8
SCHRAFFUR
 62
     7
100
AcDbVertex
100
AcDb2dVertex
 10
99.415809
 20
95.224506
 30
0.0
  0
VERTEX
  5
116
100
AcDbEntity
  8
SCHRAFFUR
 62
     7
100
AcDbVertex
100
AcDb2dVertex
 10
97.015611
 20
95.224506
 30
0.0
  0
SEQEND
  5
117
100
AcDbEntity
  8
SCHRAFFUR
 62
     7
  0
POLYLINE
  5
10C
100
AcDbEntity
  8
SCHRAFFUR
 62
     7
100
AcDb2dPolyline
 66
     1
 10
0.0
 20
0.0
 30
0.0
  0
VERTEX
  5
10D
100
AcDbEntity
  8
SCHRAFFUR
 62
     7
100
AcDbVertex
100
AcDb2dVertex
 10
98.215883
 20
99.403063
 30
0.0
  0
VERTEX
  5
10E
100
AcDbEntity
  8
SCHRAFFUR
 62
     7
100
AcDbVertex
100
AcDb2dVertex
 10
99.415809
 20
99.403063
 30
0.0
  0
VERTEX
  5
10F
100
AcDbEntity
  8
SCHRAFFUR
 62
     7
100
AcDbVertex
100
AcDb2dVertex
 10
99.415809
 20
103.581963
 30
0.0
  0
VERTEX
  5
110
100
AcDbEntity
  8
SCHRAFFUR
 62
     7
100
AcDbVertex
100
AcDb2dVertex
 10
97.015611
 20
103.581963
 30
0.0
  0
SEQEND
  5
111
100
AcDbEntity
  8
SCHRAFFUR
 62
     7
  0
POLYLINE
  5
106
100
AcDbEntity
  8
SCHRAFFUR
 62
     7
100
AcDb2dPolyline
 66
     1
 10
0.0
 20
0.0
 30
0.0
  0
VERTEX
  5
107
100
AcDbEntity
  8
SCHRAFFUR
 62
     7
100
AcDbVertex
100
AcDb2dVertex
 10
97.015611
 20
95.224506
 30
0.0
  0
VERTEX
  5
108
100
AcDbEntity
  8
SCHRAFFUR
 62
     7
100
AcDbVertex
100
AcDb2dVertex
 10
99.415809
 20
95.224506
 30
0.0
  0
VERTEX
  5
109
100
AcDbEntity
  8
SCHRAFFUR
 62
     7
100
AcDbVertex
100
AcDb2dVertex
 10
99.415809
 20
99.403063
 30
0.0
  0
VERTEX
  5
10A
100
AcDbEntity
  8
SCHRAFFUR
 62
     7
100
AcDbVertex
100
AcDb2dVertex
 10
97.015611
 20
99.403063
 30
0.0
  0
SEQEND
  5
10B
100
AcDbEntity
  8
SCHRAFFUR
 62
     7
  0
POLYLINE
  5
100
100
AcDbEntity
  8
SCHRAFFUR
 62
     7
100
AcDb2dPolyline
 66
     1
 10
0.0
 20
0.0
 30
0.0
  0
VERTEX
  5
101
100
AcDbEntity
  8
SCHRAFFUR
 62
     7
100
AcDbVertex
100
AcDb2dVertex
 10
98.215883
 20
103.581963
 30
0.0
  0
VERTEX
  5
102
100
AcDbEntity
  8
SCHRAFFUR
 62
     7
100
AcDbVertex
100
AcDb2dVertex
 10
99.415809
 20
103.581963
 30
0.0
  0
VERTEX
  5
103
100
AcDbEntity
  8
SCHRAFFUR
 62
     7
100
AcDbVertex
100
AcDb2dVertex
 10
99.415809
 20
107.760864
 30
0.0
  0
VERTEX
  5
104
100
AcDbEntity
  8
SCHRAFFUR
 62
     7
100
AcDbVertex
100
AcDb2dVertex
 10
97.015611
 20
107.760864
 30
0.0
  0
SEQEND
  5
105
100
AcDbEntity
  8
SCHRAFFUR
 62
     7
  0
LINE
  5
FF
100
AcDbEntity
  8
SCHRAFFUR
 62
     7
100
AcDbLine
 10
85.210647
 20
174.202976
 30
0.0
 11
86.50497
 21
175.497126
 31
0.0
  0
LINE
  5
FE
100
AcDbEntity
  8
SCHRAFFUR
 62
     7
100
AcDbLine
 10
85.620269
 20
171.897173
 30
0.0
 11
89.220394
 21
175.497126
 31
0.0
  0
LINE
  5
FD
100
AcDbEntity
  8
SCHRAFFUR
 62
     7
100
AcDbLine
 10
88.335693
 20
171.897173
 30
0.0
 11
91.935646
 21
175.497126
 31
0.0
  0
LINE
  5
FC
100
AcDbEntity
  8
SCHRAFFUR
 62
     7
100
AcDbLine
 10
91.050945
 20
171.897173
 30
0.0
 11
94.650898
 21
175.497126
 31
0.0
  0
LINE
  5
FB
100
AcDbEntity
  8
SCHRAFFUR
 62
     7
100
AcDbLine
 10
93.766197
 20
171.897173
 30
0.0
 11
97.366322
 21
175.497126
 31
0.0
  0
LINE
  5
FA
100
AcDbEntity
  8
SCHRAFFUR
 62
     7
100
AcDbLine
 10
96.481622
 20
171.897173
 30
0.0
 11
100.081402
 21
175.497126
 31
0.0
  0
LINE
  5
F9
100
AcDbEntity
  8
SCHRAFFUR
 62
     7
100
AcDbLine
 10
99.196701
 20
171.897173
 30
0.0
 11
102.796826
 21
175.497126
 31
0.0
  0
LINE
  5
F8
100
AcDbEntity
  8
SCHRAFFUR
 62
     7
100
AcDbLine
 10
101.912126
 20
171.897173
 30
0.0
 11
105.51225
 21
175.497126
 31
0.0
  0
LINE
  5
F7
100
AcDbEntity
  8
SCHRAFFUR
 62
     7
100
AcDbLine
 10
104.627378
 20
171.897173
 30
0.0
 11
108.226986
 21
175.497126
 31
0.0
  0
LINE
  5
F6
100
AcDbEntity
  8
SCHRAFFUR
 62
     7
100
AcDbLine
 10
107.342285
 20
171.897173
 30
0.0
 11
110.942754
 21
175.497126
 31
0.0
  0
LINE
  5
F5
100
AcDbEntity
  8
SCHRAFFUR
 62
     7
100
AcDbLine
 10
110.058054
 20
171.897173
 30
0.0
 11
113.657834
 21
175.497126
 31
0.0
  0
LINE
  5
F4
100
AcDbEntity
  8
SCHRAFFUR
 62
     7
100
AcDbLine
 10
112.773134
 20
171.897173
 30
0.0
 11
116.373258
 21
175.497126
 31
0.0
  0
LINE
  5
F3
100
AcDbEntity
  8
SCHRAFFUR
 62
     7
100
AcDbLine
 10
115.488558
 20
171.897173
 30
0.0
 11
119.088683
 21
175.497126
 31
0.0
  0
LINE
  5
F2
100
AcDbEntity
  8
SCHRAFFUR
 62
     7
100
AcDbLine
 10
118.203982
 20
171.897173
 30
0.0
 11
121.803418
 21
175.497126
 31
0.0
  0
LINE
  5
F1
100
AcDbEntity
  8
SCHRAFFUR
 62
     7
100
AcDbLine
 10
120.918717
 20
171.897173
 30
0.0
 11
124.519187
 21
175.497126
 31
0.0
  0
LINE
  5
F0
100
AcDbEntity
  8
SCHRAFFUR
 62
     7
100
AcDbLine
 10
123.634486
 20
171.897173
 30
0.0
 11
127.234266
 21
175.497126
 31
0.0
  0
LINE
  5
EF
100
AcDbEntity
  8
SCHRAFFUR
 62
     7
100
AcDbLine
 10
126.349566
 20
171.897173
 30
0.0
 11
129.949691
 21
175.497126
 31
0.0
  0
LINE
  5
EE
100
AcDbEntity
  8
SCHRAFFUR
 62
     7
100
AcDbLine
 10
129.06499
 20
171.897173
 30
0.0
 11
132.665115
 21
175.497126
 31
0.0
  0
LINE
  5
ED
100
AcDbEntity
  8
SCHRAFFUR
 62
     7
100
AcDbLine
 10
131.780414
 20
171.897173
 30
0.0
 11
135.37985
 21
175.497126
 31
0.0
  0
LINE
  5
EC
100
AcDbEntity
  8
SCHRAFFUR
 62
     7
100
AcDbLine
 10
85.210647
 20
122.612671
 30
0.0
 11
86.495323
 21
123.897002
 31
0.0
  0
LINE
  5
EB
100
AcDbEntity
  8
SCHRAFFUR
 62
     7
100
AcDbLine
 10
134.49515
 20
171.897173
 30
0.0
 11
138.095619
 21
175.497126
 31
0.0
  0
LINE
  5
EA
100
AcDbEntity
  8
SCHRAFFUR
 62
     7
100
AcDbLine
 10
85.610623
 20
120.296878
 30
0.0
 11
89.210748
 21
123.897002
 31
0.0
  0
LINE
  5
E9
100
AcDbEntity
  8
SCHRAFFUR
 62
     7
100
AcDbLine
 10
137.210919
 20
171.897173
 30
0.0
 11
140.810699
 21
175.497126
 31
0.0
  0
LINE
  5
E8
100
AcDbEntity
  8
SCHRAFFUR
 62
     7
100
AcDbLine
 10
88.326047
 20
120.296878
 30
0.0
 11
91.926172
 21
123.897002
 31
0.0
  0
LINE
  5
E7
100
AcDbEntity
  8
SCHRAFFUR
 62
     7
100
AcDbLine
 10
139.925998
 20
171.897173
 30
0.0
 11
143.526123
 21
175.497126
 31
0.0
  0
LINE
  5
E6
100
AcDbEntity
  8
SCHRAFFUR
 62
     7
100
AcDbLine
 10
91.041471
 20
120.296878
 30
0.0
 11
94.641424
 21
123.897002
 31
0.0
  0
LINE
  5
E5
100
AcDbEntity
  8
SCHRAFFUR
 62
     7
100
AcDbLine
 10
142.641423
 20
171.897173
 30
0.0
 11
146.241547
 21
175.497126
 31
0.0
  0
LINE
  5
E4
100
AcDbEntity
  8
SCHRAFFUR
 62
     7
100
AcDbLine
 10
93.756723
 20
120.296878
 30
0.0
 11
97.356676
 21
123.897002
 31
0.0
  0
LINE
  5
E3
100
AcDbEntity
  8
SCHRAFFUR
 62
     7
100
AcDbLine
 10
145.356847
 20
171.897173
 30
0.0
 11
148.956283
 21
175.497126
 31
0.0
  0
LINE
  5
E2
100
AcDbEntity
  8
SCHRAFFUR
 62
     7
100
AcDbLine
 10
96.471975
 20
120.296878
 30
0.0
 11
100.071756
 21
123.897002
 31
0.0
  0
LINE
  5
E1
100
AcDbEntity
  8
SCHRAFFUR
 62
     7
100
AcDbLine
 10
148.071582
 20
171.897173
 30
0.0
 11
151.672051
 21
175.497126
 31
0.0
  0
LINE
  5
E0
100
AcDbEntity
  8
SCHRAFFUR
 62
     7
100
AcDbLine
 10
99.187055
 20
120.296878
 30
0.0
 11
102.78718
 21
123.897002
 31
0.0
  0
LINE
  5
DF
100
AcDbEntity
  8
SCHRAFFUR
 62
     7
100
AcDbLine
 10
150.787351
 20
171.897173
 30
0.0
 11
154.387131
 21
175.497126
 31
0.0
  0
LINE
  5
DE
100
AcDbEntity
  8
SCHRAFFUR
 62
     7
100
AcDbLine
 10
101.902479
 20
120.296878
 30
0.0
 11
105.50226
 21
123.897002
 31
0.0
  0
LINE
  5
DD
100
AcDbEntity
  8
SCHRAFFUR
 62
     7
100
AcDbLine
 10
153.502431
 20
171.897173
 30
0.0
 11
157.015739
 21
175.410482
 31
0.0
  0
LINE
  5
DC
100
AcDbEntity
  8
SCHRAFFUR
 62
     7
100
AcDbLine
 10
104.617904
 20
120.296878
 30
0.0
 11
108.218028
 21
123.897002
 31
0.0
  0
LINE
  5
DB
100
AcDbEntity
  8
SCHRAFFUR
 62
     7
100
AcDbLine
 10
156.217855
 20
171.897173
 30
0.0
 11
157.015739
 21
172.69523
 31
0.0
  0
LINE
  5
DA
100
AcDbEntity
  8
SCHRAFFUR
 62
     7
100
AcDbLine
 10
107.333328
 20
120.296878
 30
0.0
 11
110.932764
 21
123.897002
 31
0.0
  0
LINE
  5
D9
100
AcDbEntity
  8
SCHRAFFUR
 62
     7
100
AcDbLine
 10
110.048063
 20
120.296878
 30
0.0
 11
113.648532
 21
123.897002
 31
0.0
  0
LINE
  5
D8
100
AcDbEntity
  8
SCHRAFFUR
 62
     7
100
AcDbLine
 10
112.763832
 20
120.296878
 30
0.0
 11
116.363612
 21
123.897002
 31
0.0
  0
LINE
  5
D7
100
AcDbEntity
  8
SCHRAFFUR
 62
     7
100
AcDbLine
 10
115.478912
 20
120.296878
 30
0.0
 11
119.078692
 21
123.897002
 31
0.0
  0
LINE
  5
D6
100
AcDbEntity
  8
SCHRAFFUR
 62
     7
100
AcDbLine
 10
118.193991
 20
120.296878
 30
0.0
 11
121.794461
 21
123.897002
 31
0.0
  0
LINE
  5
D5
100
AcDbEntity
  8
SCHRAFFUR
 62
     7
100
AcDbLine
 10
120.90976
 20
120.296878
 30
0.0
 11
124.509196
 21
123.897002
 31
0.0
  0
LINE
  5
D4
100
AcDbEntity
  8
SCHRAFFUR
 62
     7
100
AcDbLine
 10
123.624495
 20
120.296878
 30
0.0
 11
127.224965
 21
123.897002
 31
0.0
  0
LINE
  5
D3
100
AcDbEntity
  8
SCHRAFFUR
 62
     7
100
AcDbLine
 10
126.340264
 20
120.296878
 30
0.0
 11
129.940044
 21
123.897002
 31
0.0
  0
LINE
  5
D2
100
AcDbEntity
  8
SCHRAFFUR
 62
     7
100
AcDbLine
 10
129.055344
 20
120.296878
 30
0.0
 11
132.655469
 21
123.897002
 31
0.0
  0
LINE
  5
D1
100
AcDbEntity
  8
SCHRAFFUR
 62
     7
100
AcDbLine
 10
131.770768
 20
120.296878
 30
0.0
 11
135.370893
 21
123.897002
 31
0.0
  0
LINE
  5
D0
100
AcDbEntity
  8
SCHRAFFUR
 62
     7
100
AcDbLine
 10
134.486192
 20
120.296878
 30
0.0
 11
138.085628
 21
123.897002
 31
0.0
  0
LINE
  5
CF
100
AcDbEntity
  8
SCHRAFFUR
 62
     7
100
AcDbLine
 10
137.200928
 20
120.296878
 30
0.0
 11
140.801397
 21
123.897002
 31
0.0
  0
LINE
  5
CE
100
AcDbEntity
  8
SCHRAFFUR
 62
     7
100
AcDbLine
 10
139.916697
 20
120.296878
 30
0.0
 11
143.516477
 21
123.897002
 31
0.0
  0
LINE
  5
CD
100
AcDbEntity
  8
SCHRAFFUR
 62
     7
100
AcDbLine
 10
142.631776
 20
120.296878
 30
0.0
 11
146.231901
 21
123.897002
 31
0.0
  0
LINE
  5
CC
100
AcDbEntity
  8
SCHRAFFUR
 62
     7
100
AcDbLine
 10
145.347201
 20
120.296878
 30
0.0
 11
148.947325
 21
123.897002
 31
0.0
  0
LINE
  5
CB
100
AcDbEntity
  8
SCHRAFFUR
 62
     7
100
AcDbLine
 10
148.062625
 20
120.296878
 30
0.0
 11
151.662061
 21
123.897002
 31
0.0
  0
LINE
  5
CA
100
AcDbEntity
  8
SCHRAFFUR
 62
     7
100
AcDbLine
 10
150.77736
 20
120.296878
 30
0.0
 11
154.377829
 21
123.897002
 31
0.0
  0
LINE
  5
C9
100
AcDbEntity
  8
SCHRAFFUR
 62
     7
100
AcDbLine
 10
153.493129
 20
120.296878
 30
0.0
 11
157.015739
 21
123.820177
 31
0.0
  0
LINE
  5
C8
100
AcDbEntity
  8
SCHRAFFUR
 62
     7
100
AcDbLine
 10
156.208209
 20
120.296878
 30
0.0
 11
157.015739
 21
121.104408
 31
0.0
  0
LINE
  5
C7
100
AcDbEntity
  8
SCHRAFFUR
 62
     7
100
AcDbLine
 10
99.415809
 20
199.184397
 30
0.0
 11
108.128456
 21
207.897215
 31
0.0
  0
LINE
  5
C6
100
AcDbEntity
  8
SCHRAFFUR
 62
     7
100
AcDbLine
 10
99.415809
 20
188.407966
 30
0.0
 11
118.905059
 21
207.897215
 31
0.0
  0
LINE
  5
C5
100
AcDbEntity
  8
SCHRAFFUR
 62
     7
100
AcDbLine
 10
99.415809
 20
177.631535
 30
0.0
 11
129.680973
 21
207.897215
 31
0.0
  0
LINE
  5
C4
100
AcDbEntity
  8
SCHRAFFUR
 62
     7
100
AcDbLine
 10
108.057487
 20
175.497126
 30
0.0
 11
140.457921
 21
207.897215
 31
0.0
  0
LINE
  5
C3
100
AcDbEntity
  8
SCHRAFFUR
 62
     7
100
AcDbLine
 10
118.833746
 20
175.497126
 30
0.0
 11
151.233835
 21
207.897215
 31
0.0
  0
LINE
  5
C2
100
AcDbEntity
  8
SCHRAFFUR
 62
     7
100
AcDbLine
 10
129.610349
 20
175.497126
 30
0.0
 11
157.015739
 21
202.902688
 31
0.0
  0
LINE
  5
C1
100
AcDbEntity
  8
SCHRAFFUR
 62
     7
100
AcDbLine
 10
140.386263
 20
175.497126
 30
0.0
 11
157.015739
 21
192.126602
 31
0.0
  0
LINE
  5
C0
100
AcDbEntity
  8
SCHRAFFUR
 62
     7
100
AcDbLine
 10
151.163211
 20
175.497126
 30
0.0
 11
157.015739
 21
181.350171
 31
0.0
  0
LINE
  5
BF
100
AcDbEntity
  8
SCHRAFFUR
 62
     7
100
AcDbLine
 10
99.415809
 20
112.973983
 30
0.0
 11
106.739393
 21
120.296878
 31
0.0
  0
LINE
  5
BE
100
AcDbEntity
  8
SCHRAFFUR
 62
     7
100
AcDbLine
 10
99.415809
 20
102.197724
 30
0.0
 11
117.515652
 21
120.296878
 31
0.0
  0
LINE
  5
BD
100
AcDbEntity
  8
SCHRAFFUR
 62
     7
100
AcDbLine
 10
97.015611
 20
89.021267
 30
0.0
 11
99.040122
 21
91.045261
 31
0.0
  0
LINE
  5
BC
100
AcDbEntity
  8
SCHRAFFUR
 62
     7
100
AcDbLine
 10
99.415809
 20
91.421121
 30
0.0
 11
128.291566
 21
120.296878
 31
0.0
  0
LINE
  5
BB
100
AcDbEntity
  8
SCHRAFFUR
 62
     7
100
AcDbLine
 10
106.540267
 20
87.768975
 30
0.0
 11
139.068169
 21
120.296878
 31
0.0
  0
LINE
  5
BA
100
AcDbEntity
  8
SCHRAFFUR
 62
     7
100
AcDbLine
 10
117.316526
 20
87.768975
 30
0.0
 11
149.844428
 21
120.296878
 31
0.0
  0
LINE
  5
B9
100
AcDbEntity
  8
SCHRAFFUR
 62
     7
100
AcDbLine
 10
128.093129
 20
87.768975
 30
0.0
 11
157.015739
 21
116.692619
 31
0.0
  0
LINE
  5
B8
100
AcDbEntity
  8
SCHRAFFUR
 62
     7
100
AcDbLine
 10
138.869043
 20
87.768975
 30
0.0
 11
157.015739
 21
105.915671
 31
0.0
  0
LINE
  5
B7
100
AcDbEntity
  8
SCHRAFFUR
 62
     7
100
AcDbLine
 10
149.645302
 20
87.768975
 30
0.0
 11
157.015739
 21
95.139757
 31
0.0
  0
LINE
  5
B5
100
AcDbEntity
  8
MITTELLINIE
  6
AI9-LType1
 62
     7
100
AcDbLine
 10
173.666574
 20
147.89726
 30
0.0
 11
71.381862
 21
147.89726
 31
0.0
  0
LINE
  5
B3
100
AcDbEntity
  8
MITTELLINIE
 62
     7
100
AcDbLine
 10
99.383426
 20
166.570711
 30
0.0
 11
110.985818
 21
166.570711
 31
0.0
  0
LINE
  5
B2
100
AcDbEntity
  8
MITTELLINIE
 62
     7
100
AcDbLine
 10
109.992942
 20
147.89726
 30
0.0
 11
98.410703
 21
147.89726
 31
0.0
  0
LINE
  5
B1
100
AcDbEntity
  8
MITTELLINIE
 62
     7
100
AcDbLine
 10
98.876652
 20
129.223465
 30
0.0
 11
110.985818
 21
129.223465
 31
0.0
  0
LINE
  5
AF
100
AcDbEntity
  8
AM_8
 62
     7
100
AcDbLine
 10
93.87644
 20
177.998093
 30
0.0
 11
72.672222
 21
197.281498
 31
0.0
  0
LINE
  5
AE
100
AcDbEntity
  8
AM_8
 62
     7
100
AcDbLine
 10
98.215883
 20
95.69614
 30
0.0
 11
70.004685
 21
103.296021
 31
0.0
  0
LINE
  5
AD
100
AcDbEntity
  8
AM_8
 62
     7
100
AcDbLine
 10
103.144264
 20
163.40329
 30
0.0
 11
63.125518
 21
167.833683
 31
0.0
  0
LINE
  5
AB
100
AcDbEntity
  8
AM_0
 62
     7
100
AcDbLine
 10
157.015739
 20
207.897215
 30
0.0
 11
157.015739
 21
171.897173
 31
0.0
  0
LINE
  5
AA
100
AcDbEntity
  8
AM_0
 62
     7
100
AcDbLine
 10
157.015739
 20
123.897002
 30
0.0
 11
157.015739
 21
87.897133
 31
0.0
  0
LINE
  5
A9
100
AcDbEntity
  8
AM_0
 62
     7
100
AcDbLine
 10
157.015739
 20
171.897173
 30
0.0
 11
85.210647
 21
171.897173
 31
0.0
  0
LINE
  5
A8
100
AcDbEntity
  8
AM_0
 62
     7
100
AcDbLine
 10
157.015739
 20
175.497126
 30
0.0
 11
85.210647
 21
175.497126
 31
0.0
  0
LINE
  5
A7
100
AcDbEntity
  8
AM_0
 62
     7
100
AcDbLine
 10
89.215915
 20
176.697053
 30
0.0
 11
85.210647
 21
176.697053
 31
0.0
  0
SPLINE
  5
A6
100
AcDbEntity
  8
AM_0
 62
     7
100
AcDbSpline
210
0.0
220
0.0
230
1.0
 70
     8
 71
     3
 72
     8
 73
     4
 74
     0
 42
0.00000001
 43
0.00000001
 40
0.0
 40
0.0
 40
0.0
 40
0.0
 40
1.0
 40
1.0
 40
1.0
 40
1.0
 10
89.215915256076386
 20
176.69705268012152
 30
0.0
 10
93.699018012152763
 20
177.23052571614582
 30
0.0
 10
97.061086697048609
 20
181.05492621527776
 30
0.0
 10
97.015611436631929
 20
185.56972384982637
 30
0.0
  0
LINE
  5
A5
100
AcDbEntity
  8
AM_0
 62
     7
100
AcDbLine
 10
157.015739
 20
123.897002
 30
0.0
 11
85.210647
 21
123.897002
 31
0.0
  0
LINE
  5
A4
100
AcDbEntity
  8
AM_0
 62
     7
100
AcDbLine
 10
157.015739
 20
120.296878
 30
0.0
 11
85.210647
 21
120.296878
 31
0.0
  0
LINE
  5
A3
100
AcDbEntity
  8
AM_0
 62
     7
100
AcDbLine
 10
99.415809
 20
171.897173
 30
0.0
 11
98.215883
 21
171.897173
 31
0.0
  0
LINE
  5
A2
100
AcDbEntity
  8
AM_0
 62
     7
100
AcDbLine
 10
99.415809
 20
123.897002
 30
0.0
 11
98.215883
 21
123.897002
 31
0.0
  0
LINE
  5
A1
100
AcDbEntity
  8
AM_0
 62
     7
100
AcDbLine
 10
99.415809
 20
120.296878
 30
0.0
 11
99.415809
 21
88.024601
 31
0.0
  0
LINE
  5
A0
100
AcDbEntity
  8
AM_0
 62
     7
100
AcDbLine
 10
99.415809
 20
175.497126
 30
0.0
 11
99.415809
 21
207.897215
 31
0.0
  0
LINE
  5
9F
100
AcDbEntity
  8
AM_0
 62
     7
100
AcDbLine
 10
97.015611
 20
185.569724
 30
0.0
 11
97.015611
 21
207.897215
 31
0.0
  0
LINE
  5
9E
100
AcDbEntity
  8
AM_0
 62
     7
100
AcDbLine
 10
157.015739
 20
171.897173
 30
0.0
 11
157.015739
 21
161.097144
 31
0.0
  0
LINE
  5
9D
100
AcDbEntity
  8
AM_0
 62
     7
100
AcDbLine
 10
157.015739
 20
134.697032
 30
0.0
 11
157.015739
 21
123.897002
 31
0.0
  0
LINE
  5
9C
100
AcDbEntity
  8
AM_0
 62
     7
100
AcDbLine
 10
108.385805
 20
124.377249
 30
0.0
 11
106.465508
 21
124.377249
 31
0.0
  0
LINE
  5
9B
100
AcDbEntity
  8
AM_0
 62
     7
100
AcDbLine
 10
108.385805
 20
171.417272
 30
0.0
 11
108.385805
 21
124.377249
 31
0.0
  0
LINE
  5
9A
100
AcDbEntity
  8
AM_0
 62
     7
100
AcDbLine
 10
106.465508
 20
124.377249
 30
0.0
 11
106.465508
 21
171.417272
 31
0.0
  0
LINE
  5
99
100
AcDbEntity
  8
AM_0
 62
     7
100
AcDbLine
 10
101.665801
 20
124.377249
 30
0.0
 11
99.745505
 21
124.377249
 31
0.0
  0
LINE
  5
98
100
AcDbEntity
  8
AM_0
 62
     7
100
AcDbLine
 10
85.210647
 20
119.096951
 30
0.0
 11
85.210647
 21
134.697032
 31
0.0
  0
LINE
  5
97
100
AcDbEntity
  8
AM_0
 62
     7
100
AcDbLine
 10
85.210647
 20
161.097144
 30
0.0
 11
85.210647
 21
175.497126
 31
0.0
  0
LINE
  5
96
100
AcDbEntity
  8
AM_0
 62
     7
100
AcDbLine
 10
106.465508
 20
171.897173
 30
0.0
 11
101.665801
 21
171.897173
 31
0.0
  0
LINE
  5
95
100
AcDbEntity
  8
AM_0
 62
     7
100
AcDbLine
 10
85.210647
 20
176.697053
 30
0.0
 11
85.210647
 21
161.097144
 31
0.0
  0
LINE
  5
94
100
AcDbEntity
  8
AM_0
 62
     7
100
AcDbLine
 10
106.465508
 20
171.417272
 30
0.0
 11
108.385805
 21
171.417272
 31
0.0
  0
LINE
  5
93
100
AcDbEntity
  8
AM_0
 62
     7
100
AcDbLine
 10
106.465508
 20
123.897002
 30
0.0
 11
106.465508
 21
171.897173
 31
0.0
  0
LINE
  5
92
100
AcDbEntity
  8
AM_0
 62
     7
100
AcDbLine
 10
101.665801
 20
123.897002
 30
0.0
 11
106.465508
 21
123.897002
 31
0.0
  0
LINE
  5
91
100
AcDbEntity
  8
AM_0
 62
     7
100
AcDbLine
 10
101.665801
 20
171.897173
 30
0.0
 11
101.665801
 21
123.897002
 31
0.0
  0
LINE
  5
90
100
AcDbEntity
  8
AM_0
 62
     7
100
AcDbLine
 10
101.665801
 20
171.417272
 30
0.0
 11
101.665801
 21
124.377249
 31
0.0
  0
LINE
  5
8F
100
AcDbEntity
  8
AM_0
 62
     7
100
AcDbLine
 10
99.745505
 20
124.377249
 30
0.0
 11
99.745505
 21
171.417272
 31
0.0
  0
LINE
  5
8E
100
AcDbEntity
  8
AM_0
 62
     7
100
AcDbLine
 10
99.745505
 20
171.417272
 30
0.0
 11
101.665801
 21
171.417272
 31
0.0
  0
POLYLINE
  5
88
100
AcDbEntity
  8
AM_0
 62
     7
100
AcDb2dPolyline
 66
     1
 10
0.0
 20
0.0
 30
0.0
 70
     1
  0
VERTEX
  5
89
100
AcDbEntity
  8
AM_0
 62
     7
100
AcDbVertex
100
AcDb2dVertex
 10
108.385805
 20
168.874791
 30
0.0
  0
VERTEX
  5
8A
100
AcDbEntity
  8
AM_0
 62
     7
100
AcDbVertex
100
AcDb2dVertex
 10
108.385805
 20
164.266804
 30
0.0
  0
VERTEX
  5
8B
100
AcDbEntity
  8
AM_0
 62
     7
100
AcDbVertex
100
AcDb2dVertex
 10
108.865706
 20
164.266804
 30
0.0
  0
VERTEX
  5
8C
100
AcDbEntity
  8
AM_0
 62
     7
100
AcDbVertex
100
AcDb2dVertex
 10
108.865706
 20
168.874791
 30
0.0
  0
SEQEND
  5
8D
100
AcDbEntity
  8
AM_0
 62
     7
  0
POLYLINE
  5
82
100
AcDbEntity
  8
AM_0
 62
     7
100
AcDb2dPolyline
 66
     1
 10
0.0
 20
0.0
 30
0.0
 70
     1
  0
VERTEX
  5
83
100
AcDbEntity
  8
AM_0
 62
     7
100
AcDbVertex
100
AcDb2dVertex
 10
108.385805
 20
126.919729
 30
0.0
  0
VERTEX
  5
84
100
AcDbEntity
  8
AM_0
 62
     7
100
AcDbVertex
100
AcDb2dVertex
 10
108.385805
 20
131.527889
 30
0.0
  0
VERTEX
  5
85
100
AcDbEntity
  8
AM_0
 62
     7
100
AcDbVertex
100
AcDb2dVertex
 10
108.865706
 20
131.527889
 30
0.0
  0
VERTEX
  5
86
100
AcDbEntity
  8
AM_0
 62
     7
100
AcDbVertex
100
AcDb2dVertex
 10
108.865706
 20
126.919729
 30
0.0
  0
SEQEND
  5
87
100
AcDbEntity
  8
AM_0
 62
     7
  0
LINE
  5
81
100
AcDbEntity
  8
AM_0
 62
     7
100
AcDbLine
 10
167.647993
 20
161.097144
 30
0.0
 11
108.385805
 21
161.097144
 31
0.0
  0
LINE
  5
80
100
AcDbEntity
  8
AM_0
 62
     7
100
AcDbLine
 10
99.745505
 20
161.097144
 30
0.0
 11
76.467684
 21
161.097144
 31
0.0
  0
LINE
  5
7F
100
AcDbEntity
  8
AM_0
 62
     7
100
AcDbLine
 10
167.647993
 20
134.697032
 30
0.0
 11
108.385805
 21
134.697032
 31
0.0
  0
LINE
  5
7E
100
AcDbEntity
  8
AM_0
 62
     7
100
AcDbLine
 10
99.745505
 20
134.697032
 30
0.0
 11
76.467684
 21
134.697032
 31
0.0
  0
SPLINE
  5
7D
100
AcDbEntity
  8
AM_0
 62
     7
100
AcDbSpline
210
0.0
220
0.0
230
1.0
 70
     8
 71
     3
 72
     8
 73
     4
 74
     0
 42
0.00000001
 43
0.00000001
 40
0.0
 40
0.0
 40
0.0
 40
0.0
 40
1.0
 40
1.0
 40
1.0
 40
1.0
 10
167.73067491319443
 20
144.96720648871528
 30
0.0
 10
169.31197374131943
 20
149.5257568359375
 30
0.0
 10
169.99444715711803
 20
154.34785698784719
 30
0.0
 10
169.74123263888887
 20
159.16616753472221
 30
0.0
  0
SPLINE
  5
7C
100
AcDbEntity
  8
AM_0
 62
     7
100
AcDbSpline
210
0.0
220
0.0
230
1.0
 70
     8
 71
     3
 72
     8
 73
     4
 74
     0
 42
0.00000001
 43
0.00000001
 40
0.0
 40
0.0
 40
0.0
 40
0.0
 40
1.0
 40
1.0
 40
1.0
 40
1.0
 10
166.0584255642361
 20
151.9042507595486
 30
0.0
 10
166.51558973524305
 20
149.56882052951389
 30
0.0
 10
167.07369520399305
 20
147.25440538194442
 30
0.0
 10
167.73067491319443
 20
144.96720648871528
 30
0.0
  0
SPLINE
  5
7B
100
AcDbEntity
  8
AM_0
 62
     7
100
AcDbSpline
210
0.0
220
0.0
230
1.0
 70
     8
 71
     3
 72
     8
 73
     4
 74
     0
 42
0.00000001
 43
0.00000001
 40
0.0
 40
0.0
 40
0.0
 40
0.0
 40
1.0
 40
1.0
 40
1.0
 40
1.0
 10
165.55854220920136
 20
159.2061306423611
 30
0.0
 10
165.42383897569442
 20
156.60646158854166
 30
0.0
 10
165.62158745659721
 20
154.00059136284722
 30
0.0
 10
166.14799804687499
 20
151.45122070312499
 30
0.0
  0
SPLINE
  5
7A
100
AcDbEntity
  8
AM_0
 62
     7
100
AcDbSpline
210
0.0
220
0.0
230
1.0
 70
     8
 71
     3
 72
     8
 73
     4
 74
     0
 42
0.00000001
 43
0.00000001
 40
0.0
 40
0.0
 40
0.0
 40
0.0
 40
1.0
 40
1.0
 40
1.0
 40
1.0
 10
167.73067491319443
 20
144.96720648871528
 30
0.0
 10
168.69220106336803
 20
149.57812228732638
 30
0.0
 10
168.96746419270832
 20
154.30582682291666
 30
0.0
 10
168.54785156249997
 20
158.99701334635415
 30
0.0
  0
SPLINE
  5
79
100
AcDbEntity
  8
AM_0
 62
     7
100
AcDbSpline
210
0.0
220
0.0
230
1.0
 70
     8
 71
     3
 72
     8
 73
     4
 74
     0
 42
0.00000001
 43
0.00000001
 40
0.0
 40
0.0
 40
0.0
 40
0.0
 40
1.0
 40
1.0
 40
1.0
 40
1.0
 10
166.74813368055555
 20
158.99701334635415
 30
0.0
 10
166.42016059027776
 20
154.29755859374998
 30
0.0
 10
166.75088975694442
 20
149.57519395616319
 30
0.0
 10
167.73067491319443
 20
144.96720648871528
 30
0.0
  0
SPLINE
  5
78
100
AcDbEntity
  8
AM_0
 62
     7
100
AcDbSpline
210
0.0
220
0.0
230
1.0
 70
     8
 71
     3
 72
    11
 73
     7
 74
     0
 42
0.00000001
 43
0.00000001
 40
0.0
 40
0.0
 40
0.0
 40
0.0
 40
1.0
 40
1.0
 40
1.0
 40
2.0
 40
2.0
 40
2.0
 40
2.0
 10
168.54785156249997
 20
158.99701334635415
 30
0.0
 10
168.54785156249997
 20
159.49414062499997
 30
0.0
 10
168.14477539062497
 20
159.89721679687497
 30
0.0
 10
167.64799262152775
 20
159.89721679687497
 30
0.0
 10
167.15052083333333
 20
159.89721679687497
 30
0.0
 10
166.74813368055555
 20
159.49414062499997
 30
0.0
 10
166.74813368055555
 20
158.99701334635415
 30
0.0
  0
SPLINE
  5
77
100
AcDbEntity
  8
AM_0
 62
     7
100
AcDbSpline
210
0.0
220
0.0
230
1.0
 70
     8
 71
     3
 72
    11
 73
     7
 74
     0
 42
0.00000001
 43
0.00000001
 40
0.0
 40
0.0
 40
0.0
 40
0.0
 40
1.0
 40
1.0
 40
1.0
 40
2.0
 40
2.0
 40
2.0
 40
2.0
 10
169.74743381076388
 20
159.04145507812498
 30
0.0
 10
169.72331814236111
 20
160.20107421874999
 30
0.0
 10
168.76282552083333
 20
161.12125922309028
 30
0.0
 10
167.60320638020832
 20
161.09679904513888
 30
0.0
 10
166.45874565972221
 20
161.07233886718748
 30
0.0
 10
165.54441731770831
 20
160.13578965928818
 30
0.0
 10
165.54820692274305
 20
158.99063991970485
 30
0.0
  0
SPLINE
  5
76
100
AcDbEntity
  8
AM_0
 62
     7
100
AcDbSpline
210
0.0
220
0.0
230
1.0
 70
     8
 71
     3
 72
     8
 73
     4
 74
     0
 42
0.00000001
 43
0.00000001
 40
0.0
 40
0.0
 40
0.0
 40
0.0
 40
1.0
 40
1.0
 40
1.0
 40
1.0
 10
167.73067491319443
 20
144.96720648871528
 30
0.0
 10
168.29222547743055
 20
142.44229600694442
 30
0.0
 10
168.93025716145831
 20
139.93461100260416
 30
0.0
 10
169.64476996527776
 20
137.44828559027778
 30
0.0
  0
SPLINE
  5
75
100
AcDbEntity
  8
AM_0
 62
     7
100
AcDbSpline
210
0.0
220
0.0
230
1.0
 70
     8
 71
     3
 72
     8
 73
     4
 74
     0
 42
0.00000001
 43
0.00000001
 40
0.0
 40
0.0
 40
0.0
 40
0.0
 40
1.0
 40
1.0
 40
1.0
 40
1.0
 10
76.385001627604154
 20
150.82696940104165
 30
0.0
 10
74.804047309027766
 20
146.26841905381943
 30
0.0
 10
74.121229383680543
 20
141.44631890190971
 30
0.0
 10
74.374443901909714
 20
136.62800835503472
 30
0.0
  0
SPLINE
  5
74
100
AcDbEntity
  8
AM_0
 62
     7
100
AcDbSpline
210
0.0
220
0.0
230
1.0
 70
     8
 71
     3
 72
     8
 73
     4
 74
     0
 42
0.00000001
 43
0.00000001
 40
0.0
 40
0.0
 40
0.0
 40
0.0
 40
1.0
 40
1.0
 40
1.0
 40
1.0
 10
76.385001627604154
 20
150.82696940104165
 30
0.0
 10
75.823451063368054
 20
153.35222439236111
 30
0.0
 10
75.185247124565961
 20
155.85956488715277
 30
0.0
 10
74.47125108506944
 20
158.34571804470485
 30
0.0
  0
SPLINE
  5
73
100
AcDbEntity
  8
AM_0
 62
     7
100
AcDbSpline
210
0.0
220
0.0
230
1.0
 70
     8
 71
     3
 72
     8
 73
     4
 74
     0
 42
0.00000001
 43
0.00000001
 40
0.0
 40
0.0
 40
0.0
 40
0.0
 40
1.0
 40
1.0
 40
1.0
 40
1.0
 10
168.85584309895833
 20
135.07943793402777
 30
0.0
 10
169.49111870659721
 20
135.73366156684025
 30
0.0
 10
169.77327202690969
 20
136.65246853298609
 30
0.0
 10
169.61514214409721
 20
137.54991590711805
 30
0.0
  0
SPLINE
  5
72
100
AcDbEntity
  8
AM_0
 62
     7
100
AcDbSpline
210
0.0
220
0.0
230
1.0
 70
     8
 71
     3
 72
     8
 73
     4
 74
     0
 42
0.00000001
 43
0.00000001
 40
0.0
 40
0.0
 40
0.0
 40
0.0
 40
1.0
 40
1.0
 40
1.0
 40
1.0
 10
167.64799262152775
 20
134.69703233506942
 30
0.0
 10
168.08035210503471
 20
134.69703233506942
 30
0.0
 10
168.50237630208332
 20
134.83104654947917
 30
0.0
 10
168.85584309895833
 20
135.07943793402777
 30
0.0
  0
SPLINE
  5
71
100
AcDbEntity
  8
AM_0
 62
     7
100
AcDbSpline
210
0.0
220
0.0
230
1.0
 70
     8
 71
     3
 72
     8
 73
     4
 74
     0
 42
0.00000001
 43
0.00000001
 40
0.0
 40
0.0
 40
0.0
 40
0.0
 40
1.0
 40
1.0
 40
1.0
 40
1.0
 10
76.467683919270826
 20
161.09714355468748
 30
0.0
 10
76.034979926215271
 20
161.09714355468748
 30
0.0
 10
75.61312798394097
 20
160.96364610460068
 30
0.0
 10
75.25948893229166
 20
160.71473795572916
 30
0.0
  0
SPLINE
  5
70
100
AcDbEntity
  8
AM_0
 62
     7
100
AcDbSpline
210
0.0
220
0.0
230
1.0
 70
     8
 71
     3
 72
     8
 73
     4
 74
     0
 42
0.00000001
 43
0.00000001
 40
0.0
 40
0.0
 40
0.0
 40
0.0
 40
1.0
 40
1.0
 40
1.0
 40
1.0
 10
75.25948893229166
 20
160.71473795572916
 30
0.0
 10
74.624557834201383
 20
160.06085883246527
 30
0.0
 10
74.342060004340269
 20
159.14170735677081
 30
0.0
 10
74.500534396701383
 20
158.24425998263888
 30
0.0
  0
SPLINE
  5
6F
100
AcDbEntity
  8
AM_0
 62
     7
100
AcDbSpline
210
0.0
220
0.0
230
1.0
 70
     8
 71
     3
 72
     8
 73
     4
 74
     0
 42
0.00000001
 43
0.00000001
 40
0.0
 40
0.0
 40
0.0
 40
0.0
 40
1.0
 40
1.0
 40
1.0
 40
1.0
 10
77.367542860243049
 20
136.79716254340278
 30
0.0
 10
77.695515950520829
 20
141.49661729600695
 30
0.0
 10
77.364786783854157
 20
146.21915418836804
 30
0.0
 10
76.385001627604154
 20
150.82696940104165
 30
0.0
  0
SPLINE
  5
6E
100
AcDbEntity
  8
AM_0
 62
     7
100
AcDbSpline
210
0.0
220
0.0
230
1.0
 70
     8
 71
     3
 72
     8
 73
     4
 74
     0
 42
0.00000001
 43
0.00000001
 40
0.0
 40
0.0
 40
0.0
 40
0.0
 40
1.0
 40
1.0
 40
1.0
 40
1.0
 10
78.557134331597211
 20
136.58804524739583
 30
0.0
 10
78.692009819878464
 20
139.18771430121527
 30
0.0
 10
78.493744574652766
 20
141.79358452690971
 30
0.0
 10
77.967333984374989
 20
144.34295518663194
 30
0.0
  0
SPLINE
  5
6D
100
AcDbEntity
  8
AM_0
 62
     7
100
AcDbSpline
210
0.0
220
0.0
230
1.0
 70
     8
 71
     3
 72
     8
 73
     4
 74
     0
 42
0.00000001
 43
0.00000001
 40
0.0
 40
0.0
 40
0.0
 40
0.0
 40
1.0
 40
1.0
 40
1.0
 40
1.0
 10
76.385001627604154
 20
150.82696940104165
 30
0.0
 10
75.423130967881931
 20
146.21639811197915
 30
0.0
 10
75.147867838541657
 20
141.48834906684027
 30
0.0
 10
75.567652723524304
 20
136.79716254340278
 30
0.0
  0
SPLINE
  5
6C
100
AcDbEntity
  8
AM_0
 62
     7
100
AcDbSpline
210
0.0
220
0.0
230
1.0
 70
     8
 71
     3
 72
     8
 73
     4
 74
     0
 42
0.00000001
 43
0.00000001
 40
0.0
 40
0.0
 40
0.0
 40
0.0
 40
1.0
 40
1.0
 40
1.0
 40
1.0
 10
78.0572509765625
 20
143.89026963975692
 30
0.0
 10
77.600086805555549
 20
146.22535536024304
 30
0.0
 10
77.04232584635416
 20
148.5401150173611
 30
0.0
 10
76.385001627604154
 20
150.82696940104165
 30
0.0
  0
SPLINE
  5
6B
100
AcDbEntity
  8
AM_0
 62
     7
100
AcDbSpline
210
0.0
220
0.0
230
1.0
 70
     8
 71
     3
 72
    11
 73
     7
 74
     0
 42
0.00000001
 43
0.00000001
 40
0.0
 40
0.0
 40
0.0
 40
0.0
 40
1.0
 40
1.0
 40
1.0
 40
2.0
 40
2.0
 40
2.0
 40
2.0
 10
75.567652723524304
 20
136.79716254340278
 30
0.0
 10
75.567652723524304
 20
136.30003526475693
 30
0.0
 10
75.970556640624991
 20
135.89695909288193
 30
0.0
 10
76.467683919270826
 20
135.89695909288193
 30
0.0
 10
76.96481119791666
 20
135.89695909288193
 30
0.0
 10
77.367542860243049
 20
136.30003526475693
 30
0.0
 10
77.367542860243049
 20
136.79716254340278
 30
0.0
  0
SPLINE
  5
6A
100
AcDbEntity
  8
AM_0
 62
     7
100
AcDbSpline
210
0.0
220
0.0
230
1.0
 70
     8
 71
     3
 72
    11
 73
     7
 74
     0
 42
0.00000001
 43
0.00000001
 40
0.0
 40
0.0
 40
0.0
 40
0.0
 40
1.0
 40
1.0
 40
1.0
 40
2.0
 40
2.0
 40
2.0
 40
2.0
 10
74.368242730034709
 20
136.75272081163195
 30
0.0
 10
74.392702907986106
 20
135.59310167100693
 30
0.0
 10
75.35250651041666
 20
134.67257215711805
 30
0.0
 10
76.512125651041657
 20
134.69737684461805
 30
0.0
 10
77.656930881076377
 20
134.72183702256945
 30
0.0
 10
78.571086968315967
 20
135.65855848524305
 30
0.0
 10
78.567814127604166
 20
136.80336371527775
 30
0.0
  0
LINE
  5
69
100
AcDbEntity
  8
AM_0
 62
     7
100
AcDbLine
 10
85.210647
 20
134.697032
 30
0.0
 11
85.210647
 21
120.296878
 31
0.0
  0
LINE
  5
68
100
AcDbEntity
  8
AM_0
 62
     7
100
AcDbLine
 10
89.215915
 20
119.096951
 30
0.0
 11
85.210647
 21
119.096951
 31
0.0
  0
SPLINE
  5
67
100
AcDbEntity
  8
AM_0
 62
     7
100
AcDbSpline
210
0.0
220
0.0
230
1.0
 70
     8
 71
     3
 72
     8
 73
     4
 74
     0
 42
0.00000001
 43
0.00000001
 40
0.0
 40
0.0
 40
0.0
 40
0.0
 40
1.0
 40
1.0
 40
1.0
 40
1.0
 10
97.015611436631929
 20
110.22479654947915
 30
0.0
 10
97.061086697048609
 20
114.73959418402777
 30
0.0
 10
93.699018012152763
 20
118.56365017361109
 30
0.0
 10
89.215915256076386
 20
119.0969509548611
 30
0.0
  0
LINE
  5
66
100
AcDbEntity
  8
AM_0
 62
     7
100
AcDbLine
 10
97.015611
 20
110.224797
 30
0.0
 11
97.015611
 21
87.768975
 31
0.0
  0
LINE
  5
65
100
AcDbEntity
  8
AM_0
 62
     7
100
AcDbLine
 10
108.865706
 20
167.867445
 30
0.0
 11
108.865706
 21
165.274322
 31
0.0
  0
SPLINE
  5
64
100
AcDbEntity
  8
AM_0
 62
     7
100
AcDbSpline
210
0.0
220
0.0
230
1.0
 70
     8
 71
     3
 72
     8
 73
     4
 74
     0
 42
0.00000001
 43
0.00000001
 40
0.0
 40
0.0
 40
0.0
 40
0.0
 40
1.0
 40
1.0
 40
1.0
 40
1.0
 10
109.01418999565971
 20
165.70633680555554
 30
0.0
 10
108.81609700520832
 20
166.26564805772568
 30
0.0
 10
108.81609700520832
 20
166.87560221354164
 30
0.0
 10
109.01418999565971
 20
167.43508572048609
 30
0.0
  0
SPLINE
  5
63
100
AcDbEntity
  8
AM_0
 62
     7
100
AcDbSpline
210
0.0
220
0.0
230
1.0
 70
     8
 71
     3
 72
     8
 73
     4
 74
     0
 42
0.00000001
 43
0.00000001
 40
0.0
 40
0.0
 40
0.0
 40
0.0
 40
1.0
 40
1.0
 40
1.0
 40
1.0
 10
110.34950900607637
 20
167.43508572048609
 30
0.0
 10
110.54691297743055
 20
166.87560221354164
 30
0.0
 10
110.54691297743055
 20
166.26564805772568
 30
0.0
 10
110.34950900607637
 20
165.70633680555554
 30
0.0
  0
LINE
  5
62
100
AcDbEntity
  8
AM_0
 62
     7
100
AcDbLine
 10
110.497993
 20
167.867445
 30
0.0
 11
110.497993
 21
165.274322
 31
0.0
  0
LINE
  5
61
100
AcDbEntity
  8
AM_0
 62
     7
100
AcDbLine
 10
109.01419
 20
168.29946
 30
0.0
 11
110.349509
 21
168.29946
 31
0.0
  0
LINE
  5
60
100
AcDbEntity
  8
AM_0
 62
     7
100
AcDbLine
 10
109.01419
 20
167.435086
 30
0.0
 11
110.349509
 21
167.435086
 31
0.0
  0
SPLINE
  5
5F
100
AcDbEntity
  8
AM_0
 62
     7
100
AcDbSpline
210
0.0
220
0.0
230
1.0
 70
     8
 71
     3
 72
     8
 73
     4
 74
     0
 42
0.00000001
 43
0.00000001
 40
0.0
 40
0.0
 40
0.0
 40
0.0
 40
1.0
 40
1.0
 40
1.0
 40
1.0
 10
110.34950900607637
 20
168.29946017795137
 30
0.0
 10
110.54691297743055
 20
168.04538438585067
 30
0.0
 10
110.54691297743055
 20
167.68933376736109
 30
0.0
 10
110.34950900607637
 20
167.43508572048609
 30
0.0
  0
SPLINE
  5
5E
100
AcDbEntity
  8
AM_0
 62
     7
100
AcDbSpline
210
0.0
220
0.0
230
1.0
 70
     8
 71
     3
 72
     8
 73
     4
 74
     0
 42
0.00000001
 43
0.00000001
 40
0.0
 40
0.0
 40
0.0
 40
0.0
 40
1.0
 40
1.0
 40
1.0
 40
1.0
 10
109.01418999565971
 20
167.43508572048609
 30
0.0
 10
108.81609700520832
 20
167.68933376736109
 30
0.0
 10
108.81609700520832
 20
168.04538438585067
 30
0.0
 10
109.01418999565971
 20
168.29946017795137
 30
0.0
  0
LINE
  5
5D
100
AcDbEntity
  8
AM_0
 62
     7
100
AcDbLine
 10
108.233876
 20
166.570711
 30
0.0
 11
110.985818
 21
166.570711
 31
0.0
  0
SPLINE
  5
5C
100
AcDbEntity
  8
AM_0
 62
     7
100
AcDbSpline
210
0.0
220
0.0
230
1.0
 70
     8
 71
     3
 72
     8
 73
     4
 74
     0
 42
0.00000001
 43
0.00000001
 40
0.0
 40
0.0
 40
0.0
 40
0.0
 40
1.0
 40
1.0
 40
1.0
 40
1.0
 10
109.01418999565971
 20
164.84196234809025
 30
0.0
 10
108.81609700520832
 20
165.09621039496525
 30
0.0
 10
108.81609700520832
 20
165.45226101345486
 30
0.0
 10
109.01418999565971
 20
165.70633680555554
 30
0.0
  0
SPLINE
  5
5B
100
AcDbEntity
  8
AM_0
 62
     7
100
AcDbSpline
210
0.0
220
0.0
230
1.0
 70
     8
 71
     3
 72
     8
 73
     4
 74
     0
 42
0.00000001
 43
0.00000001
 40
0.0
 40
0.0
 40
0.0
 40
0.0
 40
1.0
 40
1.0
 40
1.0
 40
1.0
 10
110.34950900607637
 20
165.70633680555554
 30
0.0
 10
110.54691297743055
 20
165.45226101345486
 30
0.0
 10
110.54691297743055
 20
165.09621039496525
 30
0.0
 10
110.34950900607637
 20
164.84196234809025
 30
0.0
  0
LINE
  5
5A
100
AcDbEntity
  8
AM_0
 62
     7
100
AcDbLine
 10
109.01419
 20
165.706337
 30
0.0
 11
110.349509
 21
165.706337
 31
0.0
  0
LINE
  5
59
100
AcDbEntity
  8
AM_0
 62
     7
100
AcDbLine
 10
109.01419
 20
164.841962
 30
0.0
 11
110.349509
 21
164.841962
 31
0.0
  0
LINE
  5
58
100
AcDbEntity
  8
AM_0
 62
     7
100
AcDbLine
 10
108.865706
 20
130.519854
 30
0.0
 11
108.865706
 21
127.927075
 31
0.0
  0
SPLINE
  5
57
100
AcDbEntity
  8
AM_0
 62
     7
100
AcDbSpline
210
0.0
220
0.0
230
1.0
 70
     8
 71
     3
 72
     8
 73
     4
 74
     0
 42
0.00000001
 43
0.00000001
 40
0.0
 40
0.0
 40
0.0
 40
0.0
 40
1.0
 40
1.0
 40
1.0
 40
1.0
 10
109.01418999565971
 20
128.35943467881944
 30
0.0
 10
108.81609700520832
 20
128.91857367621526
 30
0.0
 10
108.81609700520832
 20
129.52904459635417
 30
0.0
 10
109.01418999565971
 20
130.08783908420136
 30
0.0
  0
SPLINE
  5
56
100
AcDbEntity
  8
AM_0
 62
     7
100
AcDbSpline
210
0.0
220
0.0
230
1.0
 70
     8
 71
     3
 72
     8
 73
     4
 74
     0
 42
0.00000001
 43
0.00000001
 40
0.0
 40
0.0
 40
0.0
 40
0.0
 40
1.0
 40
1.0
 40
1.0
 40
1.0
 10
110.34950900607637
 20
130.08783908420136
 30
0.0
 10
110.54691297743055
 20
129.52904459635417
 30
0.0
 10
110.54691297743055
 20
128.91857367621526
 30
0.0
 10
110.34950900607637
 20
128.35943467881944
 30
0.0
  0
LINE
  5
55
100
AcDbEntity
  8
AM_0
 62
     7
100
AcDbLine
 10
110.497993
 20
130.519854
 30
0.0
 11
110.497993
 21
127.927075
 31
0.0
  0
LINE
  5
54
100
AcDbEntity
  8
AM_0
 62
     7
100
AcDbLine
 10
109.01419
 20
130.951869
 30
0.0
 11
110.349509
 21
130.951869
 31
0.0
  0
LINE
  5
53
100
AcDbEntity
  8
AM_0
 62
     7
100
AcDbLine
 10
109.01419
 20
130.087839
 30
0.0
 11
110.349509
 21
130.087839
 31
0.0
  0
SPLINE
  5
52
100
AcDbEntity
  8
AM_0
 62
     7
100
AcDbSpline
210
0.0
220
0.0
230
1.0
 70
     8
 71
     3
 72
     8
 73
     4
 74
     0
 42
0.00000001
 43
0.00000001
 40
0.0
 40
0.0
 40
0.0
 40
0.0
 40
1.0
 40
1.0
 40
1.0
 40
1.0
 10
110.34950900607637
 20
130.95186903211805
 30
0.0
 10
110.54691297743055
 20
130.69831000434027
 30
0.0
 10
110.54691297743055
 20
130.34208713107637
 30
0.0
 10
110.34950900607637
 20
130.08783908420136
 30
0.0
  0
SPLINE
  5
51
100
AcDbEntity
  8
AM_0
 62
     7
100
AcDbSpline
210
0.0
220
0.0
230
1.0
 70
     8
 71
     3
 72
     8
 73
     4
 74
     0
 42
0.00000001
 43
0.00000001
 40
0.0
 40
0.0
 40
0.0
 40
0.0
 40
1.0
 40
1.0
 40
1.0
 40
1.0
 10
109.01418999565971
 20
130.08783908420136
 30
0.0
 10
108.81609700520832
 20
130.34208713107637
 30
0.0
 10
108.81609700520832
 20
130.69831000434027
 30
0.0
 10
109.01418999565971
 20
130.95186903211805
 30
0.0
  0
LINE
  5
50
100
AcDbEntity
  8
AM_0
 62
     7
100
AcDbLine
 10
108.233876
 20
129.223465
 30
0.0
 11
110.985818
 21
129.223465
 31
0.0
  0
SPLINE
  5
4F
100
AcDbEntity
  8
AM_0
 62
     7
100
AcDbSpline
210
0.0
220
0.0
230
1.0
 70
     8
 71
     3
 72
     8
 73
     4
 74
     0
 42
0.00000001
 43
0.00000001
 40
0.0
 40
0.0
 40
0.0
 40
0.0
 40
1.0
 40
1.0
 40
1.0
 40
1.0
 10
109.01418999565971
 20
127.49506022135415
 30
0.0
 10
108.81609700520832
 20
127.74930826822916
 30
0.0
 10
108.81609700520832
 20
128.10518663194443
 30
0.0
 10
109.01418999565971
 20
128.35943467881944
 30
0.0
  0
SPLINE
  5
4E
100
AcDbEntity
  8
AM_0
 62
     7
100
AcDbSpline
210
0.0
220
0.0
230
1.0
 70
     8
 71
     3
 72
     8
 73
     4
 74
     0
 42
0.00000001
 43
0.00000001
 40
0.0
 40
0.0
 40
0.0
 40
0.0
 40
1.0
 40
1.0
 40
1.0
 40
1.0
 10
110.34950900607637
 20
128.35943467881944
 30
0.0
 10
110.54691297743055
 20
128.10518663194443
 30
0.0
 10
110.54691297743055
 20
127.74930826822916
 30
0.0
 10
110.34950900607637
 20
127.49506022135415
 30
0.0
  0
LINE
  5
4D
100
AcDbEntity
  8
AM_0
 62
     7
100
AcDbLine
 10
109.01419
 20
128.359435
 30
0.0
 11
110.349509
 21
128.359435
 31
0.0
  0
LINE
  5
4C
100
AcDbEntity
  8
AM_0
 62
     7
100
AcDbLine
 10
109.01419
 20
127.49506
 30
0.0
 11
110.349509
 21
127.49506
 31
0.0
  0
INSERT
  5
45
100
AcDbEntity
  8
TEXT
 62
     7
100
AcDbBlockReference
  2
AI9-BLK3
 10
58.419604
 20
187.775102
 30
0.0
  0
INSERT
  5
3E
100
AcDbEntity
  8
TEXT
 62
     7
100
AcDbBlockReference
  2
AI9-BLK2
 10
56.921935
 20
157.343712
 30
0.0
  0
INSERT
  5
38
100
AcDbEntity
  8
TEXT
 62
     7
100
AcDbBlockReference
  2
AI9-BLK1
 10
64.090403
 20
97.494652
 30
0.0
  0
POLYLINE
  5
30
100
AcDbEntity
  8
RAHMEN
 62
     7
100
AcDb2dPolyline
 66
     1
 10
0.0
 20
0.0
 30
0.0
 70
     1
  0
VERTEX
  5
31
100
AcDbEntity
  8
RAHMEN
 62
     7
100
AcDbVertex
100
AcDb2dVertex
 10
24.520639
 20
221.677253
 30
0.0
  0
VERTEX
  5
32
100
AcDbEntity
  8
RAHMEN
 62
     7
100
AcDbVertex
100
AcDb2dVertex
 10
24.520639
 20
77.417497
 30
0.0
  0
VERTEX
  5
33
100
AcDbEntity
  8
RAHMEN
 62
     7
100
AcDbVertex
100
AcDb2dVertex
 10
186.188463
 20
77.417497
 30
0.0
  0
VERTEX
  5
34
100
AcDbEntity
  8
RAHMEN
 62
     7
100
AcDbVertex
100
AcDb2dVertex
 10
186.188463
 20
221.677253
 30
0.0
  0
SEQEND
  5
35
100
AcDbEntity
  8
RAHMEN
 62
     7
  0
POLYLINE
  5
2A
100
AcDbEntity
  8
RAHMEN
 62
     7
100
AcDb2dPolyline
 66
     1
 10
0.0
 20
0.0
 30
0.0
 70
     1
  0
VERTEX
  5
2B
100
AcDbEntity
  8
RAHMEN
 62
     7
100
AcDbVertex
100
AcDb2dVertex
 10
167.027875
 20
94.023201
 30
0.0
  0
VERTEX
  5
2C
100
AcDbEntity
  8
RAHMEN
 62
     7
100
AcDbVertex
100
AcDb2dVertex
 10
186.077875
 20
94.023201
 30
0.0
  0
VERTEX
  5
2D
100
AcDbEntity
  8
RAHMEN
 62
     7
100
AcDbVertex
100
AcDb2dVertex
 10
186.077875
 20
77.265568
 30
0.0
  0
VERTEX
  5
2E
100
AcDbEntity
  8
RAHMEN
 62
     7
100
AcDbVertex
100
AcDb2dVertex
 10
167.027875
 20
77.265568
 30
0.0
  0
SEQEND
  5
2F
100
AcDbEntity
  8
RAHMEN
 62
     7
  0
MTEXT
  5
29
100
AcDbEntity
  8
RAHMEN
 62
     7
100
AcDbMText
 10
168.174059
 20
91.5667
 30
0.0
 40
9.449404
 41
0.0
 71
     1
 72
     2
  1
\fMyriad Roman|b0|i0;\H9.4494;\C7;\U+0031\U+002E\U+0032
  7
STD
210
0.0
220
0.0
230
1.0
 73
     1
 44
1.0
  0
ENDSEC
  0
SECTION
  2
OBJECTS
  0
DICTIONARY
  5
19
100
AcDbDictionary
280
     0
281
     1
  3
ACAD_GROUP
350
1A
  3
ACAD_MLINESTYLE
350
1B
  3
ACAD_LAYOUT
350
1E
  3
ACAD_PLOTSETTINGS
350
22
  3
ACAD_PLOTSTYLENAME
350
1F
  3
ACAD_WIPEOUT_VARS
350
23
  0
DICTIONARY
  5
1A
102
{ACAD_REACTORS
330
19
102
}
100
AcDbDictionary
280
     0
281
     1
  0
DICTIONARY
  5
1B
102
{ACAD_REACTORS
330
19
102
}
100
AcDbDictionary
280
     0
281
     1
  3
Standard
350
1C
  0
MLINESTYLE
  5
1C
102
{ACAD_REACTORS
330
1B
102
}
100
AcDbMlineStyle
  2
Standard
 70
     0
  3

 62
     0
 51
90.0
 52
90.0
 71
     2
 49
0.5
 62
   256
  6
ByLayer
 49
-0.5
 62
   256
  6
ByLayer
  0
ACDBDICTIONARYWDFLT
  5
1F
102
{ACAD_REACTORS
330
19
102
}
100
AcDbDictionary
281
     1
  3
Normal
350
1D
100
AcDbDictionaryWithDefault
340
1D
  0
ACDBPLACEHOLDER
  5
1D
102
{ACAD_REACTORS
330
1F
102
}
  0
LAYOUT
  5
20
102
{ACAD_REACTORS
330
1E
102
}
100
AcDbPlotSettings
  1

  2

  4

  6

 40
0.0
 41
0.0
 42
0.0
 43
0.0
 44
0.0
 45
0.0
 46
0.0
 47
0.0
 48
0.0
 49
0.0
140
0.0
141
0.0
142
1.0
143
1.0
 70
  1024
 72
     0
 73
     0
 74
     0
  7

 75
     0
147
1.0
148
0.0
149
0.0
100
AcDbLayout
  1
Model
 70
     0
 71
     0
 10
0.0
 20
0.0
 11
0.0
 21
0.0
 12
0.0
 22
0.0
 32
0.0
 14
0.0
 24
0.0
 34
0.0
 15
0.0
 25
0.0
 35
0.0
146
0.0
 13
0.0
 23
0.0
 33
0.0
 16
0.0
 26
0.0
 36
0.0
 17
0.0
 27
0.0
 37
0.0
 76
     0
330
A
331
0
345
0
346
0
  0
LAYOUT
  5
21
102
{ACAD_REACTORS
330
1E
102
}
100
AcDbPlotSettings
  1

  2

  4

  6

 40
0.0
 41
0.0
 42
0.0
 43
0.0
 44
0.0
 45
0.0
 46
0.0
 47
0.0
 48
0.0
 49
0.0
140
0.0
141
0.0
142
1.0
143
1.0
 70
     0
 72
     0
 73
     0
 74
     0
  7

 75
     0
147
1.0
148
0.0
149
0.0
100
AcDbLayout
  1
Layout1
 70
     0
 71
     0
 10
0.0
 20
0.0
 11
0.0
 21
0.0
 12
0.0
 22
0.0
 32
0.0
 14
0.0
 24
0.0
 34
0.0
 15
0.0
 25
0.0
 35
0.0
146
0.0
 13
0.0
 23
0.0
 33
0.0
 16
0.0
 26
0.0
 36
0.0
 17
0.0
 27
0.0
 37
0.0
 76
     0
330
B
331
0
345
0
346
0
  0
DICTIONARY
  5
1E
102
{ACAD_REACTORS
330
19
102
}
100
AcDbDictionary
280
     0
281
     1
  3
Layout1
350
21
  3
Model
350
20
  0
DICTIONARY
  5
22
102
{ACAD_REACTORS
330
19
102
}
100
AcDbDictionary
280
     0
281
     1
  0
WIPEOUTVARIABLES
  5
23
100
AcDbWipeoutVariables
 70
     1
  0
ENDSEC
  0
EOF
