  0
SECTION
  2
HEADER
  9
$ACADVER
  1
AC1015
  9
$ACADMAINTVER
 70
     6
  9
$DWGCODEPAGE
  3
ANSI_932
  9
$INSBASE
 10
0.0
 20
0.0
 30
0.0
  9
$EXTMIN
 10
24.167862
 20
76.91279
 30
1.000000E+20
  9
$EXTMAX
 10
186.541241
 20
222.030031
 30
-1.000000E+20
  9
$LIMMIN
 10
24.167862
 20
76.91279
  9
$LIMMAX
 10
186.541241
 20
222.030031
  9
$ORTHOMODE
 70
     0
  9
$REGENMODE
 70
     1
  9
$FILLMODE
 70
     1
  9
$QTEXTMODE
 70
     0
  9
$MIRRTEXT
 70
     1
  9
$LTSCALE
 40
1.0
  9
$ATTMODE
 70
     1
  9
$TEXTSIZE
 40
0.2
  9
$TRACEWID
 40
0.05
  9
$TEXTSTYLE
  7
Standard
  9
$CLAYER
  8
0
  9
$CELTYPE
  6
Continuous
  9
$CECOLOR
 62
   256
  9
$CELTSCALE
 40
1.0
  9
$DISPSILH
 70
     0
  9
$DIMSCALE
 40
1.0
  9
$DIMASZ
 40
0.18
  9
$DIMEXO
 40
0.0625
  9
$DIMDLI
 40
0.38
  9
$DIMRND
 40
0.0
  9
$DIMDLE
 40
0.0
  9
$DIMEXE
 40
0.18
  9
$DIMTP
 40
0.0
  9
$DIMTM
 40
0.0
  9
$DIMTXT
 40
0.18
  9
$DIMCEN
 40
0.09
  9
$DIMTSZ
 40
0.0
  9
$DIMTOL
 70
     0
  9
$DIMLIM
 70
     0
  9
$DIMTIH
 70
     1
  9
$DIMTOH
 70
     1
  9
$DIMSE1
 70
     0
  9
$DIMSE2
 70
     0
  9
$DIMTAD
 70
     0
  9
$DIMZIN
 70
     0
  9
$DIMBLK
  1

  9
$DIMASO
 70
     1
  9
$DIMSHO
 70
     1
  9
$DIMPOST
  1

  9
$DIMAPOST
  1

  9
$DIMALT
 70
     0
  9
$DIMALTD
 70
     2
  9
$DIMALTF
 40
25.4
  9
$DIMLFAC
 40
1.0
  9
$DIMTOFL
 70
     0
  9
$DIMTVP
 40
0.0
  9
$DIMTIX
 70
     0
  9
$DIMSOXD
 70
     0
  9
$DIMSAH
 70
     0
  9
$DIMBLK1
  1

  9
$DIMBLK2
  1

  9
$DIMSTYLE
  2
Standard
  9
$DIMCLRD
 70
     0
  9
$DIMCLRE
 70
     0
  9
$DIMCLRT
 70
     0
  9
$DIMTFAC
 40
1.0
  9
$DIMGAP
 40
0.09
  9
$DIMJUST
 70
     0
  9
$DIMSD1
 70
     0
  9
$DIMSD2
 70
     0
  9
$DIMTOLJ
 70
     1
  9
$DIMTZIN
 70
     0
  9
$DIMALTZ
 70
     0
  9
$DIMALTTZ
 70
     0
  9
$DIMUPT
 70
     0
  9
$DIMDEC
 70
     4
  9
$DIMTDEC
 70
     4
  9
$DIMALTU
 70
     2
  9
$DIMALTTD
 70
     2
  9
$DIMTXSTY
  7
Standard
  9
$DIMAUNIT
 70
     0
  9
$DIMADEC
 70
     0
  9
$DIMALTRND
 40
0.0
  9
$DIMAZIN
 70
     0
  9
$DIMDSEP
 70
     0
  9
$DIMATFIT
 70
     3
  9
$DIMFRAC
 70
     0
  9
$DIMLDRBLK
  1

  9
$DIMLUNIT
 70
     2
  9
$DIMLWD
 70
     0
  9
$DIMLWE
 70
     0
  9
$DIMTMOVE
 70
     0
  9
$LUNITS
 70
     2
  9
$LUPREC
 70
     4
  9
$SKETCHINC
 40
0.1
  9
$FILLETRAD
 40
0.0
  9
$AUNITS
 70
     0
  9
$AUPREC
 70
     0
  9
$MENU
  1
acad
  9
$ELEVATION
 40
0.0
  9
$PELEVATION
 40
0.0
  9
$THICKNESS
 40
0.0
  9
$LIMCHECK
 70
     0
  9
$CHAMFERA
 40
0.0
  9
$CHAMFERB
 40
0.0
  9
$CHAMFERC
 40
0.0
  9
$CHAMFERD
 40
0.0
  9
$SKPOLY
 70
     0
  9
$TDCREATE
 40
0.000000000
  9
$TDUCREATE
 40
0.000000000
  9
$TDUPDATE
 40
0.000000000
  9
$TDUUPDATE
 40
0.000000000
  9
$TDINDWG
 40
0.0000000000
  9
$TDUSRTIMER
 40
0.0000000000
  9
$USRTIMER
 70
     1
  9
$ANGBASE
 50
0.0
  9
$ANGDIR
 70
     0
  9
$PDMODE
 70
     0
  9
$PDSIZE
 40
0.0
  9
$PLINEWID
 40
0.0
  9
$SPLFRAME
 70
     0
  9
$SPLINETYPE
 70
     6
  9
$SPLINESEGS
 70
     8
  9
$HANDSEED
  5
1B3
  9
$SURFTAB1
 70
     6
  9
$SURFTAB2
 70
     6
  9
$SURFTYPE
 70
     6
  9
$SURFU
 70
     6
  9
$SURFV
 70
     6
  9
$UCSBASE
  2

  9
$UCSNAME
  2

  9
$UCSORG
 10
0.0
 20
0.0
 30
0.0
  9
$UCSXDIR
 10
1.0
 20
0.0
 30
0.0
  9
$UCSYDIR
 10
0.0
 20
1.0
 30
0.0
  9
$UCSORTHOREF
  2

  9
$UCSORTHOVIEW
 70
     0
  9
$UCSORGTOP
 10
0.0
 20
0.0
 30
0.0
  9
$UCSORGBOTTOM
 10
0.0
 20
0.0
 30
0.0
  9
$UCSORGLEFT
 10
0.0
 20
0.0
 30
0.0
  9
$UCSORGRIGHT
 10
0.0
 20
0.0
 30
0.0
  9
$UCSORGFRONT
 10
0.0
 20
0.0
 30
0.0
  9
$UCSORGBACK
 10
0.0
 20
0.0
 30
0.0
  9
$PUCSBASE
  2

  9
$PUCSNAME
  2

  9
$PUCSORG
 10
0.0
 20
0.0
 30
0.0
  9
$PUCSXDIR
 10
1.0
 20
0.0
 30
0.0
  9
$PUCSYDIR
 10
0.0
 20
1.0
 30
0.0
  9
$PUCSORTHOREF
  2

  9
$PUCSORTHOVIEW
 70
     0
  9
$PUCSORGTOP
 10
0.0
 20
0.0
 30
0.0
  9
$PUCSORGBOTTOM
 10
0.0
 20
0.0
 30
0.0
  9
$PUCSORGLEFT
 10
0.0
 20
0.0
 30
0.0
  9
$PUCSORGRIGHT
 10
0.0
 20
0.0
 30
0.0
  9
$PUCSORGFRONT
 10
0.0
 20
0.0
 30
0.0
  9
$PUCSORGBACK
 10
0.0
 20
0.0
 30
0.0
  9
$USERI1
 70
     0
  9
$USERI2
 70
     0
  9
$USERI3
 70
     0
  9
$USERI4
 70
     0
  9
$USERI5
 70
     0
  9
$USERR1
 40
0.0
  9
$USERR2
 40
0.0
  9
$USERR3
 40
0.0
  9
$USERR4
 40
0.0
  9
$USERR5
 40
0.0
  9
$WORLDVIEW
 70
     1
  9
$SHADEDGE
 70
     3
  9
$SHADEDIF
 70
    70
  9
$TILEMODE
 70
     1
  9
$MAXACTVP
 70
    16
  9
$PINSBASE
 10
0.0
 20
0.0
 30
0.0
  9
$PLIMCHECK
 70
     0
  9
$PEXTMIN
 10
1.000000E+20
 20
1.000000E+20
 30
1.000000E+20
  9
$PEXTMAX
 10
-1.000000E+20
 20
-1.000000E+20
 30
-1.000000E+20
  9
$PLIMMIN
 10
0.0
 20
0.0
  9
$PLIMMAX
 10
12.0
 20
9.0
  9
$UNITMODE
 70
     0
  9
$VISRETAIN
 70
     0
  9
$PLINEGEN
 70
     1
  9
$PSLTSCALE
 70
     0
  9
$TREEDEPTH
 70
  3020
  9
$CMLSTYLE
  2
Standard
  9
$CMLJUST
 70
     0
  9
$CMLSCALE
 40
1.0
  9
$PROXYGRAPHICS
 70
     0
  9
$MEASUREMENT
 70
     1
  9
$CELWEIGHT
370
     0
  9
$ENDCAPS
280
     0
  9
$JOINSTYLE
280
     0
  9
$LWDISPLAY
290
     0
  9
$INSUNITS
 70
     0
  9
$HYPERLINKBASE
  1

  9
$STYLESHEET
  1

  9
$XEDIT
290
     1
  9
$CEPSNTYPE
380
     0
  9
$PSTYLEMODE
290
     1
  9
$FINGERPRINTGUID
  2

  9
$VERSIONGUID
  2

  9
$EXTNAMES
290
     1
  9
$PSVPSCALE
 40
0.0
  0
ENDSEC
  0
SECTION
  2
CLASSES
  0
CLASS
  1
LWPOLYLINE
  2
AcDbPolyline
  3
AutoCAD 2000
 90
    32768
280
     0
281
     1
  0
CLASS
  1
IMAGE
  2
AcDbRasterImage
  3
ISM
 90
    32895
280
     0
281
     1
  0
CLASS
  1
OLE2FRAME
  2
AcDbOle2Frame
  3
AutoCAD 2000
 90
    32768
280
     0
281
     1
  0
CLASS
  1
HATCH
  2
AcDbHatch
  3
AutoCAD 2000
 90
        0
280
     0
281
     1
  0
CLASS
  1
DICTIONARYVAR
  2
AcDbDictionaryVar
  3
AutoCAD 2000
 90
    32768
280
     0
281
     0
  0
CLASS
  1
RASTERVARIABLES
  2
AcDbRasterVariables
  3
ISM
 90
    32768
280
     0
281
     0
  0
CLASS
  1
IMAGEDEF
  2
AcDbRasterImageDef
  3
ISM
 90
    32768
280
     0
281
     0
  0
CLASS
  1
IMAGEDEF_REACTOR
  2
AcDbRasterImageDefReactor
  3
ISM
 90
    32769
280
     0
281
     0
  0
CLASS
  1
IDBUFFER
  2
AcDbIdBuffer
  3
AutoCAD 2000
 90
    32768
280
     0
281
     0
  0
CLASS
  1
SPATIAL_FILTER
  2
AcDbSpatialFilter
  3
AutoCAD 2000
 90
    32768
280
     0
281
     0
  0
CLASS
  1
XRECORD
  2
AcDbXrecord
  3
AutoCAD 2000
 90
    32768
280
     0
281
     0
  0
CLASS
  1
SORTENTSTABLE
  2
AcDbSortentsTable
  3
AutoCAD 2000
 90
    32768
280
     0
281
     0
  0
CLASS
  1
LAYER_INDEX
  2
AcDbLayerIndex
  3
AutoCAD 2000
 90
    32768
280
     0
281
     0
  0
CLASS
  1
SPATIAL_INDEX
  2
AcDbSpatialIndex
  3
AutoCAD 2000
 90
    32768
280
     0
281
     0
  0
CLASS
  1
OBJECT_PTR
  2
CAseDLPNTableRecord
  3
"ASE-LPNTableRecord"
 90
    32769
280
     0
281
     0
  0
CLASS
  1
LAYOUT
  2
AcDbLayout
  3
AutoCAD 2000
 90
        0
280
     0
281
     0
  0
CLASS
  1
PLOTSETTINGS
  2
AcDbPlotSettings
  3
AutoCAD 2000
 90
    32768
280
     0
281
     0
  0
CLASS
  1
ACDBDICTIONARYWDFLT
  2
AcDbDictionaryWithDefault
  3
AutoCAD 2000
 90
        0
280
     0
281
     0
  0
CLASS
  1
ACDBPLACEHOLDER
  2
AcDbPlaceHolder
  3
AutoCAD 2000
 90
        0
280
     0
281
     0
  0
CLASS
  1
VBA_PROJECT
  2
AcDbVbaProject
  3
acadvba
 90
    32768
280
     0
281
     0
  0
CLASS
  1
WIPEOUT
  2
AcDbWipeout
  3
WipeOut|AutoCAD Express Tool|expresstools@autodesk.com
 90
    32895
280
     0
281
     1
  0
CLASS
  1
WIPEOUTVARIABLES
  2
AcDbWipeoutVariables
  3
WipeOut|AutoCAD Express Tool|expresstools@autodesk.com
 90
        0
280
     0
281
     0
  0
CLASS
  1
RTEXT
  2
RText
  3
RText|AutoCAD Express Tool|expresstools@autodesk.com
 90
    32768
280
     0
281
     1
  0
CLASS
  1
ARCALIGNEDTEXT
  2
AcDbArcAlignedText
  3
ATEXT|AutoCAD Express Tool|expresstools@autodesk.com
 90
    32768
280
     0
281
     1
  0
ENDSEC
  0
SECTION
  2
TABLES
  0
TABLE
  2
VPORT
  5
7
100
AcDbSymbolTable
 70
     1
  0
VPORT
  5
15
100
AcDbSymbolTableRecord
100
AcDbViewportTableRecord
  2
*ACTIVE
 70
     0
 10
0.0
 20
0.0
 11
1.0
 21
1.0
 12
6.591288
 22
4.579184
 13
0.0
 23
0.0
 14
1.0
 24
1.0
 15
0.0
 25
0.0
 16
0.0
 26
0.0
 36
1.0
 17
0.0
 27
0.0
 37
0.0
 40
9.158369
 41
0.688564
 42
50.0
 43
0.0
 44
0.0
 50
0.0
 51
0.0
 71
     0
 72
   100
 73
     1
 74
     1
 75
     0
 76
     0
 77
     0
 78
     0
281
     0
 65
     0
110
0.0
120
0.0
130
0.0
111
1.0
121
0.0
131
0.0
112
0.0
122
1.0
132
0.0
345
0
346
0
 79
     0
146
0.0
  0
ENDTAB
  0
TABLE
  2
LTYPE
  5
4
100
AcDbSymbolTable
 70
     5
  0
LTYPE
  5
11
100
AcDbSymbolTableRecord
100
AcDbLinetypeTableRecord
  2
ByBlock
 70
    64
  3

 72
    65
 73
     0
 40
0.0
  0
LTYPE
  5
12
100
AcDbSymbolTableRecord
100
AcDbLinetypeTableRecord
  2
ByLayer
 70
    64
  3

 72
    65
 73
     0
 40
0.0
  0
LTYPE
  5
13
100
AcDbSymbolTableRecord
100
AcDbLinetypeTableRecord
  2
Continuous
 70
    64
  3
Solid line
 72
    65
 73
     0
 40
0.0
  0
LTYPE
  5
B5
100
AcDbSymbolTableRecord
100
AcDbLinetypeTableRecord
  2
AI9-LType1
 70
    64
  3
Illustrator Dash Style No.1
 72
    65
 73
     4
 40
14.816667
 49
8.466667
 74
     0
 49
-2.822222
 74
     0
 49
0.705556
 74
     0
 49
-2.822222
 74
     0
  0
LTYPE
  5
12C
100
AcDbSymbolTableRecord
100
AcDbLinetypeTableRecord
  2
AI9-LType2
 70
    64
  3
Illustrator Dash Style No.2
 72
    65
 73
     6
 40
17.638889
 49
8.466667
 74
     0
 49
-2.822222
 74
     0
 49
0.705556
 74
     0
 49
-2.116667
 74
     0
 49
0.705556
 74
     0
 49
-2.822222
 74
     0
  0
ENDTAB
  0
TABLE
  2
LAYER
  5
2
100
AcDbSymbolTable
 70
    10
  0
LAYER
  5
14
100
AcDbSymbolTableRecord
100
AcDbLayerTableRecord
  2
0
 70
     0
 62
     7
  6
Continuous
290
     1
370
    -3
390
1D
  0
LAYER
  5
28
100
AcDbSymbolTableRecord
100
AcDbLayerTableRecord
  2
RAHMEN
 70
     0
 62
     7
  6
Continuous
290
     1
370
    -3
390
1D
  0
LAYER
  5
29
100
AcDbSymbolTableRecord
100
AcDbLayerTableRecord
  2
TEXT
 70
     0
 62
   253
  6
Continuous
290
     1
370
    -3
390
1D
  0
LAYER
  5
45
100
AcDbSymbolTableRecord
100
AcDbLayerTableRecord
  2
AM_0
 70
     0
 62
     4
  6
Continuous
290
     1
370
    -3
390
1D
  0
LAYER
  5
AD
100
AcDbSymbolTableRecord
100
AcDbLayerTableRecord
  2
AM_8
 70
     0
 62
     6
  6
Continuous
290
     1
370
    -3
390
1D
  0
LAYER
  5
B1
100
AcDbSymbolTableRecord
100
AcDbLayerTableRecord
  2
MITTELLINIE
 70
     0
 62
     2
  6
Continuous
290
     1
370
    -3
390
1D
  0
LAYER
  5
B7
100
AcDbSymbolTableRecord
100
AcDbLayerTableRecord
  2
SCHRAFFUR
 70
     0
 62
     5
  6
Continuous
290
     1
370
    -3
390
1D
  0
LAYER
  5
125
100
AcDbSymbolTableRecord
100
AcDbLayerTableRecord
  2
WASSER
 70
     0
 62
     3
  6
Continuous
290
     1
370
    -3
390
1D
  0
LAYER
  5
12A
100
AcDbSymbolTableRecord
100
AcDbLayerTableRecord
  2
GETRENNT
 70
     0
 62
     1
  6
Continuous
290
     1
370
    -3
390
1D
  0
LAYER
  5
130
100
AcDbSymbolTableRecord
100
AcDbLayerTableRecord
  2
ROHR
 70
     0
 62
   160
  6
Continuous
290
     1
370
    -3
390
1D
  0
ENDTAB
  0
TABLE
  2
STYLE
  5
3
100
AcDbSymbolTable
 70
     5
  0
STYLE
  5
17
100
AcDbSymbolTableRecord
100
AcDbTextStyleTableRecord
  2
Standard
 70
     0
 40
0.0
 41
1.0
 50
0.0
 71
     0
 42
0.0
  3
txt
  4

  0
STYLE
  5
24
100
AcDbSymbolTableRecord
100
AcDbTextStyleTableRecord
  2
STD
 70
     0
 40
0.0
 41
1.0
 50
0.0
 71
     0
 42
0.0
  3
txt
  4

  0
STYLE
  5
25
100
AcDbSymbolTableRecord
100
AcDbTextStyleTableRecord
  2
TATESTD
 70
     4
 40
0.0
 41
1.0
 50
0.0
 71
     0
 42
0.0
  3
txt
  4

  0
STYLE
  5
26
100
AcDbSymbolTableRecord
100
AcDbTextStyleTableRecord
  2
KANJISTD
 70
     0
 40
0.0
 41
1.0
 50
0.0
 71
     0
 42
0.0
  3
txt
  4
extfont
  0
STYLE
  5
27
100
AcDbSymbolTableRecord
100
AcDbTextStyleTableRecord
  2
KANJITATE
 70
     4
 40
0.0
 41
1.0
 50
0.0
 71
     0
 42
0.0
  3
txt
  4
extfont
  0
ENDTAB
  0
TABLE
  2
VIEW
  5
5
100
AcDbSymbolTable
 70
     0
  0
ENDTAB
  0
TABLE
  2
UCS
  5
6
100
AcDbSymbolTable
 70
     0
  0
ENDTAB
  0
TABLE
  2
APPID
  5
8
100
AcDbSymbolTable
 70
     1
  0
APPID
  5
16
100
AcDbSymbolTableRecord
100
AcDbRegAppTableRecord
  2
ACAD
 70
     0
  0
ENDTAB
  0
TABLE
  2
DIMSTYLE
  5
9
100
AcDbSymbolTable
 70
     1
100
AcDbDimStyleTable
 71
     0
  0
DIMSTYLE
105
18
100
AcDbSymbolTableRecord
100
AcDbDimStyleTableRecord
  2
Standard
 70
     0
  3

  4

 40
1.0
 41
0.18
 42
0.0625
 43
0.38
 44
0.18
 45
0.0
 46
0.0
 47
0.0
 48
0.0
 71
     0
 72
     0
 73
     1
 74
     1
 75
     0
 76
     0
 77
     0
 78
     0
 79
     0
140
0.18
141
0.09
142
0.0
143
25.4
144
1.0
145
0.0
146
1.0
147
0.09
148
0.0
170
     0
171
     2
172
     0
173
     0
174
     0
175
     0
176
     0
177
     0
178
     0
179
     0
271
     4
272
     4
273
     2
274
     2
275
     0
276
     0
277
     2
278
    46
279
     0
280
     0
281
     0
282
     0
283
     1
284
     0
285
     0
286
     0
288
     0
340
17
341
0
342
0
343
0
344
0
371
    -2
372
    -2
  0
ENDTAB
  0
TABLE
  2
BLOCK_RECORD
  5
1
100
AcDbSymbolTable
 70
     4
  0
BLOCK_RECORD
  5
A
100
AcDbSymbolTableRecord
100
AcDbBlockTableRecord
  2
*MODEL_SPACE
340
20
  0
BLOCK_RECORD
  5
B
100
AcDbSymbolTableRecord
100
AcDbBlockTableRecord
  2
*PAPER_SPACE
340
21
  0
BLOCK_RECORD
  5
37
100
AcDbSymbolTableRecord
100
AcDbBlockTableRecord
  2
AI9-BLK1
340
0
102
{BLKREFS
331
38
102
}
  0
BLOCK_RECORD
  5
3F
100
AcDbSymbolTableRecord
100
AcDbBlockTableRecord
  2
AI9-BLK2
340
0
102
{BLKREFS
331
40
102
}
  0
BLOCK_RECORD
  5
131
100
AcDbSymbolTableRecord
100
AcDbBlockTableRecord
  2
AI9-BLK3
340
0
102
{BLKREFS
331
132
102
}
  0
BLOCK_RECORD
  5
171
100
AcDbSymbolTableRecord
100
AcDbBlockTableRecord
  2
AI9-BLK4
340
0
102
{BLKREFS
331
172
102
}
  0
ENDTAB
  0
ENDSEC
  0
SECTION
  2
BLOCKS
  0
BLOCK
  5
D
100
AcDbEntity
  8
0
100
AcDbBlockBegin
  2
*MODEL_SPACE
 70
     0
 10
0.0
 20
0.0
 30
0.0
  3
*MODEL_SPACE
  1

  0
ENDBLK
  5
E
100
AcDbEntity
  8
0
100
AcDbBlockEnd
  0
BLOCK
  5
F
100
AcDbEntity
 67
     1
  8
0
100
AcDbBlockBegin
  2
*PAPER_SPACE
 70
     0
 10
0.0
 20
0.0
 30
0.0
  3
*PAPER_SPACE
  1

  0
ENDBLK
  5
10
100
AcDbEntity
 67
     1
  8
0
100
AcDbBlockEnd
  0
BLOCK
  5
39
100
AcDbEntity
  8
TEXT
 62
     7
100
AcDbBlockBegin
  2
AI9-BLK1
 70
     0
 10
0.0
 20
0.0
 30
0.0
  3
AI9-BLK1
  1

  0
MTEXT
  5
3B
100
AcDbEntity
  8
TEXT
 62
     7
100
AcDbMText
 10
-23.244921
 20
6.288332
 30
0.0
 40
5.512152
 41
0.0
 71
     1
 72
     2
  1
\fArial|b0|i0;\H5.5122;\C7;\U+0053\U+0074\U+0061\U+006E\U+0064\U+0061\U+0072\U+0064\U+0020\U+0032\U+0030
  7
STD
210
0.0
220
0.0
230
1.0
 73
     1
 44
1.0
  0
MTEXT
  5
3A
100
AcDbEntity
  8
TEXT
 62
     7
100
AcDbMText
 10
-23.244921
 20
13.696666
 30
0.0
 40
5.512152
 41
0.0
 71
     1
 72
     2
  1
\fArial|b0|i0;\H5.5122;\C7;\U+0046\U+0048\U+0052\U+004B\U+002D
  7
STD
210
0.0
220
0.0
230
1.0
 73
     1
 44
1.0
  0
ENDBLK
  5
3C
100
AcDbEntity
  8
TEXT
100
AcDbBlockEnd
  0
BLOCK
  5
41
100
AcDbEntity
  8
TEXT
 62
     7
100
AcDbBlockBegin
  2
AI9-BLK2
 70
     0
 10
0.0
 20
0.0
 30
0.0
  3
AI9-BLK2
  1

  0
MTEXT
  5
43
100
AcDbEntity
  8
TEXT
 62
     7
100
AcDbMText
 10
-26.80603
 20
4.254865
 30
0.0
 40
5.512152
 41
0.0
 71
     1
 72
     2
  1
\fArial|b0|i0;\H5.5122;\C7;\U+0046\U+006C\U+0061\U+006E\U+0073\U+0063\U+0068\U+0070\U+006C\U+0061\U+0074\U+0074\U+0065
  7
STD
210
0.0
220
0.0
230
1.0
 73
     1
 44
1.0
  0
MTEXT
  5
42
100
AcDbEntity
  8
TEXT
 62
     7
100
AcDbMText
 10
-26.80603
 20
11.663198
 30
0.0
 40
5.512152
 41
0.0
 71
     1
 72
     2
  1
\fArial|b0|i0;\H5.5122;\C7;\U+004D\U+0061\U+006E\U+0073\U+0063\U+0068\U+0065\U+0074\U+0074\U+0065\U+002F
  7
STD
210
0.0
220
0.0
230
1.0
 73
     1
 44
1.0
  0
ENDBLK
  5
44
100
AcDbEntity
  8
TEXT
100
AcDbBlockEnd
  0
BLOCK
  5
133
100
AcDbEntity
  8
ROHR
  6
AI9-LType2
 62
     7
100
AcDbBlockBegin
  2
AI9-BLK3
 70
     0
 10
0.0
 20
0.0
 30
0.0
  3
AI9-BLK3
  1

  0
INSERT
  5
172
100
AcDbEntity
  8
ROHR
 62
     7
100
AcDbBlockReference
  2
AI9-BLK4
 10
-50.284786
 20
-5.218286
 30
0.0
  0
LINE
  5
170
100
AcDbEntity
  8
ROHR
 62
     7
100
AcDbLine
 10
51.151572
 20
2.302788
 30
0.0
 11
51.890889
 21
3.042278
 31
0.0
  0
LINE
  5
16F
100
AcDbEntity
  8
ROHR
 62
     7
100
AcDbLine
 10
49.040417
 20
2.313468
 30
0.0
 11
49.486902
 21
2.759608
 31
0.0
  0
LINE
  5
16E
100
AcDbEntity
  8
ROHR
 62
     7
100
AcDbLine
 10
50.762965
 20
-0.737509
 30
0.0
 11
51.148471
 21
-0.352003
 31
0.0
  0
LINE
  5
16D
100
AcDbEntity
  8
ROHR
 62
     7
100
AcDbLine
 10
50.318892
 20
-2.772527
 30
0.0
 11
50.32785
 21
-2.763569
 31
0.0
  0
LINE
  5
16C
100
AcDbEntity
  8
ROHR
 62
     7
100
AcDbLine
 10
50.087037
 20
-1.943637
 30
0.0
 11
50.151116
 21
-1.879558
 31
0.0
  0
LINE
  5
16B
100
AcDbEntity
  8
ROHR
 62
     7
100
AcDbLine
 10
49.973694
 20
-1.526608
 30
0.0
 11
50.067745
 21
-1.432557
 31
0.0
  0
LINE
  5
16A
100
AcDbEntity
  8
ROHR
 62
     7
100
AcDbLine
 10
49.753208
 20
-0.686694
 30
0.0
 11
49.911682
 21
-0.52753
 31
0.0
  0
LINE
  5
169
100
AcDbEntity
  8
ROHR
 62
     7
100
AcDbLine
 10
49.862073
 20
-1.107512
 30
0.0
 11
49.988163
 21
-0.981938
 31
0.0
  0
LINE
  5
168
100
AcDbEntity
  8
ROHR
 62
     7
100
AcDbLine
 10
50.201759
 20
-2.358943
 30
0.0
 11
50.237933
 21
-2.323286
 31
0.0
  0
LINE
  5
167
100
AcDbEntity
  8
ROHR
 62
     7
100
AcDbLine
 10
50.408809
 20
-2.682437
 30
0.0
 11
50.458074
 21
-2.633517
 31
0.0
  0
LINE
  5
166
100
AcDbEntity
  8
ROHR
 62
     7
100
AcDbLine
 10
50.538
 20
-2.022702
 30
0.0
 11
50.7137
 21
-1.847002
 31
0.0
  0
LINE
  5
165
100
AcDbEntity
  8
ROHR
 62
     7
100
AcDbLine
 10
50.655823
 20
-1.374679
 30
0.0
 11
50.942799
 21
-1.087703
 31
0.0
  0
LINE
  5
164
100
AcDbEntity
  8
ROHR
 62
     7
100
AcDbLine
 10
49.539612
 20
0.1608
 30
0.0
 11
49.771122
 21
0.392138
 31
0.0
  0
LINE
  5
163
100
AcDbEntity
  8
ROHR
 62
     7
100
AcDbLine
 10
49.435914
 20
0.587475
 30
0.0
 11
49.70601
 21
0.857398
 31
0.0
  0
LINE
  5
162
100
AcDbEntity
  8
ROHR
 62
     7
100
AcDbLine
 10
49.645721
 20
-0.26398
 30
0.0
 11
49.839335
 21
-0.069677
 31
0.0
  0
LINE
  5
161
100
AcDbEntity
  8
ROHR
 62
     7
100
AcDbLine
 10
49.33394
 20
1.015873
 30
0.0
 11
49.645032
 21
1.326965
 31
0.0
  0
LINE
  5
160
100
AcDbEntity
  8
ROHR
 62
     7
100
AcDbLine
 10
49.234376
 20
1.446509
 30
0.0
 11
49.588188
 21
1.800321
 31
0.0
  0
LINE
  5
15F
100
AcDbEntity
  8
ROHR
 62
     7
100
AcDbLine
 10
49.136536
 20
1.878869
 30
0.0
 11
49.535478
 21
2.277983
 31
0.0
  0
LINE
  5
15E
100
AcDbEntity
  8
ROHR
 62
     7
100
AcDbLine
 10
50.859083
 20
-0.110674
 30
0.0
 11
51.33244
 21
0.362338
 31
0.0
  0
LINE
  5
15D
100
AcDbEntity
  8
ROHR
 62
     7
100
AcDbLine
 10
51.023414
 20
1.113713
 30
0.0
 11
51.643876
 21
1.734692
 31
0.0
  0
LINE
  5
15C
100
AcDbEntity
  8
ROHR
 62
     7
100
AcDbLine
 10
51.091627
 20
1.712643
 30
0.0
 11
51.77479
 21
2.395806
 31
0.0
  0
LINE
  5
15B
100
AcDbEntity
  8
ROHR
 62
     7
100
AcDbLine
 10
50.9459
 20
0.505998
 30
0.0
 11
51.496771
 21
1.057214
 31
0.0
  0
LINE
  5
15A
100
AcDbEntity
  8
ROHR
 62
     7
100
AcDbLine
 10
48.855071
 20
3.188522
 30
0.0
 11
49.402842
 21
3.73612
 31
0.0
  0
LINE
  5
159
100
AcDbEntity
  8
ROHR
 62
     7
100
AcDbLine
 10
48.241155
 20
7.347441
 30
0.0
 11
49.261248
 21
8.367362
 31
0.0
  0
LINE
  5
158
100
AcDbEntity
  8
ROHR
 62
     7
100
AcDbLine
 10
48.28353
 20
6.859443
 30
0.0
 11
49.255391
 21
7.831649
 31
0.0
  0
LINE
  5
157
100
AcDbEntity
  8
ROHR
 62
     7
100
AcDbLine
 10
48.33245
 20
6.378508
 30
0.0
 11
49.25608
 21
7.301794
 31
0.0
  0
LINE
  5
156
100
AcDbEntity
  8
ROHR
 62
     7
100
AcDbLine
 10
48.38895
 20
5.904463
 30
0.0
 11
49.261593
 21
6.777278
 31
0.0
  0
LINE
  5
155
100
AcDbEntity
  8
ROHR
 62
     7
100
AcDbLine
 10
48.451995
 20
5.436964
 30
0.0
 11
49.272961
 21
6.25793
 31
0.0
  0
LINE
  5
154
100
AcDbEntity
  8
ROHR
 62
     7
100
AcDbLine
 10
48.521242
 20
4.975838
 30
0.0
 11
49.289153
 21
5.743749
 31
0.0
  0
LINE
  5
153
100
AcDbEntity
  8
ROHR
 62
     7
100
AcDbLine
 10
48.596689
 20
4.521085
 30
0.0
 11
49.310168
 21
5.234736
 31
0.0
  0
LINE
  5
152
100
AcDbEntity
  8
ROHR
 62
     7
100
AcDbLine
 10
48.678338
 20
4.072017
 30
0.0
 11
49.336696
 21
4.730374
 31
0.0
  0
LINE
  5
151
100
AcDbEntity
  8
ROHR
 62
     7
100
AcDbLine
 10
48.230131
 20
11.579224
 30
0.0
 11
49.810396
 21
13.159317
 31
0.0
  0
LINE
  5
150
100
AcDbEntity
  8
ROHR
 62
     7
100
AcDbLine
 10
48.149171
 20
9.377119
 30
0.0
 11
49.342897
 21
10.5705
 31
0.0
  0
LINE
  5
14F
100
AcDbEntity
  8
ROHR
 62
     7
100
AcDbLine
 10
48.172942
 20
10.991491
 30
0.0
 11
50.390206
 21
13.208927
 31
0.0
  0
LINE
  5
14E
100
AcDbEntity
  8
ROHR
 62
     7
100
AcDbLine
 10
48.155372
 20
10.443721
 30
0.0
 11
50.845648
 21
13.133651
 31
0.0
  0
LINE
  5
14D
100
AcDbEntity
  8
ROHR
 62
     7
100
AcDbLine
 10
48.159851
 20
8.857254
 30
0.0
 11
49.312925
 21
10.010328
 31
0.0
  0
LINE
  5
14C
100
AcDbEntity
  8
ROHR
 62
     7
100
AcDbLine
 10
48.147449
 20
9.905425
 30
0.0
 11
49.378037
 21
11.136185
 31
0.0
  0
LINE
  5
14B
100
AcDbEntity
  8
ROHR
 62
     7
100
AcDbLine
 10
48.179144
 20
8.346174
 30
0.0
 11
49.289498
 21
9.456356
 31
0.0
  0
LINE
  5
14A
100
AcDbEntity
  8
ROHR
 62
     7
100
AcDbLine
 10
48.206015
 20
7.842846
 30
0.0
 11
49.271928
 21
8.908931
 31
0.0
  0
LINE
  5
149
100
AcDbEntity
  8
ROHR
 62
     7
100
AcDbLine
 10
48.766532
 20
3.622087
 30
0.0
 11
49.367702
 21
4.223084
 31
0.0
  0
LINE
  5
148
100
AcDbEntity
  8
ROHR
 62
     7
100
AcDbLine
 10
51.358278
 20
7.813046
 30
0.0
 11
52.419712
 21
8.87448
 31
0.0
  0
LINE
  5
147
100
AcDbEntity
  8
ROHR
 62
     7
100
AcDbLine
 10
51.345186
 20
8.330155
 30
0.0
 11
52.422123
 21
9.407264
 31
0.0
  0
LINE
  5
146
100
AcDbEntity
  8
ROHR
 62
     7
100
AcDbLine
 10
51.203593
 20
2.885181
 30
0.0
 11
51.993209
 21
3.674797
 31
0.0
  0
LINE
  5
145
100
AcDbEntity
  8
ROHR
 62
     7
100
AcDbLine
 10
51.365857
 20
7.290425
 30
0.0
 11
52.409376
 21
8.333772
 31
0.0
  0
LINE
  5
144
100
AcDbEntity
  8
ROHR
 62
     7
100
AcDbLine
 10
51.367924
 20
6.761947
 30
0.0
 11
52.390773
 21
7.784968
 31
0.0
  0
LINE
  5
143
100
AcDbEntity
  8
ROHR
 62
     7
100
AcDbLine
 10
51.36379
 20
6.227613
 30
0.0
 11
52.363901
 21
7.22738
 31
0.0
  0
LINE
  5
142
100
AcDbEntity
  8
ROHR
 62
     7
100
AcDbLine
 10
51.284897
 20
4.02723
 30
0.0
 11
52.160296
 21
4.902629
 31
0.0
  0
LINE
  5
141
100
AcDbEntity
  8
ROHR
 62
     7
100
AcDbLine
 10
51.337607
 20
5.140685
 30
0.0
 11
52.282252
 21
6.084986
 31
0.0
  0
LINE
  5
140
100
AcDbEntity
  8
ROHR
 62
     7
100
AcDbLine
 10
51.354144
 20
5.687422
 30
0.0
 11
52.327728
 21
6.661006
 31
0.0
  0
LINE
  5
13F
100
AcDbEntity
  8
ROHR
 62
     7
100
AcDbLine
 10
51.31487
 20
4.587231
 30
0.0
 11
52.226442
 21
5.498975
 31
0.0
  0
LINE
  5
13E
100
AcDbEntity
  8
ROHR
 62
     7
100
AcDbLine
 10
51.24769
 20
3.459823
 30
0.0
 11
52.082781
 21
4.294742
 31
0.0
  0
LINE
  5
13D
100
AcDbEntity
  8
ROHR
 62
     7
100
AcDbLine
 10
48.947055
 20
2.749789
 30
0.0
 11
49.44246
 21
3.245711
 31
0.0
  0
LINE
  5
13C
100
AcDbEntity
  8
ROHR
 62
     7
100
AcDbLine
 10
50.978973
 20
11.676204
 30
0.0
 11
51.829567
 21
12.526798
 31
0.0
  0
LINE
  5
13B
100
AcDbEntity
  8
ROHR
 62
     7
100
AcDbLine
 10
51.201526
 20
10.838012
 30
0.0
 11
52.235055
 21
11.872057
 31
0.0
  0
LINE
  5
13A
100
AcDbEntity
  8
ROHR
 62
     7
100
AcDbLine
 10
51.15295
 20
11.320325
 30
0.0
 11
52.058321
 21
12.22518
 31
0.0
  0
LINE
  5
139
100
AcDbEntity
  8
ROHR
 62
     7
100
AcDbLine
 10
51.273873
 20
9.849959
 30
0.0
 11
52.38595
 21
10.962208
 31
0.0
  0
LINE
  5
138
100
AcDbEntity
  8
ROHR
 62
     7
100
AcDbLine
 10
51.302812
 20
9.348353
 30
0.0
 11
52.405242
 21
10.450956
 31
0.0
  0
LINE
  5
137
100
AcDbEntity
  8
ROHR
 62
     7
100
AcDbLine
 10
51.239766
 20
10.346225
 30
0.0
 11
52.349432
 21
11.455718
 31
0.0
  0
LINE
  5
136
100
AcDbEntity
  8
ROHR
 62
     7
100
AcDbLine
 10
51.326583
 20
8.841924
 30
0.0
 11
52.416956
 21
9.932641
 31
0.0
  0
LINE
  5
135
100
AcDbEntity
  8
ROHR
 62
     7
100
AcDbLine
 10
50.25378
 20
12.011584
 30
0.0
 11
51.22702
 21
12.985168
 31
0.0
  0
LINE
  5
134
100
AcDbEntity
  8
ROHR
 62
     7
100
AcDbLine
 10
50.686484
 20
11.913915
 30
0.0
 11
51.552926
 21
12.780529
 31
0.0
  0
ENDBLK
  5
1B2
100
AcDbEntity
  8
ROHR
100
AcDbBlockEnd
  0
BLOCK
  5
173
100
AcDbEntity
  8
ROHR
 62
     7
100
AcDbBlockBegin
  2
AI9-BLK4
 70
     0
 10
0.0
 20
0.0
 30
0.0
  3
AI9-BLK4
  1

  0
LINE
  5
1B0
100
AcDbEntity
  8
ROHR
 62
     7
100
AcDbLine
 10
2.125279
 20
-3.638796
 30
0.0
 11
0.972034
 21
-4.792214
 31
0.0
  0
LINE
  5
1AF
100
AcDbEntity
  8
ROHR
 62
     7
100
AcDbLine
 10
2.135787
 20
-4.158661
 30
0.0
 11
0.942061
 21
-5.352386
 31
0.0
  0
LINE
  5
1AE
100
AcDbEntity
  8
ROHR
 62
     7
100
AcDbLine
 10
-1.041452
 20
-3.623982
 30
0.0
 11
-2.132342
 21
-4.714699
 31
0.0
  0
LINE
  5
1AD
100
AcDbEntity
  8
ROHR
 62
     7
100
AcDbLine
 10
-1.017681
 20
-4.130411
 30
0.0
 11
-2.120284
 21
-5.232497
 31
0.0
  0
LINE
  5
1AC
100
AcDbEntity
  8
ROHR
 62
     7
100
AcDbLine
 10
2.054655
 20
-6.36111
 30
0.0
 11
0.474734
 21
-7.941031
 31
0.0
  0
LINE
  5
1AB
100
AcDbEntity
  8
ROHR
 62
     7
100
AcDbLine
 10
2.11236
 20
-5.773722
 30
0.0
 11
-0.10542
 21
-7.990641
 31
0.0
  0
LINE
  5
1AA
100
AcDbEntity
  8
ROHR
 62
     7
100
AcDbLine
 10
2.129586
 20
-5.225262
 30
0.0
 11
-0.560345
 21
-7.915538
 31
0.0
  0
LINE
  5
1A9
100
AcDbEntity
  8
ROHR
 62
     7
100
AcDbLine
 10
2.137337
 20
-4.687483
 30
0.0
 11
0.906921
 21
-5.917727
 31
0.0
  0
LINE
  5
1A8
100
AcDbEntity
  8
ROHR
 62
     7
100
AcDbLine
 10
-0.916395
 20
-5.62007
 30
0.0
 11
-1.950269
 21
-6.653599
 31
0.0
  0
LINE
  5
1A7
100
AcDbEntity
  8
ROHR
 62
     7
100
AcDbLine
 10
-0.95498
 20
-5.128111
 30
0.0
 11
-2.064473
 21
-6.237776
 31
0.0
  0
LINE
  5
1A6
100
AcDbEntity
  8
ROHR
 62
     7
100
AcDbLine
 10
-0.988742
 20
-4.631672
 30
0.0
 11
-2.101336
 21
-5.744094
 31
0.0
  0
LINE
  5
1A5
100
AcDbEntity
  8
ROHR
 62
     7
100
AcDbLine
 10
-0.401181
 20
-6.695629
 30
0.0
 11
-1.267795
 21
-7.562071
 31
0.0
  0
LINE
  5
1A4
100
AcDbEntity
  8
ROHR
 62
     7
100
AcDbLine
 10
0.031523
 20
-6.793125
 30
0.0
 11
-0.942061
 21
-7.766709
 31
0.0
  0
LINE
  5
1A3
100
AcDbEntity
  8
ROHR
 62
     7
100
AcDbLine
 10
-0.694014
 20
-6.457918
 30
0.0
 11
-1.544609
 21
-7.308856
 31
0.0
  0
LINE
  5
1A2
100
AcDbEntity
  8
ROHR
 62
     7
100
AcDbLine
 10
-0.868336
 20
-6.102384
 30
0.0
 11
-1.773191
 21
-7.007066
 31
0.0
  0
LINE
  5
1A1
100
AcDbEntity
  8
ROHR
 62
     7
100
AcDbLine
 10
2.105815
 20
-3.127888
 30
0.0
 11
0.995633
 21
-4.238243
 31
0.0
  0
LINE
  5
1A0
100
AcDbEntity
  8
ROHR
 62
     7
100
AcDbLine
 10
2.078771
 20
-2.62456
 30
0.0
 11
1.012686
 21
-3.690472
 31
0.0
  0
LINE
  5
19F
100
AcDbEntity
  8
ROHR
 62
     7
100
AcDbLine
 10
2.043803
 20
-2.1295
 30
0.0
 11
1.024055
 21
-3.149592
 31
0.0
  0
LINE
  5
19E
100
AcDbEntity
  8
ROHR
 62
     7
100
AcDbLine
 10
1.952163
 20
-1.160394
 30
0.0
 11
1.028878
 21
-2.083335
 31
0.0
  0
LINE
  5
19D
100
AcDbEntity
  8
ROHR
 62
     7
100
AcDbLine
 10
1.518254
 20
1.595854
 30
0.0
 11
0.917257
 21
0.994857
 31
0.0
  0
LINE
  5
19C
100
AcDbEntity
  8
ROHR
 62
     7
100
AcDbLine
 10
1.763717
 20
0.242104
 30
0.0
 11
0.996149
 21
-0.525463
 31
0.0
  0
LINE
  5
19B
100
AcDbEntity
  8
ROHR
 62
     7
100
AcDbLine
 10
1.688269
 20
0.697201
 30
0.0
 11
0.974618
 21
-0.016623
 31
0.0
  0
LINE
  5
19A
100
AcDbEntity
  8
ROHR
 62
     7
100
AcDbLine
 10
1.606965
 20
1.146097
 30
0.0
 11
0.948607
 21
0.487739
 31
0.0
  0
LINE
  5
199
100
AcDbEntity
  8
ROHR
 62
     7
100
AcDbLine
 10
2.001428
 20
-1.640985
 30
0.0
 11
1.029222
 21
-2.613536
 31
0.0
  0
LINE
  5
198
100
AcDbEntity
  8
ROHR
 62
     7
100
AcDbLine
 10
1.244368
 20
2.904818
 30
0.0
 11
0.798229
 21
2.458334
 31
0.0
  0
LINE
  5
197
100
AcDbEntity
  8
ROHR
 62
     7
100
AcDbLine
 10
1.148595
 20
3.339245
 30
0.0
 11
0.749308
 21
2.939958
 31
0.0
  0
LINE
  5
196
100
AcDbEntity
  8
ROHR
 62
     7
100
AcDbLine
 10
1.429887
 20
2.029764
 30
0.0
 11
0.882461
 21
1.481994
 31
0.0
  0
LINE
  5
195
100
AcDbEntity
  8
ROHR
 62
     7
100
AcDbLine
 10
1.338247
 20
2.468153
 30
0.0
 11
0.842326
 21
1.972403
 31
0.0
  0
LINE
  5
194
100
AcDbEntity
  8
ROHR
 62
     7
100
AcDbLine
 10
1.896008
 20
-0.686005
 30
0.0
 11
1.023193
 21
-1.558992
 31
0.0
  0
LINE
  5
193
100
AcDbEntity
  8
ROHR
 62
     7
100
AcDbLine
 10
1.832963
 20
-0.21885
 30
0.0
 11
1.012169
 21
-1.039471
 31
0.0
  0
LINE
  5
192
100
AcDbEntity
  8
ROHR
 62
     7
100
AcDbLine
 10
-0.918462
 20
2.33276
 30
0.0
 11
-1.708078
 21
1.543144
 31
0.0
  0
LINE
  5
191
100
AcDbEntity
  8
ROHR
 62
     7
100
AcDbLine
 10
-0.962904
 20
1.758118
 30
0.0
 11
-1.797823
 21
0.923199
 31
0.0
  0
LINE
  5
190
100
AcDbEntity
  8
ROHR
 62
     7
100
AcDbLine
 10
-1.060056
 20
-3.111696
 30
0.0
 11
-2.137337
 21
-4.189322
 31
0.0
  0
LINE
  5
18F
100
AcDbEntity
  8
ROHR
 62
     7
100
AcDbLine
 10
-1.073319
 20
-2.594932
 30
0.0
 11
-2.134753
 21
-3.656366
 31
0.0
  0
LINE
  5
18E
100
AcDbEntity
  8
ROHR
 62
     7
100
AcDbLine
 10
-1.082794
 20
-1.543833
 30
0.0
 11
-2.105815
 21
-2.566682
 31
0.0
  0
LINE
  5
18D
100
AcDbEntity
  8
ROHR
 62
     7
100
AcDbLine
 10
-1.081071
 20
-2.071967
 30
0.0
 11
-2.124418
 21
-3.115486
 31
0.0
  0
LINE
  5
18C
100
AcDbEntity
  8
ROHR
 62
     7
100
AcDbLine
 10
-1.079004
 20
-1.009499
 30
0.0
 11
-2.078598
 21
-2.00961
 31
0.0
  0
LINE
  5
18B
100
AcDbEntity
  8
ROHR
 62
     7
100
AcDbLine
 10
-0.999939
 20
1.190883
 30
0.0
 11
-1.875338
 21
0.315485
 31
0.0
  0
LINE
  5
18A
100
AcDbEntity
  8
ROHR
 62
     7
100
AcDbLine
 10
-1.029567
 20
0.630711
 30
0.0
 11
-1.941484
 21
-0.280861
 31
0.0
  0
LINE
  5
189
100
AcDbEntity
  8
ROHR
 62
     7
100
AcDbLine
 10
-1.052649
 20
0.077429
 30
0.0
 11
-1.99695
 21
-0.866872
 31
0.0
  0
LINE
  5
188
100
AcDbEntity
  8
ROHR
 62
     7
100
AcDbLine
 10
-1.068841
 20
-0.468964
 30
0.0
 11
-2.042425
 21
-1.442548
 31
0.0
  0
LINE
  5
187
100
AcDbEntity
  8
ROHR
 62
     7
100
AcDbLine
 10
-0.737939
 20
4.104228
 30
0.0
 11
-1.35909
 21
3.483422
 31
0.0
  0
LINE
  5
186
100
AcDbEntity
  8
ROHR
 62
     7
100
AcDbLine
 10
-0.866614
 20
2.915154
 30
0.0
 11
-1.606104
 21
2.175664
 31
0.0
  0
LINE
  5
185
100
AcDbEntity
  8
ROHR
 62
     7
100
AcDbLine
 10
-0.660942
 20
4.711943
 30
0.0
 11
-1.211985
 21
4.1609
 31
0.0
  0
LINE
  5
184
100
AcDbEntity
  8
ROHR
 62
     7
100
AcDbLine
 10
-0.806325
 20
3.505643
 30
0.0
 11
-1.489832
 21
2.822136
 31
0.0
  0
LINE
  5
183
100
AcDbEntity
  8
ROHR
 62
     7
100
AcDbLine
 10
1.050582
 20
3.771777
 30
0.0
 11
0.696598
 21
3.417793
 31
0.0
  0
LINE
  5
182
100
AcDbEntity
  8
ROHR
 62
     7
100
AcDbLine
 10
0.849044
 20
4.630811
 30
0.0
 11
0.578776
 21
4.360543
 31
0.0
  0
LINE
  5
181
100
AcDbEntity
  8
ROHR
 62
     7
100
AcDbLine
 10
0.950846
 20
4.202241
 30
0.0
 11
0.639754
 21
3.891149
 31
0.0
  0
LINE
  5
180
100
AcDbEntity
  8
ROHR
 62
     7
100
AcDbLine
 10
-0.253387
 20
7.240816
 30
0.0
 11
-0.428914
 21
7.065288
 31
0.0
  0
LINE
  5
17F
100
AcDbEntity
  8
ROHR
 62
     7
100
AcDbLine
 10
-0.574125
 20
5.32896
 30
0.0
 11
-1.047137
 21
4.855948
 31
0.0
  0
LINE
  5
17E
100
AcDbEntity
  8
ROHR
 62
     7
100
AcDbLine
 10
-0.477662
 20
5.955623
 30
0.0
 11
-0.863169
 21
5.570289
 31
0.0
  0
LINE
  5
17D
100
AcDbEntity
  8
ROHR
 62
     7
100
AcDbLine
 10
-0.371037
 20
6.592793
 30
0.0
 11
-0.658013
 21
6.305989
 31
0.0
  0
LINE
  5
17C
100
AcDbEntity
  8
ROHR
 62
     7
100
AcDbLine
 10
0.083027
 20
7.577229
 30
0.0
 11
0.04737
 21
7.541228
 31
0.0
  0
LINE
  5
17B
100
AcDbEntity
  8
ROHR
 62
     7
100
AcDbLine
 10
0.422541
 20
6.325626
 30
0.0
 11
0.296967
 21
6.200052
 31
0.0
  0
LINE
  5
17A
100
AcDbEntity
  8
ROHR
 62
     7
100
AcDbLine
 10
0.198265
 20
7.161923
 30
0.0
 11
0.133842
 21
7.097844
 31
0.0
  0
LINE
  5
179
100
AcDbEntity
  8
ROHR
 62
     7
100
AcDbLine
 10
0.532095
 20
5.90498
 30
0.0
 11
0.373104
 21
5.745816
 31
0.0
  0
LINE
  5
178
100
AcDbEntity
  8
ROHR
 62
     7
100
AcDbLine
 10
0.639582
 20
5.481922
 30
0.0
 11
0.445279
 21
5.287963
 31
0.0
  0
LINE
  5
177
100
AcDbEntity
  8
ROHR
 62
     7
100
AcDbLine
 10
0.311092
 20
6.744722
 30
0.0
 11
0.217386
 21
6.650671
 31
0.0
  0
LINE
  5
176
100
AcDbEntity
  8
ROHR
 62
     7
100
AcDbLine
 10
0.745174
 20
5.057142
 30
0.0
 11
0.514181
 21
4.826148
 31
0.0
  0
LINE
  5
175
100
AcDbEntity
  8
ROHR
 62
     7
100
AcDbLine
 10
-0.124023
 20
7.900379
 30
0.0
 11
-0.172772
 21
7.851631
 31
0.0
  0
LINE
  5
174
100
AcDbEntity
  8
ROHR
 62
     7
100
AcDbLine
 10
-0.033762
 20
7.990641
 30
0.0
 11
-0.042891
 21
7.981511
 31
0.0
  0
ENDBLK
  5
1B1
100
AcDbEntity
  8
ROHR
100
AcDbBlockEnd
  0
ENDSEC
  0
SECTION
  2
ENTITIES
  0
INSERT
  5
132
100
AcDbEntity
  8
ROHR
  6
AI9-LType2
 62
     7
100
AcDbBlockReference
  2
AI9-BLK3
 10
119.722408
 20
151.584288
 30
0.0
  0
LINE
  5
12F
100
AcDbEntity
  8
GETRENNT
  6
AI9-LType2
 62
     7
100
AcDbLine
 10
159.936491
 20
211.584329
 30
0.0
 11
98.21261
 21
211.584329
 31
0.0
  0
HATCH
  5
12E
100
AcDbEntity
  8
GETRENNT
 62
     7
100
AcDbHatch
 10
0.0
 20
0.0
 30
0.0
210
0.0
220
0.0
230
1.0
  2
SOLID
 70
     1
 71
     0
 91
        5
 92
        1
 93
        1
 72
     4
 94
        3
 73
     0
 74
     0
 95
       17
 96
       13
 40
0.0
 40
0.0
 40
0.0
 40
0.0
 40
1.0
 40
1.0
 40
1.0
 40
2.0
 40
2.0
 40
2.0
 40
3.0
 40
3.0
 40
3.0
 40
4.0
 40
4.0
 40
4.0
 40
4.0
 10
101.13629014756944
 20
175.58445909288193
 10
101.13629014756944
 20
175.58445909288193
 10
98.736092122395831
 20
175.58445909288193
 10
98.736092122395831
 20
175.58445909288193
 10
98.736092122395831
 20
175.58445909288193
 10
98.736092122395831
 20
179.7633599175347
 10
98.736092122395831
 20
179.7633599175347
 10
98.736092122395831
 20
179.7633599175347
 10
101.13629014756944
 20
179.7633599175347
 10
101.13629014756944
 20
179.7633599175347
 10
101.13629014756944
 20
179.7633599175347
 10
101.13629014756944
 20
175.58445909288193
 10
101.13629014756944
 20
175.58445909288193
 97
        0
 92
        1
 93
        1
 72
     4
 94
        3
 73
     0
 74
     0
 95
       17
 96
       13
 40
0.0
 40
0.0
 40
0.0
 40
0.0
 40
1.0
 40
1.0
 40
1.0
 40
2.0
 40
2.0
 40
2.0
 40
3.0
 40
3.0
 40
3.0
 40
4.0
 40
4.0
 40
4.0
 40
4.0
 10
101.13629014756944
 20
183.94208848741317
 10
101.13629014756944
 20
183.94208848741317
 10
98.736092122395831
 20
183.94208848741317
 10
98.736092122395831
 20
183.94208848741317
 10
98.736092122395831
 20
183.94208848741317
 10
98.736092122395831
 20
188.12098931206594
 10
98.736092122395831
 20
188.12098931206594
 10
98.736092122395831
 20
188.12098931206594
 10
101.13629014756944
 20
188.12098931206594
 10
101.13629014756944
 20
188.12098931206594
 10
101.13629014756944
 20
188.12098931206594
 10
101.13629014756944
 20
183.94208848741317
 10
101.13629014756944
 20
183.94208848741317
 97
        0
 92
        1
 93
        1
 72
     4
 94
        3
 73
     0
 74
     0
 95
       17
 96
       13
 40
0.0
 40
0.0
 40
0.0
 40
0.0
 40
1.0
 40
1.0
 40
1.0
 40
2.0
 40
2.0
 40
2.0
 40
3.0
 40
3.0
 40
3.0
 40
4.0
 40
4.0
 40
4.0
 40
4.0
 10
101.13629014756944
 20
192.29971788194442
 10
101.13629014756944
 20
192.29971788194442
 10
98.736092122395831
 20
192.29971788194442
 10
98.736092122395831
 20
192.29971788194442
 10
98.736092122395831
 20
192.29971788194442
 10
98.736092122395831
 20
196.47861870659722
 10
98.736092122395831
 20
196.47861870659722
 10
98.736092122395831
 20
196.47861870659722
 10
101.13629014756944
 20
196.47861870659722
 10
101.13629014756944
 20
196.47861870659722
 10
101.13629014756944
 20
196.47861870659722
 10
101.13629014756944
 20
192.29971788194442
 10
101.13629014756944
 20
192.29971788194442
 97
        0
 92
        1
 93
        1
 72
     4
 94
        3
 73
     0
 74
     0
 95
       17
 96
       13
 40
0.0
 40
0.0
 40
0.0
 40
0.0
 40
1.0
 40
1.0
 40
1.0
 40
2.0
 40
2.0
 40
2.0
 40
3.0
 40
3.0
 40
3.0
 40
4.0
 40
4.0
 40
4.0
 40
4.0
 10
101.13629014756944
 20
200.65734727647569
 10
101.13629014756944
 20
200.65734727647569
 10
98.736092122395831
 20
200.65734727647569
 10
98.736092122395831
 20
200.65734727647569
 10
98.736092122395831
 20
200.65734727647569
 10
98.736092122395831
 20
204.83590359157984
 10
98.736092122395831
 20
204.83590359157984
 10
98.736092122395831
 20
204.83590359157984
 10
101.13629014756944
 20
204.83590359157984
 10
101.13629014756944
 20
204.83590359157984
 10
101.13629014756944
 20
204.83590359157984
 10
101.13629014756944
 20
200.65734727647569
 10
101.13629014756944
 20
200.65734727647569
 97
        0
 92
        1
 93
        1
 72
     4
 94
        3
 73
     0
 74
     0
 95
       17
 96
       13
 40
0.0
 40
0.0
 40
0.0
 40
0.0
 40
1.0
 40
1.0
 40
1.0
 40
2.0
 40
2.0
 40
2.0
 40
3.0
 40
3.0
 40
3.0
 40
4.0
 40
4.0
 40
4.0
 40
4.0
 10
101.13629014756944
 20
209.01497667100693
 10
101.13629014756944
 20
209.01497667100693
 10
98.736092122395831
 20
209.01497667100693
 10
98.736092122395831
 20
209.01497667100693
 10
98.736092122395831
 20
209.01497667100693
 10
98.736092122395831
 20
211.5843288845486
 10
98.736092122395831
 20
211.5843288845486
 10
98.736092122395831
 20
211.5843288845486
 10
101.13629014756944
 20
211.5843288845486
 10
101.13629014756944
 20
211.5843288845486
 10
101.13629014756944
 20
211.5843288845486
 10
101.13629014756944
 20
209.01497667100693
 10
101.13629014756944
 20
209.01497667100693
 97
        0
 75
     0
 76
     1
 98
        1
 10
0.0
 20
0.0
  0
LINE
  5
12D
100
AcDbEntity
  8
GETRENNT
  6
AI9-LType2
 62
     7
100
AcDbLine
 10
159.936491
 20
91.584418
 30
0.0
 11
97.728918
 21
91.584418
 31
0.0
  0
HATCH
  5
12B
100
AcDbEntity
  8
GETRENNT
 62
     7
100
AcDbHatch
 10
0.0
 20
0.0
 30
0.0
210
0.0
220
0.0
230
1.0
  2
SOLID
 70
     1
 71
     0
 91
        5
 92
       16
 93
        1
 72
     4
 94
        3
 73
     0
 74
     0
 95
       17
 96
       13
 40
0.0
 40
0.0
 40
0.0
 40
0.0
 40
1.0
 40
1.0
 40
1.0
 40
2.0
 40
2.0
 40
2.0
 40
3.0
 40
3.0
 40
3.0
 40
4.0
 40
4.0
 40
4.0
 40
4.0
 10
101.13629014756944
 20
94.110362413194437
 10
101.13629014756944
 20
94.110362413194437
 10
98.736092122395831
 20
94.110362413194437
 10
98.736092122395831
 20
94.110362413194437
 10
98.736092122395831
 20
94.110362413194437
 10
98.736092122395831
 20
91.584418402777771
 10
98.736092122395831
 20
91.584418402777771
 10
98.736092122395831
 20
91.584418402777771
 10
101.13629014756944
 20
91.584418402777771
 10
101.13629014756944
 20
91.584418402777771
 10
101.13629014756944
 20
91.584418402777771
 10
101.13629014756944
 20
94.110362413194437
 10
101.13629014756944
 20
94.110362413194437
 97
        0
 92
       16
 93
        1
 72
     4
 94
        3
 73
     0
 74
     0
 95
       17
 96
       13
 40
0.0
 40
0.0
 40
0.0
 40
0.0
 40
1.0
 40
1.0
 40
1.0
 40
2.0
 40
2.0
 40
2.0
 40
3.0
 40
3.0
 40
3.0
 40
4.0
 40
4.0
 40
4.0
 40
4.0
 10
101.13629014756944
 20
102.14191351996527
 10
101.13629014756944
 20
102.14191351996527
 10
98.736092122395831
 20
102.14191351996527
 10
98.736092122395831
 20
102.14191351996527
 10
98.736092122395831
 20
102.14191351996527
 10
98.736092122395831
 20
97.963357204861097
 10
98.736092122395831
 20
97.963357204861097
 10
98.736092122395831
 20
97.963357204861097
 10
101.13629014756944
 20
97.963357204861097
 10
101.13629014756944
 20
97.963357204861097
 10
101.13629014756944
 20
97.963357204861097
 10
101.13629014756944
 20
102.14191351996527
 10
101.13629014756944
 20
102.14191351996527
 97
        0
 92
       16
 93
        1
 72
     4
 94
        3
 73
     0
 74
     0
 95
       17
 96
       13
 40
0.0
 40
0.0
 40
0.0
 40
0.0
 40
1.0
 40
1.0
 40
1.0
 40
2.0
 40
2.0
 40
2.0
 40
3.0
 40
3.0
 40
3.0
 40
4.0
 40
4.0
 40
4.0
 40
4.0
 10
101.13629014756944
 20
110.17415364583333
 10
101.13629014756944
 20
110.17415364583333
 10
98.736092122395831
 20
110.17415364583333
 10
98.736092122395831
 20
110.17415364583333
 10
98.736092122395831
 20
110.17415364583333
 10
98.736092122395831
 20
105.99559733072915
 10
98.736092122395831
 20
105.99559733072915
 10
98.736092122395831
 20
105.99559733072915
 10
101.13629014756944
 20
105.99559733072915
 10
101.13629014756944
 20
105.99559733072915
 10
101.13629014756944
 20
105.99559733072915
 10
101.13629014756944
 20
110.17415364583333
 10
101.13629014756944
 20
110.17415364583333
 97
        0
 92
       16
 93
        1
 72
     4
 94
        3
 73
     0
 74
     0
 95
       17
 96
       13
 40
0.0
 40
0.0
 40
0.0
 40
0.0
 40
1.0
 40
1.0
 40
1.0
 40
2.0
 40
2.0
 40
2.0
 40
3.0
 40
3.0
 40
3.0
 40
4.0
 40
4.0
 40
4.0
 40
4.0
 10
101.13629014756944
 20
119.11865505642361
 10
101.13629014756944
 20
119.11865505642361
 10
98.736092122395831
 20
119.11865505642361
 10
98.736092122395831
 20
119.11865505642361
 10
98.736092122395831
 20
119.11865505642361
 10
98.736092122395831
 20
114.94009874131943
 10
98.736092122395831
 20
114.94009874131943
 10
98.736092122395831
 20
114.94009874131943
 10
101.13629014756944
 20
114.94009874131943
 10
101.13629014756944
 20
114.94009874131943
 10
101.13629014756944
 20
114.94009874131943
 10
101.13629014756944
 20
119.11865505642361
 10
101.13629014756944
 20
119.11865505642361
 97
        0
 92
       16
 93
        1
 72
     4
 94
        3
 73
     0
 74
     0
 95
       17
 96
       13
 40
0.0
 40
0.0
 40
0.0
 40
0.0
 40
1.0
 40
1.0
 40
1.0
 40
2.0
 40
2.0
 40
2.0
 40
3.0
 40
3.0
 40
3.0
 40
4.0
 40
4.0
 40
4.0
 40
4.0
 10
101.13629014756944
 20
127.58428819444443
 10
101.13629014756944
 20
127.58428819444443
 10
98.736092122395831
 20
127.58428819444443
 10
98.736092122395831
 20
127.58428819444443
 10
98.736092122395831
 20
127.58428819444443
 10
98.736092122395831
 20
123.40573187934027
 10
98.736092122395831
 20
123.40573187934027
 10
98.736092122395831
 20
123.40573187934027
 10
101.13629014756944
 20
123.40573187934027
 10
101.13629014756944
 20
123.40573187934027
 10
101.13629014756944
 20
123.40573187934027
 10
101.13629014756944
 20
127.58428819444443
 10
101.13629014756944
 20
127.58428819444443
 97
        0
 75
     0
 76
     1
 98
        1
 10
0.0
 20
0.0
  0
HATCH
  5
129
100
AcDbEntity
  8
WASSER
 62
   152
100
AcDbHatch
 10
0.0
 20
0.0
 30
0.0
210
0.0
220
0.0
230
1.0
  2
SOLID
 70
     1
 71
     0
 91
        1
 92
        1
 93
        1
 72
     4
 94
        3
 73
     0
 74
     0
 95
       23
 96
       19
 40
0.0
 40
0.0
 40
0.0
 40
0.0
 40
1.0
 40
1.0
 40
1.0
 40
2.0
 40
2.0
 40
2.0
 40
3.0
 40
3.0
 40
3.0
 40
4.0
 40
4.0
 40
4.0
 40
5.0
 40
5.0
 40
5.0
 40
6.0
 40
6.0
 40
6.0
 40
6.0
 10
62.815115017361109
 20
122.60440266927083
 10
62.815115017361109
 20
122.60440266927083
 10
62.389817979600686
 20
122.86622992621527
 10
61.812075466579856
 20
123.14218207465277
 10
57.045441351996523
 20
125.4221462673611
 10
58.207816569010411
 20
120.80296223958332
 10
53.489758300781247
 20
123.70648871527777
 10
52.824510362413193
 20
124.11576605902776
 10
52.21024983723958
 20
123.11806640624999
 10
52.875842285156246
 20
122.70878906249999
 10
52.875842285156246
 20
122.70878906249999
 10
53.300622558593744
 20
122.44661729600693
 10
53.878709581163193
 20
122.17032063802083
 10
58.639314778645826
 20
119.89138997395833
 10
57.482279459635414
 20
124.50299479166665
 10
62.201199001736107
 20
121.60601399739582
 10
62.866446940104161
 20
121.19708116319444
 10
63.480362955729163
 20
122.19512532552082
 10
62.815115017361109
 20
122.60440266927083
 97
        0
 75
     0
 76
     1
 98
        1
 10
0.0
 20
0.0
  0
HATCH
  5
128
100
AcDbEntity
  8
WASSER
 62
   152
100
AcDbHatch
 10
0.0
 20
0.0
 30
0.0
210
0.0
220
0.0
230
1.0
  2
SOLID
 70
     1
 71
     0
 91
        1
 92
        1
 93
        1
 72
     4
 94
        3
 73
     0
 74
     0
 95
       23
 96
       19
 40
0.0
 40
0.0
 40
0.0
 40
0.0
 40
1.0
 40
1.0
 40
1.0
 40
2.0
 40
2.0
 40
2.0
 40
3.0
 40
3.0
 40
3.0
 40
4.0
 40
4.0
 40
4.0
 40
5.0
 40
5.0
 40
5.0
 40
6.0
 40
6.0
 40
6.0
 40
6.0
 10
62.815115017361109
 20
130.86574164496525
 10
62.815115017361109
 20
130.86574164496525
 10
62.389817979600686
 20
131.12791341145831
 10
61.812075466579856
 20
131.40421006944445
 10
57.045441351996523
 20
133.68417426215277
 10
58.207816569010411
 20
129.06430121527777
 10
53.489758300781247
 20
131.96851671006942
 10
52.824510362413193
 20
132.37744954427083
 10
52.21024983723958
 20
131.37940538194442
 10
52.875842285156246
 20
130.97012803819445
 10
52.875842285156246
 20
130.97012803819445
 10
53.300622558593744
 20
130.70830078124999
 10
53.878709581163193
 20
130.43165961371525
 10
58.639314778645826
 20
128.15341796874998
 10
57.482279459635414
 20
132.76433376736111
 10
62.201199001736107
 20
129.8680419921875
 10
62.866446940104161
 20
129.45876464843749
 10
63.480362955729163
 20
130.45646430121528
 10
62.815115017361109
 20
130.86574164496525
 97
        0
 75
     0
 76
     1
 98
        1
 10
0.0
 20
0.0
  0
HATCH
  5
127
100
AcDbEntity
  8
WASSER
 62
   152
100
AcDbHatch
 10
0.0
 20
0.0
 30
0.0
210
0.0
220
0.0
230
1.0
  2
SOLID
 70
     1
 71
     0
 91
        1
 92
        1
 93
        1
 72
     4
 94
        3
 73
     0
 74
     0
 95
       23
 96
       19
 40
0.0
 40
0.0
 40
0.0
 40
0.0
 40
1.0
 40
1.0
 40
1.0
 40
2.0
 40
2.0
 40
2.0
 40
3.0
 40
3.0
 40
3.0
 40
4.0
 40
4.0
 40
4.0
 40
5.0
 40
5.0
 40
5.0
 40
6.0
 40
6.0
 40
6.0
 40
6.0
 10
62.815115017361109
 20
128.11517740885415
 10
62.815115017361109
 20
128.11517740885415
 10
62.389817979600686
 20
128.37700466579861
 10
61.812075466579856
 20
128.65364583333331
 10
57.045441351996523
 20
130.93361002604166
 10
58.207816569010411
 20
126.31373697916665
 10
53.489758300781247
 20
129.2172634548611
 10
52.824510362413193
 20
129.6265407986111
 10
52.21024983723958
 20
128.62918565538195
 10
52.875842285156246
 20
128.21956380208331
 10
52.875842285156246
 20
128.21956380208331
 10
53.300622558593744
 20
127.95739203559026
 10
53.878709581163193
 20
127.68109537760415
 10
58.639314778645826
 20
125.40250922309026
 10
57.482279459635414
 20
130.01376953124998
 10
62.201199001736107
 20
127.11713324652777
 10
62.866446940104161
 20
126.70785590277777
 10
63.480362955729163
 20
127.70624457465277
 10
62.815115017361109
 20
128.11517740885415
 97
        0
 75
     0
 76
     1
 98
        1
 10
0.0
 20
0.0
  0
HATCH
  5
126
100
AcDbEntity
  8
WASSER
 62
   152
100
AcDbHatch
 10
0.0
 20
0.0
 30
0.0
210
0.0
220
0.0
230
1.0
  2
SOLID
 70
     1
 71
     0
 91
        1
 92
        1
 93
        1
 72
     4
 94
        3
 73
     0
 74
     0
 95
       23
 96
       19
 40
0.0
 40
0.0
 40
0.0
 40
0.0
 40
1.0
 40
1.0
 40
1.0
 40
2.0
 40
2.0
 40
2.0
 40
3.0
 40
3.0
 40
3.0
 40
4.0
 40
4.0
 40
4.0
 40
5.0
 40
5.0
 40
5.0
 40
6.0
 40
6.0
 40
6.0
 40
6.0
 10
62.815115017361109
 20
125.35979003906249
 10
62.815115017361109
 20
125.35979003906249
 10
62.389817979600686
 20
125.62161729600693
 10
61.812075466579856
 20
125.89756944444443
 10
57.045441351996523
 20
128.17822265625
 10
58.207816569010411
 20
123.55834960937499
 10
53.489758300781247
 20
126.46187608506943
 10
52.824510362413193
 20
126.87115342881943
 10
52.21024983723958
 20
125.87345377604166
 10
52.875842285156246
 20
125.46417643229165
 10
52.875842285156246
 20
125.46417643229165
 10
53.300622558593744
 20
125.2020046657986
 10
53.878709581163193
 20
124.92570800781249
 10
58.639314778645826
 20
122.6471218532986
 10
57.482279459635414
 20
127.25838216145833
 10
62.201199001736107
 20
124.36174587673609
 10
62.866446940104161
 20
123.9524685329861
 10
63.480362955729163
 20
124.95051269531248
 10
62.815115017361109
 20
125.35979003906249
 97
        0
 75
     0
 76
     1
 98
        1
 10
0.0
 20
0.0
  0
POLYLINE
  5
11F
100
AcDbEntity
  8
SCHRAFFUR
 62
     7
100
AcDb2dPolyline
 66
     1
 10
0.0
 20
0.0
 30
0.0
 70
     1
  0
VERTEX
  5
120
100
AcDbEntity
  8
SCHRAFFUR
 62
     7
100
AcDbVertex
100
AcDb2dVertex
 10
96.816313
 20
127.584288
 30
0.0
  0
VERTEX
  5
121
100
AcDbEntity
  8
SCHRAFFUR
 62
     7
100
AcDbVertex
100
AcDb2dVertex
 10
96.816313
 20
126.504251
 30
0.0
  0
VERTEX
  5
122
100
AcDbEntity
  8
SCHRAFFUR
 62
     7
100
AcDbVertex
100
AcDb2dVertex
 10
81.216231
 20
126.504251
 30
0.0
  0
VERTEX
  5
123
100
AcDbEntity
  8
SCHRAFFUR
 62
     7
100
AcDbVertex
100
AcDb2dVertex
 10
81.216231
 20
127.584288
 30
0.0
  0
SEQEND
  5
124
100
AcDbEntity
  8
SCHRAFFUR
 62
     7
  0
POLYLINE
  5
119
100
AcDbEntity
  8
SCHRAFFUR
 62
     7
100
AcDb2dPolyline
 66
     1
 10
0.0
 20
0.0
 30
0.0
 70
     1
  0
VERTEX
  5
11A
100
AcDbEntity
  8
SCHRAFFUR
 62
     7
100
AcDbVertex
100
AcDb2dVertex
 10
96.816313
 20
176.664497
 30
0.0
  0
VERTEX
  5
11B
100
AcDbEntity
  8
SCHRAFFUR
 62
     7
100
AcDbVertex
100
AcDb2dVertex
 10
96.816313
 20
175.584459
 30
0.0
  0
VERTEX
  5
11C
100
AcDbEntity
  8
SCHRAFFUR
 62
     7
100
AcDbVertex
100
AcDb2dVertex
 10
81.216231
 20
175.584459
 30
0.0
  0
VERTEX
  5
11D
100
AcDbEntity
  8
SCHRAFFUR
 62
     7
100
AcDbVertex
100
AcDb2dVertex
 10
81.216231
 20
176.664497
 30
0.0
  0
SEQEND
  5
11E
100
AcDbEntity
  8
SCHRAFFUR
 62
     7
  0
POLYLINE
  5
113
100
AcDbEntity
  8
SCHRAFFUR
 62
     7
100
AcDb2dPolyline
 66
     1
 10
0.0
 20
0.0
 30
0.0
 70
     1
  0
VERTEX
  5
114
100
AcDbEntity
  8
SCHRAFFUR
 62
     7
100
AcDbVertex
100
AcDb2dVertex
 10
96.816313
 20
130.194982
 30
0.0
  0
VERTEX
  5
115
100
AcDbEntity
  8
SCHRAFFUR
 62
     7
100
AcDbVertex
100
AcDb2dVertex
 10
98.736092
 20
130.194982
 30
0.0
  0
VERTEX
  5
116
100
AcDbEntity
  8
SCHRAFFUR
 62
     7
100
AcDbVertex
100
AcDb2dVertex
 10
98.736092
 20
105.984573
 30
0.0
  0
VERTEX
  5
117
100
AcDbEntity
  8
SCHRAFFUR
 62
     7
100
AcDbVertex
100
AcDb2dVertex
 10
96.816313
 20
105.984573
 30
0.0
  0
SEQEND
  5
118
100
AcDbEntity
  8
SCHRAFFUR
 62
     7
  0
POLYLINE
  5
10D
100
AcDbEntity
  8
SCHRAFFUR
 62
     7
100
AcDb2dPolyline
 66
     1
 10
0.0
 20
0.0
 30
0.0
 70
     1
  0
VERTEX
  5
10E
100
AcDbEntity
  8
SCHRAFFUR
 62
     7
100
AcDbVertex
100
AcDb2dVertex
 10
96.816313
 20
197.184519
 30
0.0
  0
VERTEX
  5
10F
100
AcDbEntity
  8
SCHRAFFUR
 62
     7
100
AcDbVertex
100
AcDb2dVertex
 10
98.736092
 20
197.184519
 30
0.0
  0
VERTEX
  5
110
100
AcDbEntity
  8
SCHRAFFUR
 62
     7
100
AcDbVertex
100
AcDb2dVertex
 10
98.736092
 20
173.395273
 30
0.0
  0
VERTEX
  5
111
100
AcDbEntity
  8
SCHRAFFUR
 62
     7
100
AcDbVertex
100
AcDb2dVertex
 10
96.816313
 20
173.395273
 30
0.0
  0
SEQEND
  5
112
100
AcDbEntity
  8
SCHRAFFUR
 62
     7
  0
HATCH
  5
10C
100
AcDbEntity
  8
SCHRAFFUR
 62
     7
100
AcDbHatch
 10
0.0
 20
0.0
 30
0.0
210
0.0
220
0.0
230
1.0
  2
SOLID
 70
     1
 71
     0
 91
        4
 92
        1
 93
        1
 72
     4
 94
        3
 73
     0
 74
     0
 95
       20
 96
       16
 40
0.0
 40
0.0
 40
0.0
 40
0.0
 40
1.0
 40
1.0
 40
1.0
 40
2.0
 40
2.0
 40
2.0
 40
3.0
 40
3.0
 40
3.0
 40
4.0
 40
4.0
 40
4.0
 40
5.0
 40
5.0
 40
5.0
 40
5.0
 10
94.89636094835069
 20
128.06453450520831
 10
94.89636094835069
 20
128.06453450520831
 10
94.89636094835069
 20
127.58428819444443
 10
94.89636094835069
 20
127.58428819444443
 10
94.89636094835069
 20
127.58428819444443
 10
90.09630940755207
 20
127.58428819444443
 10
90.09630940755207
 20
127.58428819444443
 10
90.09630940755207
 20
127.58428819444443
 10
90.09630940755207
 20
132.91109483506943
 10
90.09630940755207
 20
132.91109483506943
 10
90.09630940755207
 20
132.91109483506943
 10
94.89636094835069
 20
132.91109483506943
 10
94.89636094835069
 20
132.91109483506943
 10
94.89636094835069
 20
132.91109483506943
 10
94.89636094835069
 20
128.06453450520831
 10
94.89636094835069
 20
128.06453450520831
 97
        0
 92
        1
 93
        1
 72
     4
 94
        3
 73
     0
 74
     0
 95
       17
 96
       13
 40
0.0
 40
0.0
 40
0.0
 40
0.0
 40
1.0
 40
1.0
 40
1.0
 40
2.0
 40
2.0
 40
2.0
 40
3.0
 40
3.0
 40
3.0
 40
4.0
 40
4.0
 40
4.0
 40
4.0
 10
94.89636094835069
 20
132.91109483506943
 10
94.89636094835069
 20
132.91109483506943
 10
90.09630940755207
 20
132.91109483506943
 10
90.09630940755207
 20
132.91109483506943
 10
90.09630940755207
 20
132.91109483506943
 10
90.09630940755207
 20
151.58437364366318
 10
90.09630940755207
 20
151.58437364366318
 10
90.09630940755207
 20
151.58437364366318
 10
94.89636094835069
 20
151.58437364366318
 10
94.89636094835069
 20
151.58437364366318
 10
94.89636094835069
 20
151.58437364366318
 10
94.89636094835069
 20
132.91109483506943
 10
94.89636094835069
 20
132.91109483506943
 97
        0
 92
        1
 93
        1
 72
     4
 94
        3
 73
     0
 74
     0
 95
       17
 96
       13
 40
0.0
 40
0.0
 40
0.0
 40
0.0
 40
1.0
 40
1.0
 40
1.0
 40
2.0
 40
2.0
 40
2.0
 40
3.0
 40
3.0
 40
3.0
 40
4.0
 40
4.0
 40
4.0
 40
4.0
 10
94.89636094835069
 20
151.58437364366318
 10
94.89636094835069
 20
151.58437364366318
 10
90.09630940755207
 20
151.58437364366318
 10
90.09630940755207
 20
151.58437364366318
 10
90.09630940755207
 20
151.58437364366318
 10
90.09630940755207
 20
170.25799696180553
 10
90.09630940755207
 20
170.25799696180553
 10
90.09630940755207
 20
170.25799696180553
 10
94.89636094835069
 20
170.25799696180553
 10
94.89636094835069
 20
170.25799696180553
 10
94.89636094835069
 20
170.25799696180553
 10
94.89636094835069
 20
151.58437364366318
 10
94.89636094835069
 20
151.58437364366318
 97
        0
 92
        1
 93
        1
 72
     4
 94
        3
 73
     0
 74
     0
 95
       17
 96
       13
 40
0.0
 40
0.0
 40
0.0
 40
0.0
 40
1.0
 40
1.0
 40
1.0
 40
2.0
 40
2.0
 40
2.0
 40
3.0
 40
3.0
 40
3.0
 40
4.0
 40
4.0
 40
4.0
 40
4.0
 10
94.89636094835069
 20
170.25799696180553
 10
94.89636094835069
 20
170.25799696180553
 10
90.09630940755207
 20
170.25799696180553
 10
90.09630940755207
 20
170.25799696180553
 10
90.09630940755207
 20
170.25799696180553
 10
90.09630940755207
 20
175.58445909288193
 10
90.09630940755207
 20
175.58445909288193
 10
90.09630940755207
 20
175.58445909288193
 10
94.89636094835069
 20
175.58445909288193
 10
94.89636094835069
 20
175.58445909288193
 10
94.89636094835069
 20
175.58445909288193
 10
94.89636094835069
 20
170.25799696180553
 10
94.89636094835069
 20
170.25799696180553
 97
        0
 75
     0
 76
     1
 98
        1
 10
0.0
 20
0.0
  0
POLYLINE
  5
106
100
AcDbEntity
  8
SCHRAFFUR
 62
     7
100
AcDb2dPolyline
 66
     1
 10
0.0
 20
0.0
 30
0.0
 70
     1
  0
VERTEX
  5
107
100
AcDbEntity
  8
SCHRAFFUR
 62
     7
100
AcDbVertex
100
AcDb2dVertex
 10
101.13629
 20
175.584459
 30
0.0
  0
VERTEX
  5
108
100
AcDbEntity
  8
SCHRAFFUR
 62
     7
100
AcDbVertex
100
AcDb2dVertex
 10
98.736092
 20
175.584459
 30
0.0
  0
VERTEX
  5
109
100
AcDbEntity
  8
SCHRAFFUR
 62
     7
100
AcDbVertex
100
AcDb2dVertex
 10
98.736092
 20
179.76336
 30
0.0
  0
VERTEX
  5
10A
100
AcDbEntity
  8
SCHRAFFUR
 62
     7
100
AcDbVertex
100
AcDb2dVertex
 10
101.13629
 20
179.76336
 30
0.0
  0
SEQEND
  5
10B
100
AcDbEntity
  8
SCHRAFFUR
 62
     7
  0
POLYLINE
  5
100
100
AcDbEntity
  8
SCHRAFFUR
 62
     7
100
AcDb2dPolyline
 66
     1
 10
0.0
 20
0.0
 30
0.0
 70
     1
  0
VERTEX
  5
101
100
AcDbEntity
  8
SCHRAFFUR
 62
     7
100
AcDbVertex
100
AcDb2dVertex
 10
101.13629
 20
183.942088
 30
0.0
  0
VERTEX
  5
102
100
AcDbEntity
  8
SCHRAFFUR
 62
     7
100
AcDbVertex
100
AcDb2dVertex
 10
98.736092
 20
183.942088
 30
0.0
  0
VERTEX
  5
103
100
AcDbEntity
  8
SCHRAFFUR
 62
     7
100
AcDbVertex
100
AcDb2dVertex
 10
98.736092
 20
188.120989
 30
0.0
  0
VERTEX
  5
104
100
AcDbEntity
  8
SCHRAFFUR
 62
     7
100
AcDbVertex
100
AcDb2dVertex
 10
101.13629
 20
188.120989
 30
0.0
  0
SEQEND
  5
105
100
AcDbEntity
  8
SCHRAFFUR
 62
     7
  0
POLYLINE
  5
FA
100
AcDbEntity
  8
SCHRAFFUR
 62
     7
100
AcDb2dPolyline
 66
     1
 10
0.0
 20
0.0
 30
0.0
 70
     1
  0
VERTEX
  5
FB
100
AcDbEntity
  8
SCHRAFFUR
 62
     7
100
AcDbVertex
100
AcDb2dVertex
 10
101.13629
 20
192.299718
 30
0.0
  0
VERTEX
  5
FC
100
AcDbEntity
  8
SCHRAFFUR
 62
     7
100
AcDbVertex
100
AcDb2dVertex
 10
98.736092
 20
192.299718
 30
0.0
  0
VERTEX
  5
FD
100
AcDbEntity
  8
SCHRAFFUR
 62
     7
100
AcDbVertex
100
AcDb2dVertex
 10
98.736092
 20
196.478619
 30
0.0
  0
VERTEX
  5
FE
100
AcDbEntity
  8
SCHRAFFUR
 62
     7
100
AcDbVertex
100
AcDb2dVertex
 10
101.13629
 20
196.478619
 30
0.0
  0
SEQEND
  5
FF
100
AcDbEntity
  8
SCHRAFFUR
 62
     7
  0
POLYLINE
  5
F4
100
AcDbEntity
  8
SCHRAFFUR
 62
     7
100
AcDb2dPolyline
 66
     1
 10
0.0
 20
0.0
 30
0.0
 70
     1
  0
VERTEX
  5
F5
100
AcDbEntity
  8
SCHRAFFUR
 62
     7
100
AcDbVertex
100
AcDb2dVertex
 10
101.13629
 20
200.657347
 30
0.0
  0
VERTEX
  5
F6
100
AcDbEntity
  8
SCHRAFFUR
 62
     7
100
AcDbVertex
100
AcDb2dVertex
 10
98.736092
 20
200.657347
 30
0.0
  0
VERTEX
  5
F7
100
AcDbEntity
  8
SCHRAFFUR
 62
     7
100
AcDbVertex
100
AcDb2dVertex
 10
98.736092
 20
204.835904
 30
0.0
  0
VERTEX
  5
F8
100
AcDbEntity
  8
SCHRAFFUR
 62
     7
100
AcDbVertex
100
AcDb2dVertex
 10
101.13629
 20
204.835904
 30
0.0
  0
SEQEND
  5
F9
100
AcDbEntity
  8
SCHRAFFUR
 62
     7
  0
POLYLINE
  5
EE
100
AcDbEntity
  8
SCHRAFFUR
 62
     7
100
AcDb2dPolyline
 66
     1
 10
0.0
 20
0.0
 30
0.0
 70
     1
  0
VERTEX
  5
EF
100
AcDbEntity
  8
SCHRAFFUR
 62
     7
100
AcDbVertex
100
AcDb2dVertex
 10
101.13629
 20
204.835904
 30
0.0
  0
VERTEX
  5
F0
100
AcDbEntity
  8
SCHRAFFUR
 62
     7
100
AcDbVertex
100
AcDb2dVertex
 10
98.736092
 20
204.835904
 30
0.0
  0
VERTEX
  5
F1
100
AcDbEntity
  8
SCHRAFFUR
 62
     7
100
AcDbVertex
100
AcDb2dVertex
 10
98.736092
 20
209.014977
 30
0.0
  0
VERTEX
  5
F2
100
AcDbEntity
  8
SCHRAFFUR
 62
     7
100
AcDbVertex
100
AcDb2dVertex
 10
101.13629
 20
209.014977
 30
0.0
  0
SEQEND
  5
F3
100
AcDbEntity
  8
SCHRAFFUR
 62
     7
  0
POLYLINE
  5
E8
100
AcDbEntity
  8
SCHRAFFUR
 62
     7
100
AcDb2dPolyline
 66
     1
 10
0.0
 20
0.0
 30
0.0
 70
     1
  0
VERTEX
  5
E9
100
AcDbEntity
  8
SCHRAFFUR
 62
     7
100
AcDbVertex
100
AcDb2dVertex
 10
101.13629
 20
127.584288
 30
0.0
  0
VERTEX
  5
EA
100
AcDbEntity
  8
SCHRAFFUR
 62
     7
100
AcDbVertex
100
AcDb2dVertex
 10
98.736092
 20
127.584288
 30
0.0
  0
VERTEX
  5
EB
100
AcDbEntity
  8
SCHRAFFUR
 62
     7
100
AcDbVertex
100
AcDb2dVertex
 10
98.736092
 20
123.405732
 30
0.0
  0
VERTEX
  5
EC
100
AcDbEntity
  8
SCHRAFFUR
 62
     7
100
AcDbVertex
100
AcDb2dVertex
 10
101.13629
 20
123.405732
 30
0.0
  0
SEQEND
  5
ED
100
AcDbEntity
  8
SCHRAFFUR
 62
     7
  0
POLYLINE
  5
E2
100
AcDbEntity
  8
SCHRAFFUR
 62
     7
100
AcDb2dPolyline
 66
     1
 10
0.0
 20
0.0
 30
0.0
 70
     1
  0
VERTEX
  5
E3
100
AcDbEntity
  8
SCHRAFFUR
 62
     7
100
AcDbVertex
100
AcDb2dVertex
 10
101.13629
 20
209.014977
 30
0.0
  0
VERTEX
  5
E4
100
AcDbEntity
  8
SCHRAFFUR
 62
     7
100
AcDbVertex
100
AcDb2dVertex
 10
98.736092
 20
209.014977
 30
0.0
  0
VERTEX
  5
E5
100
AcDbEntity
  8
SCHRAFFUR
 62
     7
100
AcDbVertex
100
AcDb2dVertex
 10
98.736092
 20
211.584329
 30
0.0
  0
VERTEX
  5
E6
100
AcDbEntity
  8
SCHRAFFUR
 62
     7
100
AcDbVertex
100
AcDb2dVertex
 10
101.13629
 20
211.584329
 30
0.0
  0
SEQEND
  5
E7
100
AcDbEntity
  8
SCHRAFFUR
 62
     7
  0
POLYLINE
  5
DC
100
AcDbEntity
  8
SCHRAFFUR
 62
     7
100
AcDb2dPolyline
 66
     1
 10
0.0
 20
0.0
 30
0.0
 70
     1
  0
VERTEX
  5
DD
100
AcDbEntity
  8
SCHRAFFUR
 62
     7
100
AcDbVertex
100
AcDb2dVertex
 10
101.13629
 20
119.118655
 30
0.0
  0
VERTEX
  5
DE
100
AcDbEntity
  8
SCHRAFFUR
 62
     7
100
AcDbVertex
100
AcDb2dVertex
 10
98.736092
 20
119.118655
 30
0.0
  0
VERTEX
  5
DF
100
AcDbEntity
  8
SCHRAFFUR
 62
     7
100
AcDbVertex
100
AcDb2dVertex
 10
98.736092
 20
114.940099
 30
0.0
  0
VERTEX
  5
E0
100
AcDbEntity
  8
SCHRAFFUR
 62
     7
100
AcDbVertex
100
AcDb2dVertex
 10
101.13629
 20
114.940099
 30
0.0
  0
SEQEND
  5
E1
100
AcDbEntity
  8
SCHRAFFUR
 62
     7
  0
POLYLINE
  5
D6
100
AcDbEntity
  8
SCHRAFFUR
 62
     7
100
AcDb2dPolyline
 66
     1
 10
0.0
 20
0.0
 30
0.0
 70
     1
  0
VERTEX
  5
D7
100
AcDbEntity
  8
SCHRAFFUR
 62
     7
100
AcDbVertex
100
AcDb2dVertex
 10
101.13629
 20
110.174154
 30
0.0
  0
VERTEX
  5
D8
100
AcDbEntity
  8
SCHRAFFUR
 62
     7
100
AcDbVertex
100
AcDb2dVertex
 10
98.736092
 20
110.174154
 30
0.0
  0
VERTEX
  5
D9
100
AcDbEntity
  8
SCHRAFFUR
 62
     7
100
AcDbVertex
100
AcDb2dVertex
 10
98.736092
 20
105.995597
 30
0.0
  0
VERTEX
  5
DA
100
AcDbEntity
  8
SCHRAFFUR
 62
     7
100
AcDbVertex
100
AcDb2dVertex
 10
101.13629
 20
105.995597
 30
0.0
  0
SEQEND
  5
DB
100
AcDbEntity
  8
SCHRAFFUR
 62
     7
  0
POLYLINE
  5
D0
100
AcDbEntity
  8
SCHRAFFUR
 62
     7
100
AcDb2dPolyline
 66
     1
 10
0.0
 20
0.0
 30
0.0
 70
     1
  0
VERTEX
  5
D1
100
AcDbEntity
  8
SCHRAFFUR
 62
     7
100
AcDbVertex
100
AcDb2dVertex
 10
101.13629
 20
102.141914
 30
0.0
  0
VERTEX
  5
D2
100
AcDbEntity
  8
SCHRAFFUR
 62
     7
100
AcDbVertex
100
AcDb2dVertex
 10
98.736092
 20
102.141914
 30
0.0
  0
VERTEX
  5
D3
100
AcDbEntity
  8
SCHRAFFUR
 62
     7
100
AcDbVertex
100
AcDb2dVertex
 10
98.736092
 20
97.963357
 30
0.0
  0
VERTEX
  5
D4
100
AcDbEntity
  8
SCHRAFFUR
 62
     7
100
AcDbVertex
100
AcDb2dVertex
 10
101.13629
 20
97.963357
 30
0.0
  0
SEQEND
  5
D5
100
AcDbEntity
  8
SCHRAFFUR
 62
     7
  0
POLYLINE
  5
CA
100
AcDbEntity
  8
SCHRAFFUR
 62
     7
100
AcDb2dPolyline
 66
     1
 10
0.0
 20
0.0
 30
0.0
 70
     1
  0
VERTEX
  5
CB
100
AcDbEntity
  8
SCHRAFFUR
 62
     7
100
AcDbVertex
100
AcDb2dVertex
 10
101.13629
 20
94.110362
 30
0.0
  0
VERTEX
  5
CC
100
AcDbEntity
  8
SCHRAFFUR
 62
     7
100
AcDbVertex
100
AcDb2dVertex
 10
98.736092
 20
94.110362
 30
0.0
  0
VERTEX
  5
CD
100
AcDbEntity
  8
SCHRAFFUR
 62
     7
100
AcDbVertex
100
AcDb2dVertex
 10
98.736092
 20
91.584418
 30
0.0
  0
VERTEX
  5
CE
100
AcDbEntity
  8
SCHRAFFUR
 62
     7
100
AcDbVertex
100
AcDb2dVertex
 10
101.13629
 20
91.584418
 30
0.0
  0
SEQEND
  5
CF
100
AcDbEntity
  8
SCHRAFFUR
 62
     7
  0
LINE
  5
C9
100
AcDbEntity
  8
SCHRAFFUR
 62
     7
100
AcDbLine
 10
101.13629
 20
208.224672
 30
0.0
 11
104.495947
 21
211.584329
 31
0.0
  0
LINE
  5
C8
100
AcDbEntity
  8
SCHRAFFUR
 62
     7
100
AcDbLine
 10
101.13629
 20
197.448241
 30
0.0
 11
115.27255
 21
211.584329
 31
0.0
  0
LINE
  5
C7
100
AcDbEntity
  8
SCHRAFFUR
 62
     7
100
AcDbLine
 10
101.13629
 20
186.671982
 30
0.0
 11
126.048809
 21
211.584329
 31
0.0
  0
LINE
  5
C6
100
AcDbEntity
  8
SCHRAFFUR
 62
     7
100
AcDbLine
 10
101.13629
 20
175.895896
 30
0.0
 11
136.825412
 21
211.584329
 31
0.0
  0
LINE
  5
C5
100
AcDbEntity
  8
SCHRAFFUR
 62
     7
100
AcDbLine
 10
111.601457
 20
175.584459
 30
0.0
 11
147.601326
 21
211.584329
 31
0.0
  0
LINE
  5
C4
100
AcDbEntity
  8
SCHRAFFUR
 62
     7
100
AcDbLine
 10
122.377715
 20
175.584459
 30
0.0
 11
158.377585
 21
211.584329
 31
0.0
  0
LINE
  5
C3
100
AcDbEntity
  8
SCHRAFFUR
 62
     7
100
AcDbLine
 10
133.15363
 20
175.584459
 30
0.0
 11
159.936491
 21
202.366804
 31
0.0
  0
LINE
  5
C2
100
AcDbEntity
  8
SCHRAFFUR
 62
     7
100
AcDbLine
 10
143.930233
 20
175.584459
 30
0.0
 11
159.936491
 21
191.590545
 31
0.0
  0
LINE
  5
C1
100
AcDbEntity
  8
SCHRAFFUR
 62
     7
100
AcDbLine
 10
101.13629
 20
122.014258
 30
0.0
 11
106.706665
 21
127.584288
 31
0.0
  0
LINE
  5
C0
100
AcDbEntity
  8
SCHRAFFUR
 62
     7
100
AcDbLine
 10
154.706491
 20
175.584459
 30
0.0
 11
159.936491
 21
180.814114
 31
0.0
  0
LINE
  5
BF
100
AcDbEntity
  8
SCHRAFFUR
 62
     7
100
AcDbLine
 10
101.13629
 20
111.237999
 30
0.0
 11
117.482924
 21
127.584288
 31
0.0
  0
LINE
  5
BE
100
AcDbEntity
  8
SCHRAFFUR
 62
     7
100
AcDbLine
 10
101.13629
 20
100.461396
 30
0.0
 11
128.259527
 21
127.584288
 31
0.0
  0
LINE
  5
BD
100
AcDbEntity
  8
SCHRAFFUR
 62
     7
100
AcDbLine
 10
103.035399
 20
91.584418
 30
0.0
 11
139.035441
 21
127.584288
 31
0.0
  0
LINE
  5
BC
100
AcDbEntity
  8
SCHRAFFUR
 62
     7
100
AcDbLine
 10
113.81183
 20
91.584418
 30
0.0
 11
149.8117
 21
127.584288
 31
0.0
  0
LINE
  5
BB
100
AcDbEntity
  8
SCHRAFFUR
 62
     7
100
AcDbLine
 10
124.588433
 20
91.584418
 30
0.0
 11
159.936491
 21
126.932821
 31
0.0
  0
LINE
  5
BA
100
AcDbEntity
  8
SCHRAFFUR
 62
     7
100
AcDbLine
 10
135.364347
 20
91.584418
 30
0.0
 11
159.936491
 21
116.156562
 31
0.0
  0
LINE
  5
B9
100
AcDbEntity
  8
SCHRAFFUR
 62
     7
100
AcDbLine
 10
146.140606
 20
91.584418
 30
0.0
 11
159.936491
 21
105.379959
 31
0.0
  0
LINE
  5
B8
100
AcDbEntity
  8
SCHRAFFUR
 62
     7
100
AcDbLine
 10
156.917209
 20
91.584418
 30
0.0
 11
159.936491
 21
94.604045
 31
0.0
  0
LINE
  5
B6
100
AcDbEntity
  8
MITTELLINIE
  6
AI9-LType1
 62
     7
100
AcDbLine
 10
179.033
 20
151.584374
 30
0.0
 11
67.267212
 21
151.584374
 31
0.0
  0
LINE
  5
B4
100
AcDbEntity
  8
MITTELLINIE
 62
     7
100
AcDbLine
 10
97.178392
 20
132.911095
 30
0.0
 11
85.576172
 21
132.911095
 31
0.0
  0
LINE
  5
B3
100
AcDbEntity
  8
MITTELLINIE
 62
     7
100
AcDbLine
 10
86.569221
 20
151.584374
 30
0.0
 11
98.151115
 21
151.584374
 31
0.0
  0
LINE
  5
B2
100
AcDbEntity
  8
MITTELLINIE
 62
     7
100
AcDbLine
 10
97.685338
 20
170.257997
 30
0.0
 11
85.576172
 21
170.257997
 31
0.0
  0
LINE
  5
B0
100
AcDbEntity
  8
AM_8
 62
     7
100
AcDbLine
 10
96.816313
 20
197.184519
 30
0.0
 11
77.680013
 21
205.774864
 31
0.0
  0
LINE
  5
AF
100
AcDbEntity
  8
AM_8
 62
     7
100
AcDbLine
 10
97.677759
 20
100.946121
 30
0.0
 11
60.217513
 21
103.116531
 31
0.0
  0
LINE
  5
AE
100
AcDbEntity
  8
AM_8
 62
     7
100
AcDbLine
 10
91.978365
 20
173.25902
 30
0.0
 11
56.627551
 21
179.538567
 31
0.0
  0
LINE
  5
AC
100
AcDbEntity
  8
AM_0
 62
     7
100
AcDbLine
 10
159.936491
 20
211.584329
 30
0.0
 11
159.936491
 21
175.584459
 31
0.0
  0
LINE
  5
AB
100
AcDbEntity
  8
AM_0
 62
     7
100
AcDbLine
 10
159.936491
 20
138.384318
 30
0.0
 11
159.936491
 21
91.584418
 31
0.0
  0
LINE
  5
AA
100
AcDbEntity
  8
AM_0
 62
     7
100
AcDbLine
 10
101.13629
 20
91.584418
 30
0.0
 11
101.13629
 21
138.384318
 31
0.0
  0
LINE
  5
A9
100
AcDbEntity
  8
AM_0
 62
     7
100
AcDbLine
 10
101.13629
 20
164.784429
 30
0.0
 11
101.13629
 21
175.584459
 31
0.0
  0
LINE
  5
A8
100
AcDbEntity
  8
AM_0
 62
     7
100
AcDbLine
 10
101.13629
 20
175.584459
 30
0.0
 11
101.13629
 21
211.584329
 31
0.0
  0
LINE
  5
A7
100
AcDbEntity
  8
AM_0
 62
     7
100
AcDbLine
 10
98.736092
 20
175.584459
 30
0.0
 11
98.736092
 21
211.839955
 31
0.0
  0
LINE
  5
A6
100
AcDbEntity
  8
AM_0
 62
     7
100
AcDbLine
 10
159.936491
 20
175.584459
 30
0.0
 11
98.736092
 21
175.584459
 31
0.0
  0
LINE
  5
A5
100
AcDbEntity
  8
AM_0
 62
     7
100
AcDbLine
 10
159.936491
 20
127.584288
 30
0.0
 11
101.13629
 21
127.584288
 31
0.0
  0
LINE
  5
A4
100
AcDbEntity
  8
AM_0
 62
     7
100
AcDbLine
 10
159.936491
 20
175.584459
 30
0.0
 11
159.936491
 21
164.784429
 31
0.0
  0
LINE
  5
A3
100
AcDbEntity
  8
AM_0
 62
     7
100
AcDbLine
 10
98.736092
 20
175.584459
 30
0.0
 11
98.736092
 21
164.784429
 31
0.0
  0
LINE
  5
A2
100
AcDbEntity
  8
AM_0
 62
     7
100
AcDbLine
 10
98.736092
 20
138.384318
 30
0.0
 11
98.736092
 21
127.584288
 31
0.0
  0
LINE
  5
A1
100
AcDbEntity
  8
AM_0
 62
     7
100
AcDbLine
 10
98.736092
 20
197.184519
 30
0.0
 11
98.736092
 21
164.784429
 31
0.0
  0
LINE
  5
A0
100
AcDbEntity
  8
AM_0
 62
     7
100
AcDbLine
 10
98.736092
 20
105.984573
 30
0.0
 11
96.816313
 21
105.984573
 31
0.0
  0
LINE
  5
9F
100
AcDbEntity
  8
AM_0
 62
     7
100
AcDbLine
 10
96.816313
 20
105.984573
 30
0.0
 11
96.816313
 21
197.184519
 31
0.0
  0
LINE
  5
9E
100
AcDbEntity
  8
AM_0
 62
     7
100
AcDbLine
 10
81.216231
 20
176.664497
 30
0.0
 11
81.216231
 21
164.784429
 31
0.0
  0
LINE
  5
9D
100
AcDbEntity
  8
AM_0
 62
     7
100
AcDbLine
 10
96.816313
 20
126.504251
 30
0.0
 11
96.816313
 21
176.664497
 31
0.0
  0
LINE
  5
9C
100
AcDbEntity
  8
AM_0
 62
     7
100
AcDbLine
 10
96.816313
 20
175.584459
 30
0.0
 11
81.216231
 21
175.584459
 31
0.0
  0
LINE
  5
9B
100
AcDbEntity
  8
AM_0
 62
     7
100
AcDbLine
 10
96.816313
 20
176.664497
 30
0.0
 11
81.216231
 21
176.664497
 31
0.0
  0
LINE
  5
9A
100
AcDbEntity
  8
AM_0
 62
     7
100
AcDbLine
 10
98.736092
 20
130.194982
 30
0.0
 11
98.736092
 21
138.384318
 31
0.0
  0
LINE
  5
99
100
AcDbEntity
  8
AM_0
 62
     7
100
AcDbLine
 10
96.816313
 20
130.194982
 30
0.0
 11
98.736092
 21
130.194982
 31
0.0
  0
LINE
  5
98
100
AcDbEntity
  8
AM_0
 62
     7
100
AcDbLine
 10
81.216231
 20
138.384318
 30
0.0
 11
81.216231
 21
126.504251
 31
0.0
  0
LINE
  5
97
100
AcDbEntity
  8
AM_0
 62
     7
100
AcDbLine
 10
81.216231
 20
127.584288
 30
0.0
 11
96.816313
 21
127.584288
 31
0.0
  0
LINE
  5
96
100
AcDbEntity
  8
AM_0
 62
     7
100
AcDbLine
 10
81.216231
 20
126.504251
 30
0.0
 11
96.816313
 21
126.504251
 31
0.0
  0
LINE
  5
95
100
AcDbEntity
  8
AM_0
 62
     7
100
AcDbLine
 10
98.736092
 20
173.395273
 30
0.0
 11
96.816313
 21
173.395273
 31
0.0
  0
LINE
  5
94
100
AcDbEntity
  8
AM_0
 62
     7
100
AcDbLine
 10
96.816313
 20
173.395273
 30
0.0
 11
96.816313
 21
130.194982
 31
0.0
  0
SPLINE
  5
93
100
AcDbEntity
  8
AM_0
 62
     7
100
AcDbSpline
210
0.0
220
0.0
230
1.0
 70
     8
 71
     3
 72
     8
 73
     4
 74
     0
 42
0.00000001
 43
0.00000001
 40
0.0
 40
0.0
 40
0.0
 40
0.0
 40
1.0
 40
1.0
 40
1.0
 40
1.0
 10
168.42796223958331
 20
155.59136420355901
 30
0.0
 10
168.88478190104166
 20
153.25610622829859
 30
0.0
 10
169.44288736979166
 20
150.94151882595486
 30
0.0
 10
170.09986707899304
 20
148.65431993272568
 30
0.0
  0
LINE
  5
92
100
AcDbEntity
  8
AM_0
 62
     7
100
AcDbLine
 10
170.017185
 20
164.784429
 30
0.0
 11
96.816313
 21
164.784429
 31
0.0
  0
LINE
  5
91
100
AcDbEntity
  8
AM_0
 62
     7
100
AcDbLine
 10
88.176013
 20
164.784429
 30
0.0
 11
69.486198
 21
164.784429
 31
0.0
  0
LINE
  5
90
100
AcDbEntity
  8
AM_0
 62
     7
100
AcDbLine
 10
170.017185
 20
138.384318
 30
0.0
 11
96.816313
 21
138.384318
 31
0.0
  0
LINE
  5
8F
100
AcDbEntity
  8
AM_0
 62
     7
100
AcDbLine
 10
88.176013
 20
138.384318
 30
0.0
 11
69.486198
 21
138.384318
 31
0.0
  0
SPLINE
  5
8E
100
AcDbEntity
  8
AM_0
 62
     7
100
AcDbSpline
210
0.0
220
0.0
230
1.0
 70
     8
 71
     3
 72
     8
 73
     4
 74
     0
 42
0.00000001
 43
0.00000001
 40
0.0
 40
0.0
 40
0.0
 40
0.0
 40
1.0
 40
1.0
 40
1.0
 40
1.0
 10
170.09986707899304
 20
148.65431993272568
 30
0.0
 10
171.68116590711804
 20
153.2132147894965
 30
0.0
 10
172.36363932291664
 20
158.03497043185763
 30
0.0
 10
172.11042480468748
 20
162.85328097873261
 30
0.0
  0
SPLINE
  5
8D
100
AcDbEntity
  8
AM_0
 62
     7
100
AcDbSpline
210
0.0
220
0.0
230
1.0
 70
     8
 71
     3
 72
     8
 73
     4
 74
     0
 42
0.00000001
 43
0.00000001
 40
0.0
 40
0.0
 40
0.0
 40
0.0
 40
1.0
 40
1.0
 40
1.0
 40
1.0
 10
167.92773437499997
 20
162.89358859592014
 30
0.0
 10
167.79303114149303
 20
160.29391954210067
 30
0.0
 10
167.99146864149304
 20
157.68787706163192
 30
0.0
 10
168.51787923177082
 20
155.13850640190969
 30
0.0
  0
SPLINE
  5
8C
100
AcDbEntity
  8
AM_0
 62
     7
100
AcDbSpline
210
0.0
220
0.0
230
1.0
 70
     8
 71
     3
 72
     8
 73
     4
 74
     0
 42
0.00000001
 43
0.00000001
 40
0.0
 40
0.0
 40
0.0
 40
0.0
 40
1.0
 40
1.0
 40
1.0
 40
1.0
 10
170.09986707899304
 20
148.65431993272568
 30
0.0
 10
171.06208224826386
 20
153.26540798611109
 30
0.0
 10
171.33700086805553
 20
157.99311252170136
 30
0.0
 10
170.91738823784721
 20
162.68447129991318
 30
0.0
  0
SPLINE
  5
8B
100
AcDbEntity
  8
AM_0
 62
     7
100
AcDbSpline
210
0.0
220
0.0
230
1.0
 70
     8
 71
     3
 72
     8
 73
     4
 74
     0
 42
0.00000001
 43
0.00000001
 40
0.0
 40
0.0
 40
0.0
 40
0.0
 40
1.0
 40
1.0
 40
1.0
 40
1.0
 10
169.11732584635416
 20
162.68447129991318
 30
0.0
 10
168.78935275607637
 20
157.98484429253472
 30
0.0
 10
169.12042643229165
 20
153.26265190972219
 30
0.0
 10
170.09986707899304
 20
148.65431993272568
 30
0.0
  0
SPLINE
  5
8A
100
AcDbEntity
  8
AM_0
 62
     7
100
AcDbSpline
210
0.0
220
0.0
230
1.0
 70
     8
 71
     3
 72
    11
 73
     7
 74
     0
 42
0.00000001
 43
0.00000001
 40
0.0
 40
0.0
 40
0.0
 40
0.0
 40
1.0
 40
1.0
 40
1.0
 40
2.0
 40
2.0
 40
2.0
 40
2.0
 10
170.91738823784721
 20
162.68447129991318
 30
0.0
 10
170.91738823784721
 20
163.18142632378471
 30
0.0
 10
170.51431206597221
 20
163.58450249565971
 30
0.0
 10
170.01718478732639
 20
163.58450249565971
 30
0.0
 10
169.52040201822916
 20
163.58450249565971
 30
0.0
 10
169.11732584635416
 20
163.18142632378471
 30
0.0
 10
169.11732584635416
 20
162.68447129991318
 30
0.0
  0
SPLINE
  5
89
100
AcDbEntity
  8
AM_0
 62
     7
100
AcDbSpline
210
0.0
220
0.0
230
1.0
 70
     8
 71
     3
 72
     8
 73
     4
 74
     0
 42
0.00000001
 43
0.00000001
 40
0.0
 40
0.0
 40
0.0
 40
0.0
 40
1.0
 40
1.0
 40
1.0
 40
1.0
 10
69.403515624999997
 20
154.51442735460068
 30
0.0
 10
68.441817220052073
 20
149.90333930121525
 30
0.0
 10
68.166726345486111
 20
145.1759792751736
 30
0.0
 10
68.586338975694431
 20
140.48444824218748
 30
0.0
  0
SPLINE
  5
88
100
AcDbEntity
  8
AM_0
 62
     7
100
AcDbSpline
210
0.0
220
0.0
230
1.0
 70
     8
 71
     3
 72
    11
 73
     7
 74
     0
 42
0.00000001
 43
0.00000001
 40
0.0
 40
0.0
 40
0.0
 40
0.0
 40
1.0
 40
1.0
 40
1.0
 40
2.0
 40
2.0
 40
2.0
 40
2.0
 10
172.11662597656249
 20
162.72891303168402
 30
0.0
 10
172.09251030815972
 20
163.8883599175347
 30
0.0
 10
171.13270670572916
 20
164.80837266710068
 30
0.0
 10
169.97308756510415
 20
164.78391248914929
 30
0.0
 10
168.82793782552082
 20
164.75979682074652
 30
0.0
 10
167.91395399305554
 20
163.82290310329859
 30
0.0
 10
167.91739908854166
 20
162.67809787326388
 30
0.0
  0
SPLINE
  5
87
100
AcDbEntity
  8
AM_0
 62
     7
100
AcDbSpline
210
0.0
220
0.0
230
1.0
 70
     8
 71
     3
 72
     8
 73
     4
 74
     0
 42
0.00000001
 43
0.00000001
 40
0.0
 40
0.0
 40
0.0
 40
0.0
 40
1.0
 40
1.0
 40
1.0
 40
1.0
 10
71.07610948350694
 20
147.57755533854166
 30
0.0
 10
70.61877305772569
 20
149.91264105902778
 30
0.0
 10
70.060839843749989
 20
152.22722846137151
 30
0.0
 10
69.403515624999997
 20
154.51442735460068
 30
0.0
  0
SPLINE
  5
86
100
AcDbEntity
  8
AM_0
 62
     7
100
AcDbSpline
210
0.0
220
0.0
230
1.0
 70
     8
 71
     3
 72
     8
 73
     4
 74
     0
 42
0.00000001
 43
0.00000001
 40
0.0
 40
0.0
 40
0.0
 40
0.0
 40
1.0
 40
1.0
 40
1.0
 40
1.0
 10
170.09986707899304
 20
148.65431993272568
 30
0.0
 10
170.66141764322916
 20
146.12958170572915
 30
0.0
 10
171.29979383680555
 20
143.62224121093749
 30
0.0
 10
172.01396213107637
 20
141.13591579861111
 30
0.0
  0
SPLINE
  5
85
100
AcDbEntity
  8
AM_0
 62
     7
100
AcDbSpline
210
0.0
220
0.0
230
1.0
 70
     8
 71
     3
 72
     8
 73
     4
 74
     0
 42
0.00000001
 43
0.00000001
 40
0.0
 40
0.0
 40
0.0
 40
0.0
 40
1.0
 40
1.0
 40
1.0
 40
1.0
 10
69.403515624999997
 20
154.51442735460068
 30
0.0
 10
67.822561306423609
 20
149.95553249782984
 30
0.0
 10
67.139915635850684
 20
145.13360460069444
 30
0.0
 10
67.393130154079856
 20
140.31529405381943
 30
0.0
  0
SPLINE
  5
84
100
AcDbEntity
  8
AM_0
 62
     7
100
AcDbSpline
210
0.0
220
0.0
230
1.0
 70
     8
 71
     3
 72
     8
 73
     4
 74
     0
 42
0.00000001
 43
0.00000001
 40
0.0
 40
0.0
 40
0.0
 40
0.0
 40
1.0
 40
1.0
 40
1.0
 40
1.0
 10
69.403515624999997
 20
154.51442735460068
 30
0.0
 10
68.842309570312494
 20
157.03933783637152
 30
0.0
 10
68.203933376736103
 20
159.5470228407118
 30
0.0
 10
67.489937337239581
 20
162.03317599826389
 30
0.0
  0
SPLINE
  5
83
100
AcDbEntity
  8
AM_0
 62
     7
100
AcDbSpline
210
0.0
220
0.0
230
1.0
 70
     8
 71
     3
 72
     8
 73
     4
 74
     0
 42
0.00000001
 43
0.00000001
 40
0.0
 40
0.0
 40
0.0
 40
0.0
 40
1.0
 40
1.0
 40
1.0
 40
1.0
 10
171.22572428385416
 20
138.7667236328125
 30
0.0
 10
171.86031087239581
 20
139.42094726562499
 30
0.0
 10
172.14315321180553
 20
140.33975423177083
 30
0.0
 10
171.98433430989581
 20
141.23720160590275
 30
0.0
  0
SPLINE
  5
82
100
AcDbEntity
  8
AM_0
 62
     7
100
AcDbSpline
210
0.0
220
0.0
230
1.0
 70
     8
 71
     3
 72
     8
 73
     4
 74
     0
 42
0.00000001
 43
0.00000001
 40
0.0
 40
0.0
 40
0.0
 40
0.0
 40
1.0
 40
1.0
 40
1.0
 40
1.0
 10
170.01718478732639
 20
138.38431803385416
 30
0.0
 10
170.45023328993054
 20
138.38431803385416
 30
0.0
 10
170.87191297743053
 20
138.51798773871528
 30
0.0
 10
171.22572428385416
 20
138.7667236328125
 30
0.0
  0
SPLINE
  5
81
100
AcDbEntity
  8
AM_0
 62
     7
100
AcDbSpline
210
0.0
220
0.0
230
1.0
 70
     8
 71
     3
 72
     8
 73
     4
 74
     0
 42
0.00000001
 43
0.00000001
 40
0.0
 40
0.0
 40
0.0
 40
0.0
 40
1.0
 40
1.0
 40
1.0
 40
1.0
 10
69.486197916666654
 20
164.78442925347221
 30
0.0
 10
69.053666178385413
 20
164.78442925347221
 30
0.0
 10
68.63198649088541
 20
164.65075954861109
 30
0.0
 10
68.2783474392361
 20
164.40202365451387
 30
0.0
  0
SPLINE
  5
80
100
AcDbEntity
  8
AM_0
 62
     7
100
AcDbSpline
210
0.0
220
0.0
230
1.0
 70
     8
 71
     3
 72
     8
 73
     4
 74
     0
 42
0.00000001
 43
0.00000001
 40
0.0
 40
0.0
 40
0.0
 40
0.0
 40
1.0
 40
1.0
 40
1.0
 40
1.0
 10
68.2783474392361
 20
164.40202365451387
 30
0.0
 10
67.643244086371524
 20
163.74797227647568
 30
0.0
 10
67.36074625651041
 20
162.82916531032984
 30
0.0
 10
67.518876139322913
 20
161.93154568142359
 30
0.0
  0
SPLINE
  5
7F
100
AcDbEntity
  8
AM_0
 62
     7
100
AcDbSpline
210
0.0
220
0.0
230
1.0
 70
     8
 71
     3
 72
     8
 73
     4
 74
     0
 42
0.00000001
 43
0.00000001
 40
0.0
 40
0.0
 40
0.0
 40
0.0
 40
1.0
 40
1.0
 40
1.0
 40
1.0
 10
70.38622911241319
 20
140.48444824218748
 30
0.0
 10
70.714029947916657
 20
145.18390299479165
 30
0.0
 10
70.38330078125
 20
149.90626763237844
 30
0.0
 10
69.403515624999997
 20
154.51442735460068
 30
0.0
  0
SPLINE
  5
7E
100
AcDbEntity
  8
AM_0
 62
     7
100
AcDbSpline
210
0.0
220
0.0
230
1.0
 70
     8
 71
     3
 72
     8
 73
     4
 74
     0
 42
0.00000001
 43
0.00000001
 40
0.0
 40
0.0
 40
0.0
 40
0.0
 40
1.0
 40
1.0
 40
1.0
 40
1.0
 10
71.575820583767353
 20
140.27567545572916
 30
0.0
 10
71.710868326822904
 20
142.875
 30
0.0
 10
71.512430826822907
 20
145.48087022569442
 30
0.0
 10
70.986192491319443
 20
148.03041314019097
 30
0.0
  0
SPLINE
  5
7D
100
AcDbEntity
  8
AM_0
 62
     7
100
AcDbSpline
210
0.0
220
0.0
230
1.0
 70
     8
 71
     3
 72
    11
 73
     7
 74
     0
 42
0.00000001
 43
0.00000001
 40
0.0
 40
0.0
 40
0.0
 40
0.0
 40
1.0
 40
1.0
 40
1.0
 40
2.0
 40
2.0
 40
2.0
 40
2.0
 10
67.38692898220485
 20
140.44000651041665
 30
0.0
 10
67.411389160156247
 20
139.28038736979164
 30
0.0
 10
68.3713650173611
 20
138.36054687499998
 30
0.0
 10
69.530984157986111
 20
138.38466254340275
 30
0.0
 10
70.675617133246519
 20
138.40912272135415
 30
0.0
 10
71.589773220486109
 20
139.34584418402775
 30
0.0
 10
71.586328124999994
 20
140.49099392361109
 30
0.0
  0
SPLINE
  5
7C
100
AcDbEntity
  8
AM_0
 62
     7
100
AcDbSpline
210
0.0
220
0.0
230
1.0
 70
     8
 71
     3
 72
    11
 73
     7
 74
     0
 42
0.00000001
 43
0.00000001
 40
0.0
 40
0.0
 40
0.0
 40
0.0
 40
1.0
 40
1.0
 40
1.0
 40
2.0
 40
2.0
 40
2.0
 40
2.0
 10
68.586338975694431
 20
140.48444824218748
 30
0.0
 10
68.586338975694431
 20
139.98732096354166
 30
0.0
 10
68.989415147569431
 20
139.58458930121526
 30
0.0
 10
69.486197916666654
 20
139.58458930121526
 30
0.0
 10
69.983325195312489
 20
139.58458930121526
 30
0.0
 10
70.38622911241319
 20
139.98732096354166
 30
0.0
 10
70.38622911241319
 20
140.48444824218748
 30
0.0
  0
LINE
  5
7B
100
AcDbEntity
  8
AM_0
 62
     7
100
AcDbLine
 10
98.736092
 20
164.784429
 30
0.0
 11
98.736092
 21
173.395273
 31
0.0
  0
LINE
  5
7A
100
AcDbEntity
  8
AM_0
 62
     7
100
AcDbLine
 10
98.736092
 20
138.384318
 30
0.0
 11
98.736092
 21
105.984573
 31
0.0
  0
LINE
  5
79
100
AcDbEntity
  8
AM_0
 62
     7
100
AcDbLine
 10
90.096309
 20
127.584288
 30
0.0
 11
94.896361
 21
127.584288
 31
0.0
  0
LINE
  5
78
100
AcDbEntity
  8
AM_0
 62
     7
100
AcDbLine
 10
90.096309
 20
128.064535
 30
0.0
 11
88.176013
 21
128.064535
 31
0.0
  0
LINE
  5
77
100
AcDbEntity
  8
AM_0
 62
     7
100
AcDbLine
 10
88.176013
 20
128.064535
 30
0.0
 11
88.176013
 21
175.104385
 31
0.0
  0
LINE
  5
76
100
AcDbEntity
  8
AM_0
 62
     7
100
AcDbLine
 10
88.176013
 20
175.104385
 30
0.0
 11
90.096309
 21
175.104385
 31
0.0
  0
LINE
  5
75
100
AcDbEntity
  8
AM_0
 62
     7
100
AcDbLine
 10
90.096309
 20
175.104385
 30
0.0
 11
90.096309
 21
128.064535
 31
0.0
  0
LINE
  5
74
100
AcDbEntity
  8
AM_0
 62
     7
100
AcDbLine
 10
90.096309
 20
175.584459
 30
0.0
 11
90.096309
 21
127.584288
 31
0.0
  0
LINE
  5
73
100
AcDbEntity
  8
AM_0
 62
     7
100
AcDbLine
 10
94.896361
 20
175.584459
 30
0.0
 11
90.096309
 21
175.584459
 31
0.0
  0
LINE
  5
72
100
AcDbEntity
  8
AM_0
 62
     7
100
AcDbLine
 10
94.896361
 20
127.584288
 30
0.0
 11
94.896361
 21
175.584459
 31
0.0
  0
LINE
  5
71
100
AcDbEntity
  8
AM_0
 62
     7
100
AcDbLine
 10
94.896361
 20
175.104385
 30
0.0
 11
96.816313
 21
175.104385
 31
0.0
  0
LINE
  5
70
100
AcDbEntity
  8
AM_0
 62
     7
100
AcDbLine
 10
94.896361
 20
128.064535
 30
0.0
 11
94.896361
 21
175.104385
 31
0.0
  0
LINE
  5
6F
100
AcDbEntity
  8
AM_0
 62
     7
100
AcDbLine
 10
96.816313
 20
175.104385
 30
0.0
 11
96.816313
 21
128.064535
 31
0.0
  0
LINE
  5
6E
100
AcDbEntity
  8
AM_0
 62
     7
100
AcDbLine
 10
96.816313
 20
128.064535
 30
0.0
 11
94.896361
 21
128.064535
 31
0.0
  0
POLYLINE
  5
68
100
AcDbEntity
  8
AM_0
 62
     7
100
AcDb2dPolyline
 66
     1
 10
0.0
 20
0.0
 30
0.0
 70
     1
  0
VERTEX
  5
69
100
AcDbEntity
  8
AM_0
 62
     7
100
AcDbVertex
100
AcDb2dVertex
 10
88.176013
 20
130.607015
 30
0.0
  0
VERTEX
  5
6A
100
AcDbEntity
  8
AM_0
 62
     7
100
AcDbVertex
100
AcDb2dVertex
 10
88.176013
 20
135.21483
 30
0.0
  0
VERTEX
  5
6B
100
AcDbEntity
  8
AM_0
 62
     7
100
AcDbVertex
100
AcDb2dVertex
 10
87.696284
 20
135.21483
 30
0.0
  0
VERTEX
  5
6C
100
AcDbEntity
  8
AM_0
 62
     7
100
AcDbVertex
100
AcDb2dVertex
 10
87.696284
 20
130.607015
 30
0.0
  0
SEQEND
  5
6D
100
AcDbEntity
  8
AM_0
 62
     7
  0
POLYLINE
  5
62
100
AcDbEntity
  8
AM_0
 62
     7
100
AcDb2dPolyline
 66
     1
 10
0.0
 20
0.0
 30
0.0
 70
     1
  0
VERTEX
  5
63
100
AcDbEntity
  8
AM_0
 62
     7
100
AcDbVertex
100
AcDb2dVertex
 10
88.176013
 20
172.561905
 30
0.0
  0
VERTEX
  5
64
100
AcDbEntity
  8
AM_0
 62
     7
100
AcDbVertex
100
AcDb2dVertex
 10
88.176013
 20
167.953917
 30
0.0
  0
VERTEX
  5
65
100
AcDbEntity
  8
AM_0
 62
     7
100
AcDbVertex
100
AcDb2dVertex
 10
87.696284
 20
167.953917
 30
0.0
  0
VERTEX
  5
66
100
AcDbEntity
  8
AM_0
 62
     7
100
AcDbVertex
100
AcDb2dVertex
 10
87.696284
 20
172.561905
 30
0.0
  0
SEQEND
  5
67
100
AcDbEntity
  8
AM_0
 62
     7
  0
LINE
  5
61
100
AcDbEntity
  8
AM_0
 62
     7
100
AcDbLine
 10
98.736092
 20
127.584288
 30
0.0
 11
98.736092
 21
91.328792
 31
0.0
  0
LINE
  5
60
100
AcDbEntity
  8
AM_0
 62
     7
100
AcDbLine
 10
96.816313
 20
197.184519
 30
0.0
 11
98.736092
 21
197.184519
 31
0.0
  0
LINE
  5
5F
100
AcDbEntity
  8
AM_0
 62
     7
100
AcDbLine
 10
87.696284
 20
131.614016
 30
0.0
 11
87.696284
 21
134.20714
 31
0.0
  0
SPLINE
  5
5E
100
AcDbEntity
  8
AM_0
 62
     7
100
AcDbSpline
210
0.0
220
0.0
230
1.0
 70
     8
 71
     3
 72
     8
 73
     4
 74
     0
 42
0.00000001
 43
0.00000001
 40
0.0
 40
0.0
 40
0.0
 40
0.0
 40
1.0
 40
1.0
 40
1.0
 40
1.0
 10
87.54797227647569
 20
133.7751247829861
 30
0.0
 10
87.745893012152763
 20
133.21598578559028
 30
0.0
 10
87.745893012152763
 20
132.60585937499999
 30
0.0
 10
87.54797227647569
 20
132.04672037760415
 30
0.0
  0
SPLINE
  5
5D
100
AcDbEntity
  8
AM_0
 62
     7
100
AcDbSpline
210
0.0
220
0.0
230
1.0
 70
     8
 71
     3
 72
     8
 73
     4
 74
     0
 42
0.00000001
 43
0.00000001
 40
0.0
 40
0.0
 40
0.0
 40
0.0
 40
1.0
 40
1.0
 40
1.0
 40
1.0
 10
86.212653266059021
 20
132.04672037760415
 30
0.0
 10
86.014904785156247
 20
132.60585937499999
 30
0.0
 10
86.014904785156247
 20
133.21598578559028
 30
0.0
 10
86.212653266059021
 20
133.7751247829861
 30
0.0
  0
LINE
  5
5C
100
AcDbEntity
  8
AM_0
 62
     7
100
AcDbLine
 10
86.064342
 20
131.614016
 30
0.0
 11
86.064342
 21
134.20714
 31
0.0
  0
LINE
  5
5B
100
AcDbEntity
  8
AM_0
 62
     7
100
AcDbLine
 10
87.547972
 20
131.182001
 30
0.0
 11
86.212653
 21
131.182001
 31
0.0
  0
LINE
  5
5A
100
AcDbEntity
  8
AM_0
 62
     7
100
AcDbLine
 10
87.547972
 20
132.04672
 30
0.0
 11
86.212653
 21
132.04672
 31
0.0
  0
SPLINE
  5
59
100
AcDbEntity
  8
AM_0
 62
     7
100
AcDbSpline
210
0.0
220
0.0
230
1.0
 70
     8
 71
     3
 72
     8
 73
     4
 74
     0
 42
0.00000001
 43
0.00000001
 40
0.0
 40
0.0
 40
0.0
 40
0.0
 40
1.0
 40
1.0
 40
1.0
 40
1.0
 10
86.212653266059021
 20
131.18200141059026
 30
0.0
 10
86.014904785156247
 20
131.43624945746527
 30
0.0
 10
86.014904785156247
 20
131.79247233072917
 30
0.0
 10
86.212653266059021
 20
132.04672037760415
 30
0.0
  0
SPLINE
  5
58
100
AcDbEntity
  8
AM_0
 62
     7
100
AcDbSpline
210
0.0
220
0.0
230
1.0
 70
     8
 71
     3
 72
     8
 73
     4
 74
     0
 42
0.00000001
 43
0.00000001
 40
0.0
 40
0.0
 40
0.0
 40
0.0
 40
1.0
 40
1.0
 40
1.0
 40
1.0
 10
87.54797227647569
 20
132.04672037760415
 30
0.0
 10
87.745893012152763
 20
131.79247233072917
 30
0.0
 10
87.745893012152763
 20
131.43624945746527
 30
0.0
 10
87.54797227647569
 20
131.18200141059026
 30
0.0
  0
LINE
  5
57
100
AcDbEntity
  8
AM_0
 62
     7
100
AcDbLine
 10
88.328286
 20
132.911095
 30
0.0
 11
85.576172
 21
132.911095
 31
0.0
  0
SPLINE
  5
56
100
AcDbEntity
  8
AM_0
 62
     7
100
AcDbSpline
210
0.0
220
0.0
230
1.0
 70
     8
 71
     3
 72
     8
 73
     4
 74
     0
 42
0.00000001
 43
0.00000001
 40
0.0
 40
0.0
 40
0.0
 40
0.0
 40
1.0
 40
1.0
 40
1.0
 40
1.0
 10
87.54797227647569
 20
134.63984374999998
 30
0.0
 10
87.745893012152763
 20
134.38559570312498
 30
0.0
 10
87.745893012152763
 20
134.0293728298611
 30
0.0
 10
87.54797227647569
 20
133.7751247829861
 30
0.0
  0
SPLINE
  5
55
100
AcDbEntity
  8
AM_0
 62
     7
100
AcDbSpline
210
0.0
220
0.0
230
1.0
 70
     8
 71
     3
 72
     8
 73
     4
 74
     0
 42
0.00000001
 43
0.00000001
 40
0.0
 40
0.0
 40
0.0
 40
0.0
 40
1.0
 40
1.0
 40
1.0
 40
1.0
 10
86.212653266059021
 20
133.7751247829861
 30
0.0
 10
86.014904785156247
 20
134.0293728298611
 30
0.0
 10
86.014904785156247
 20
134.38559570312498
 30
0.0
 10
86.212653266059021
 20
134.63984374999998
 30
0.0
  0
LINE
  5
54
100
AcDbEntity
  8
AM_0
 62
     7
100
AcDbLine
 10
87.547972
 20
133.775125
 30
0.0
 11
86.212653
 21
133.775125
 31
0.0
  0
LINE
  5
53
100
AcDbEntity
  8
AM_0
 62
     7
100
AcDbLine
 10
87.547972
 20
134.639844
 30
0.0
 11
86.212653
 21
134.639844
 31
0.0
  0
LINE
  5
52
100
AcDbEntity
  8
AM_0
 62
     7
100
AcDbLine
 10
87.696284
 20
168.961435
 30
0.0
 11
87.696284
 21
171.554559
 31
0.0
  0
SPLINE
  5
51
100
AcDbEntity
  8
AM_0
 62
     7
100
AcDbSpline
210
0.0
220
0.0
230
1.0
 70
     8
 71
     3
 72
     8
 73
     4
 74
     0
 42
0.00000001
 43
0.00000001
 40
0.0
 40
0.0
 40
0.0
 40
0.0
 40
1.0
 40
1.0
 40
1.0
 40
1.0
 10
87.54797227647569
 20
171.12219916449652
 30
0.0
 10
87.745893012152763
 20
170.56306016710067
 30
0.0
 10
87.745893012152763
 20
169.95276150173609
 30
0.0
 10
87.54797227647569
 20
169.39362250434027
 30
0.0
  0
SPLINE
  5
50
100
AcDbEntity
  8
AM_0
 62
     7
100
AcDbSpline
210
0.0
220
0.0
230
1.0
 70
     8
 71
     3
 72
     8
 73
     4
 74
     0
 42
0.00000001
 43
0.00000001
 40
0.0
 40
0.0
 40
0.0
 40
0.0
 40
1.0
 40
1.0
 40
1.0
 40
1.0
 10
86.212653266059021
 20
169.39362250434027
 30
0.0
 10
86.014904785156247
 20
169.95276150173609
 30
0.0
 10
86.014904785156247
 20
170.56306016710067
 30
0.0
 10
86.212653266059021
 20
171.12219916449652
 30
0.0
  0
LINE
  5
4F
100
AcDbEntity
  8
AM_0
 62
     7
100
AcDbLine
 10
86.064342
 20
168.961435
 30
0.0
 11
86.064342
 21
171.554559
 31
0.0
  0
LINE
  5
4E
100
AcDbEntity
  8
AM_0
 62
     7
100
AcDbLine
 10
87.547972
 20
168.529076
 30
0.0
 11
86.212653
 21
168.529076
 31
0.0
  0
LINE
  5
4D
100
AcDbEntity
  8
AM_0
 62
     7
100
AcDbLine
 10
87.547972
 20
169.393623
 30
0.0
 11
86.212653
 21
169.393623
 31
0.0
  0
SPLINE
  5
4C
100
AcDbEntity
  8
AM_0
 62
     7
100
AcDbSpline
210
0.0
220
0.0
230
1.0
 70
     8
 71
     3
 72
     8
 73
     4
 74
     0
 42
0.00000001
 43
0.00000001
 40
0.0
 40
0.0
 40
0.0
 40
0.0
 40
1.0
 40
1.0
 40
1.0
 40
1.0
 10
86.212653266059021
 20
168.52907579210068
 30
0.0
 10
86.014904785156247
 20
168.78332383897569
 30
0.0
 10
86.014904785156247
 20
169.13937445746527
 30
0.0
 10
86.212653266059021
 20
169.39362250434027
 30
0.0
  0
SPLINE
  5
4B
100
AcDbEntity
  8
AM_0
 62
     7
100
AcDbSpline
210
0.0
220
0.0
230
1.0
 70
     8
 71
     3
 72
     8
 73
     4
 74
     0
 42
0.00000001
 43
0.00000001
 40
0.0
 40
0.0
 40
0.0
 40
0.0
 40
1.0
 40
1.0
 40
1.0
 40
1.0
 10
87.54797227647569
 20
169.39362250434027
 30
0.0
 10
87.745893012152763
 20
169.13937445746527
 30
0.0
 10
87.745893012152763
 20
168.78332383897569
 30
0.0
 10
87.54797227647569
 20
168.52907579210068
 30
0.0
  0
LINE
  5
4A
100
AcDbEntity
  8
AM_0
 62
     7
100
AcDbLine
 10
88.328286
 20
170.257997
 30
0.0
 11
85.576172
 21
170.257997
 31
0.0
  0
SPLINE
  5
49
100
AcDbEntity
  8
AM_0
 62
     7
100
AcDbSpline
210
0.0
220
0.0
230
1.0
 70
     8
 71
     3
 72
     8
 73
     4
 74
     0
 42
0.00000001
 43
0.00000001
 40
0.0
 40
0.0
 40
0.0
 40
0.0
 40
1.0
 40
1.0
 40
1.0
 40
1.0
 10
87.54797227647569
 20
171.98674587673611
 30
0.0
 10
87.745893012152763
 20
171.7324978298611
 30
0.0
 10
87.745893012152763
 20
171.3764472113715
 30
0.0
 10
87.54797227647569
 20
171.12219916449652
 30
0.0
  0
SPLINE
  5
48
100
AcDbEntity
  8
AM_0
 62
     7
100
AcDbSpline
210
0.0
220
0.0
230
1.0
 70
     8
 71
     3
 72
     8
 73
     4
 74
     0
 42
0.00000001
 43
0.00000001
 40
0.0
 40
0.0
 40
0.0
 40
0.0
 40
1.0
 40
1.0
 40
1.0
 40
1.0
 10
86.212653266059021
 20
171.12219916449652
 30
0.0
 10
86.014904785156247
 20
171.3764472113715
 30
0.0
 10
86.014904785156247
 20
171.7324978298611
 30
0.0
 10
86.212653266059021
 20
171.98674587673611
 30
0.0
  0
LINE
  5
47
100
AcDbEntity
  8
AM_0
 62
     7
100
AcDbLine
 10
87.547972
 20
171.122199
 30
0.0
 11
86.212653
 21
171.122199
 31
0.0
  0
LINE
  5
46
100
AcDbEntity
  8
AM_0
 62
     7
100
AcDbLine
 10
87.547972
 20
171.986746
 30
0.0
 11
86.212653
 21
171.986746
 31
0.0
  0
INSERT
  5
40
100
AcDbEntity
  8
TEXT
 62
     7
100
AcDbBlockReference
  2
AI9-BLK2
 10
57.223983
 20
200.820989
 30
0.0
  0
MTEXT
  5
3E
100
AcDbEntity
  8
TEXT
 62
     7
100
AcDbMText
 10
28.830454
 20
101.210359
 30
0.0
 40
5.512152
 41
0.0
 71
     1
 72
     2
  1
\fArial|b0|i0;\H5.5122;\C7;\U+0061\U+0062\U+0064\U+0069\U+0063\U+0068\U+0074\U+0075\U+006E\U+0067
  7
STD
210
0.0
220
0.0
230
1.0
 73
     1
 44
1.0
  0
MTEXT
  5
3D
100
AcDbEntity
  8
TEXT
 62
     7
100
AcDbMText
 10
28.830454
 20
108.618693
 30
0.0
 40
5.512152
 41
0.0
 71
     1
 72
     2
  1
\fArial|b0|i0;\H5.5122;\C7;\U+0041\U+0075\U+00DF\U+0065\U+006E\U+002D
  7
STD
210
0.0
220
0.0
230
1.0
 73
     1
 44
1.0
  0
INSERT
  5
38
100
AcDbEntity
  8
TEXT
 62
     7
100
AcDbBlockReference
  2
AI9-BLK1
 10
52.955596
 20
169.864395
 30
0.0
  0
POLYLINE
  5
31
100
AcDbEntity
  8
TEXT
 62
     7
100
AcDb2dPolyline
 66
     1
 10
0.0
 20
0.0
 30
0.0
 70
     1
  0
VERTEX
  5
32
100
AcDbEntity
  8
TEXT
 62
     7
100
AcDbVertex
100
AcDb2dVertex
 10
24.520639
 20
221.677253
 30
0.0
  0
VERTEX
  5
33
100
AcDbEntity
  8
TEXT
 62
     7
100
AcDbVertex
100
AcDb2dVertex
 10
24.520639
 20
77.417497
 30
0.0
  0
VERTEX
  5
34
100
AcDbEntity
  8
TEXT
 62
     7
100
AcDbVertex
100
AcDb2dVertex
 10
186.188463
 20
77.417497
 30
0.0
  0
VERTEX
  5
35
100
AcDbEntity
  8
TEXT
 62
     7
100
AcDbVertex
100
AcDb2dVertex
 10
186.188463
 20
221.677253
 30
0.0
  0
SEQEND
  5
36
100
AcDbEntity
  8
TEXT
 62
     7
  0
POLYLINE
  5
2B
100
AcDbEntity
  8
TEXT
 62
     7
100
AcDb2dPolyline
 66
     1
 10
0.0
 20
0.0
 30
0.0
 70
     1
  0
VERTEX
  5
2C
100
AcDbEntity
  8
TEXT
 62
     7
100
AcDbVertex
100
AcDb2dVertex
 10
167.027875
 20
94.023201
 30
0.0
  0
VERTEX
  5
2D
100
AcDbEntity
  8
TEXT
 62
     7
100
AcDbVertex
100
AcDb2dVertex
 10
186.077875
 20
94.023201
 30
0.0
  0
VERTEX
  5
2E
100
AcDbEntity
  8
TEXT
 62
     7
100
AcDbVertex
100
AcDb2dVertex
 10
186.077875
 20
77.265568
 30
0.0
  0
VERTEX
  5
2F
100
AcDbEntity
  8
TEXT
 62
     7
100
AcDbVertex
100
AcDb2dVertex
 10
167.027875
 20
77.265568
 30
0.0
  0
SEQEND
  5
30
100
AcDbEntity
  8
TEXT
 62
     7
  0
MTEXT
  5
2A
100
AcDbEntity
  8
TEXT
 62
     7
100
AcDbMText
 10
168.174059
 20
91.5667
 30
0.0
 40
9.449404
 41
0.0
 71
     1
 72
     2
  1
\fMyriad Roman|b0|i0;\H9.4494;\C7;\U+0031\U+002E\U+0033
  7
STD
210
0.0
220
0.0
230
1.0
 73
     1
 44
1.0
  0
ENDSEC
  0
SECTION
  2
OBJECTS
  0
DICTIONARY
  5
19
100
AcDbDictionary
280
     0
281
     1
  3
ACAD_GROUP
350
1A
  3
ACAD_MLINESTYLE
350
1B
  3
ACAD_LAYOUT
350
1E
  3
ACAD_PLOTSETTINGS
350
22
  3
ACAD_PLOTSTYLENAME
350
1F
  3
ACAD_WIPEOUT_VARS
350
23
  0
DICTIONARY
  5
1A
102
{ACAD_REACTORS
330
19
102
}
100
AcDbDictionary
280
     0
281
     1
  0
DICTIONARY
  5
1B
102
{ACAD_REACTORS
330
19
102
}
100
AcDbDictionary
280
     0
281
     1
  3
Standard
350
1C
  0
MLINESTYLE
  5
1C
102
{ACAD_REACTORS
330
1B
102
}
100
AcDbMlineStyle
  2
Standard
 70
     0
  3

 62
     0
 51
90.0
 52
90.0
 71
     2
 49
0.5
 62
   256
  6
ByLayer
 49
-0.5
 62
   256
  6
ByLayer
  0
ACDBDICTIONARYWDFLT
  5
1F
102
{ACAD_REACTORS
330
19
102
}
100
AcDbDictionary
281
     1
  3
Normal
350
1D
100
AcDbDictionaryWithDefault
340
1D
  0
ACDBPLACEHOLDER
  5
1D
102
{ACAD_REACTORS
330
1F
102
}
  0
LAYOUT
  5
20
102
{ACAD_REACTORS
330
1E
102
}
100
AcDbPlotSettings
  1

  2

  4

  6

 40
0.0
 41
0.0
 42
0.0
 43
0.0
 44
0.0
 45
0.0
 46
0.0
 47
0.0
 48
0.0
 49
0.0
140
0.0
141
0.0
142
1.0
143
1.0
 70
  1024
 72
     0
 73
     0
 74
     0
  7

 75
     0
147
1.0
148
0.0
149
0.0
100
AcDbLayout
  1
Model
 70
     0
 71
     0
 10
0.0
 20
0.0
 11
0.0
 21
0.0
 12
0.0
 22
0.0
 32
0.0
 14
0.0
 24
0.0
 34
0.0
 15
0.0
 25
0.0
 35
0.0
146
0.0
 13
0.0
 23
0.0
 33
0.0
 16
0.0
 26
0.0
 36
0.0
 17
0.0
 27
0.0
 37
0.0
 76
     0
330
A
331
0
345
0
346
0
  0
LAYOUT
  5
21
102
{ACAD_REACTORS
330
1E
102
}
100
AcDbPlotSettings
  1

  2

  4

  6

 40
0.0
 41
0.0
 42
0.0
 43
0.0
 44
0.0
 45
0.0
 46
0.0
 47
0.0
 48
0.0
 49
0.0
140
0.0
141
0.0
142
1.0
143
1.0
 70
     0
 72
     0
 73
     0
 74
     0
  7

 75
     0
147
1.0
148
0.0
149
0.0
100
AcDbLayout
  1
Layout1
 70
     0
 71
     0
 10
0.0
 20
0.0
 11
0.0
 21
0.0
 12
0.0
 22
0.0
 32
0.0
 14
0.0
 24
0.0
 34
0.0
 15
0.0
 25
0.0
 35
0.0
146
0.0
 13
0.0
 23
0.0
 33
0.0
 16
0.0
 26
0.0
 36
0.0
 17
0.0
 27
0.0
 37
0.0
 76
     0
330
B
331
0
345
0
346
0
  0
DICTIONARY
  5
1E
102
{ACAD_REACTORS
330
19
102
}
100
AcDbDictionary
280
     0
281
     1
  3
Layout1
350
21
  3
Model
350
20
  0
DICTIONARY
  5
22
102
{ACAD_REACTORS
330
19
102
}
100
AcDbDictionary
280
     0
281
     1
  0
WIPEOUTVARIABLES
  5
23
100
AcDbWipeoutVariables
 70
     1
  0
ENDSEC
  0
EOF
