  0
SECTION
  2
HEADER
  9
$ACADVER
  1
AC1015
  9
$ACADMAINTVER
 70
     6
  9
$DWGCODEPAGE
  3
ANSI_932
  9
$INSBASE
 10
0.0
 20
0.0
 30
0.0
  9
$EXTMIN
 10
72.851195
 20
35.990568
 30
1.000000E+20
  9
$EXTMAX
 10
235.224574
 20
181.107808
 30
-1.000000E+20
  9
$LIMMIN
 10
72.851195
 20
35.990568
  9
$LIMMAX
 10
235.224574
 20
181.107808
  9
$ORTHOMODE
 70
     0
  9
$REGENMODE
 70
     1
  9
$FILLMODE
 70
     1
  9
$QTEXTMODE
 70
     0
  9
$MIRRTEXT
 70
     1
  9
$LTSCALE
 40
1.0
  9
$ATTMODE
 70
     1
  9
$TEXTSIZE
 40
0.2
  9
$TRACEWID
 40
0.05
  9
$TEXTSTYLE
  7
Standard
  9
$CLAYER
  8
0
  9
$CELTYPE
  6
Continuous
  9
$CECOLOR
 62
   256
  9
$CELTSCALE
 40
1.0
  9
$DISPSILH
 70
     0
  9
$DIMSCALE
 40
1.0
  9
$DIMASZ
 40
0.18
  9
$DIMEXO
 40
0.0625
  9
$DIMDLI
 40
0.38
  9
$DIMRND
 40
0.0
  9
$DIMDLE
 40
0.0
  9
$DIMEXE
 40
0.18
  9
$DIMTP
 40
0.0
  9
$DIMTM
 40
0.0
  9
$DIMTXT
 40
0.18
  9
$DIMCEN
 40
0.09
  9
$DIMTSZ
 40
0.0
  9
$DIMTOL
 70
     0
  9
$DIMLIM
 70
     0
  9
$DIMTIH
 70
     1
  9
$DIMTOH
 70
     1
  9
$DIMSE1
 70
     0
  9
$DIMSE2
 70
     0
  9
$DIMTAD
 70
     0
  9
$DIMZIN
 70
     0
  9
$DIMBLK
  1

  9
$DIMASO
 70
     1
  9
$DIMSHO
 70
     1
  9
$DIMPOST
  1

  9
$DIMAPOST
  1

  9
$DIMALT
 70
     0
  9
$DIMALTD
 70
     2
  9
$DIMALTF
 40
25.4
  9
$DIMLFAC
 40
1.0
  9
$DIMTOFL
 70
     0
  9
$DIMTVP
 40
0.0
  9
$DIMTIX
 70
     0
  9
$DIMSOXD
 70
     0
  9
$DIMSAH
 70
     0
  9
$DIMBLK1
  1

  9
$DIMBLK2
  1

  9
$DIMSTYLE
  2
Standard
  9
$DIMCLRD
 70
     0
  9
$DIMCLRE
 70
     0
  9
$DIMCLRT
 70
     0
  9
$DIMTFAC
 40
1.0
  9
$DIMGAP
 40
0.09
  9
$DIMJUST
 70
     0
  9
$DIMSD1
 70
     0
  9
$DIMSD2
 70
     0
  9
$DIMTOLJ
 70
     1
  9
$DIMTZIN
 70
     0
  9
$DIMALTZ
 70
     0
  9
$DIMALTTZ
 70
     0
  9
$DIMUPT
 70
     0
  9
$DIMDEC
 70
     4
  9
$DIMTDEC
 70
     4
  9
$DIMALTU
 70
     2
  9
$DIMALTTD
 70
     2
  9
$DIMTXSTY
  7
Standard
  9
$DIMAUNIT
 70
     0
  9
$DIMADEC
 70
     0
  9
$DIMALTRND
 40
0.0
  9
$DIMAZIN
 70
     0
  9
$DIMDSEP
 70
     0
  9
$DIMATFIT
 70
     3
  9
$DIMFRAC
 70
     0
  9
$DIMLDRBLK
  1

  9
$DIMLUNIT
 70
     2
  9
$DIMLWD
 70
     0
  9
$DIMLWE
 70
     0
  9
$DIMTMOVE
 70
     0
  9
$LUNITS
 70
     2
  9
$LUPREC
 70
     4
  9
$SKETCHINC
 40
0.1
  9
$FILLETRAD
 40
0.0
  9
$AUNITS
 70
     0
  9
$AUPREC
 70
     0
  9
$MENU
  1
acad
  9
$ELEVATION
 40
0.0
  9
$PELEVATION
 40
0.0
  9
$THICKNESS
 40
0.0
  9
$LIMCHECK
 70
     0
  9
$CHAMFERA
 40
0.0
  9
$CHAMFERB
 40
0.0
  9
$CHAMFERC
 40
0.0
  9
$CHAMFERD
 40
0.0
  9
$SKPOLY
 70
     0
  9
$TDCREATE
 40
0.000000000
  9
$TDUCREATE
 40
0.000000000
  9
$TDUPDATE
 40
0.000000000
  9
$TDUUPDATE
 40
0.000000000
  9
$TDINDWG
 40
0.0000000000
  9
$TDUSRTIMER
 40
0.0000000000
  9
$USRTIMER
 70
     1
  9
$ANGBASE
 50
0.0
  9
$ANGDIR
 70
     0
  9
$PDMODE
 70
     0
  9
$PDSIZE
 40
0.0
  9
$PLINEWID
 40
0.0
  9
$SPLFRAME
 70
     0
  9
$SPLINETYPE
 70
     6
  9
$SPLINESEGS
 70
     8
  9
$HANDSEED
  5
199
  9
$SURFTAB1
 70
     6
  9
$SURFTAB2
 70
     6
  9
$SURFTYPE
 70
     6
  9
$SURFU
 70
     6
  9
$SURFV
 70
     6
  9
$UCSBASE
  2

  9
$UCSNAME
  2

  9
$UCSORG
 10
0.0
 20
0.0
 30
0.0
  9
$UCSXDIR
 10
1.0
 20
0.0
 30
0.0
  9
$UCSYDIR
 10
0.0
 20
1.0
 30
0.0
  9
$UCSORTHOREF
  2

  9
$UCSORTHOVIEW
 70
     0
  9
$UCSORGTOP
 10
0.0
 20
0.0
 30
0.0
  9
$UCSORGBOTTOM
 10
0.0
 20
0.0
 30
0.0
  9
$UCSORGLEFT
 10
0.0
 20
0.0
 30
0.0
  9
$UCSORGRIGHT
 10
0.0
 20
0.0
 30
0.0
  9
$UCSORGFRONT
 10
0.0
 20
0.0
 30
0.0
  9
$UCSORGBACK
 10
0.0
 20
0.0
 30
0.0
  9
$PUCSBASE
  2

  9
$PUCSNAME
  2

  9
$PUCSORG
 10
0.0
 20
0.0
 30
0.0
  9
$PUCSXDIR
 10
1.0
 20
0.0
 30
0.0
  9
$PUCSYDIR
 10
0.0
 20
1.0
 30
0.0
  9
$PUCSORTHOREF
  2

  9
$PUCSORTHOVIEW
 70
     0
  9
$PUCSORGTOP
 10
0.0
 20
0.0
 30
0.0
  9
$PUCSORGBOTTOM
 10
0.0
 20
0.0
 30
0.0
  9
$PUCSORGLEFT
 10
0.0
 20
0.0
 30
0.0
  9
$PUCSORGRIGHT
 10
0.0
 20
0.0
 30
0.0
  9
$PUCSORGFRONT
 10
0.0
 20
0.0
 30
0.0
  9
$PUCSORGBACK
 10
0.0
 20
0.0
 30
0.0
  9
$USERI1
 70
     0
  9
$USERI2
 70
     0
  9
$USERI3
 70
     0
  9
$USERI4
 70
     0
  9
$USERI5
 70
     0
  9
$USERR1
 40
0.0
  9
$USERR2
 40
0.0
  9
$USERR3
 40
0.0
  9
$USERR4
 40
0.0
  9
$USERR5
 40
0.0
  9
$WORLDVIEW
 70
     1
  9
$SHADEDGE
 70
     3
  9
$SHADEDIF
 70
    70
  9
$TILEMODE
 70
     1
  9
$MAXACTVP
 70
    16
  9
$PINSBASE
 10
0.0
 20
0.0
 30
0.0
  9
$PLIMCHECK
 70
     0
  9
$PEXTMIN
 10
1.000000E+20
 20
1.000000E+20
 30
1.000000E+20
  9
$PEXTMAX
 10
-1.000000E+20
 20
-1.000000E+20
 30
-1.000000E+20
  9
$PLIMMIN
 10
0.0
 20
0.0
  9
$PLIMMAX
 10
12.0
 20
9.0
  9
$UNITMODE
 70
     0
  9
$VISRETAIN
 70
     0
  9
$PLINEGEN
 70
     1
  9
$PSLTSCALE
 70
     0
  9
$TREEDEPTH
 70
  3020
  9
$CMLSTYLE
  2
Standard
  9
$CMLJUST
 70
     0
  9
$CMLSCALE
 40
1.0
  9
$PROXYGRAPHICS
 70
     0
  9
$MEASUREMENT
 70
     1
  9
$CELWEIGHT
370
     0
  9
$ENDCAPS
280
     0
  9
$JOINSTYLE
280
     0
  9
$LWDISPLAY
290
     0
  9
$INSUNITS
 70
     0
  9
$HYPERLINKBASE
  1

  9
$STYLESHEET
  1

  9
$XEDIT
290
     1
  9
$CEPSNTYPE
380
     0
  9
$PSTYLEMODE
290
     1
  9
$FINGERPRINTGUID
  2

  9
$VERSIONGUID
  2

  9
$EXTNAMES
290
     1
  9
$PSVPSCALE
 40
0.0
  0
ENDSEC
  0
SECTION
  2
CLASSES
  0
CLASS
  1
LWPOLYLINE
  2
AcDbPolyline
  3
AutoCAD 2000
 90
    32768
280
     0
281
     1
  0
CLASS
  1
IMAGE
  2
AcDbRasterImage
  3
ISM
 90
    32895
280
     0
281
     1
  0
CLASS
  1
OLE2FRAME
  2
AcDbOle2Frame
  3
AutoCAD 2000
 90
    32768
280
     0
281
     1
  0
CLASS
  1
HATCH
  2
AcDbHatch
  3
AutoCAD 2000
 90
        0
280
     0
281
     1
  0
CLASS
  1
DICTIONARYVAR
  2
AcDbDictionaryVar
  3
AutoCAD 2000
 90
    32768
280
     0
281
     0
  0
CLASS
  1
RASTERVARIABLES
  2
AcDbRasterVariables
  3
ISM
 90
    32768
280
     0
281
     0
  0
CLASS
  1
IMAGEDEF
  2
AcDbRasterImageDef
  3
ISM
 90
    32768
280
     0
281
     0
  0
CLASS
  1
IMAGEDEF_REACTOR
  2
AcDbRasterImageDefReactor
  3
ISM
 90
    32769
280
     0
281
     0
  0
CLASS
  1
IDBUFFER
  2
AcDbIdBuffer
  3
AutoCAD 2000
 90
    32768
280
     0
281
     0
  0
CLASS
  1
SPATIAL_FILTER
  2
AcDbSpatialFilter
  3
AutoCAD 2000
 90
    32768
280
     0
281
     0
  0
CLASS
  1
XRECORD
  2
AcDbXrecord
  3
AutoCAD 2000
 90
    32768
280
     0
281
     0
  0
CLASS
  1
SORTENTSTABLE
  2
AcDbSortentsTable
  3
AutoCAD 2000
 90
    32768
280
     0
281
     0
  0
CLASS
  1
LAYER_INDEX
  2
AcDbLayerIndex
  3
AutoCAD 2000
 90
    32768
280
     0
281
     0
  0
CLASS
  1
SPATIAL_INDEX
  2
AcDbSpatialIndex
  3
AutoCAD 2000
 90
    32768
280
     0
281
     0
  0
CLASS
  1
OBJECT_PTR
  2
CAseDLPNTableRecord
  3
"ASE-LPNTableRecord"
 90
    32769
280
     0
281
     0
  0
CLASS
  1
LAYOUT
  2
AcDbLayout
  3
AutoCAD 2000
 90
        0
280
     0
281
     0
  0
CLASS
  1
PLOTSETTINGS
  2
AcDbPlotSettings
  3
AutoCAD 2000
 90
    32768
280
     0
281
     0
  0
CLASS
  1
ACDBDICTIONARYWDFLT
  2
AcDbDictionaryWithDefault
  3
AutoCAD 2000
 90
        0
280
     0
281
     0
  0
CLASS
  1
ACDBPLACEHOLDER
  2
AcDbPlaceHolder
  3
AutoCAD 2000
 90
        0
280
     0
281
     0
  0
CLASS
  1
VBA_PROJECT
  2
AcDbVbaProject
  3
acadvba
 90
    32768
280
     0
281
     0
  0
CLASS
  1
WIPEOUT
  2
AcDbWipeout
  3
WipeOut|AutoCAD Express Tool|expresstools@autodesk.com
 90
    32895
280
     0
281
     1
  0
CLASS
  1
WIPEOUTVARIABLES
  2
AcDbWipeoutVariables
  3
WipeOut|AutoCAD Express Tool|expresstools@autodesk.com
 90
        0
280
     0
281
     0
  0
CLASS
  1
RTEXT
  2
RText
  3
RText|AutoCAD Express Tool|expresstools@autodesk.com
 90
    32768
280
     0
281
     1
  0
CLASS
  1
ARCALIGNEDTEXT
  2
AcDbArcAlignedText
  3
ATEXT|AutoCAD Express Tool|expresstools@autodesk.com
 90
    32768
280
     0
281
     1
  0
ENDSEC
  0
SECTION
  2
TABLES
  0
TABLE
  2
VPORT
  5
7
100
AcDbSymbolTable
 70
     1
  0
VPORT
  5
15
100
AcDbSymbolTableRecord
100
AcDbViewportTableRecord
  2
*ACTIVE
 70
     0
 10
0.0
 20
0.0
 11
1.0
 21
1.0
 12
6.591288
 22
4.579184
 13
0.0
 23
0.0
 14
1.0
 24
1.0
 15
0.0
 25
0.0
 16
0.0
 26
0.0
 36
1.0
 17
0.0
 27
0.0
 37
0.0
 40
9.158369
 41
0.688564
 42
50.0
 43
0.0
 44
0.0
 50
0.0
 51
0.0
 71
     0
 72
   100
 73
     1
 74
     1
 75
     0
 76
     0
 77
     0
 78
     0
281
     0
 65
     0
110
0.0
120
0.0
130
0.0
111
1.0
121
0.0
131
0.0
112
0.0
122
1.0
132
0.0
345
0
346
0
 79
     0
146
0.0
  0
ENDTAB
  0
TABLE
  2
LTYPE
  5
4
100
AcDbSymbolTable
 70
     6
  0
LTYPE
  5
11
100
AcDbSymbolTableRecord
100
AcDbLinetypeTableRecord
  2
ByBlock
 70
    64
  3

 72
    65
 73
     0
 40
0.0
  0
LTYPE
  5
12
100
AcDbSymbolTableRecord
100
AcDbLinetypeTableRecord
  2
ByLayer
 70
    64
  3

 72
    65
 73
     0
 40
0.0
  0
LTYPE
  5
13
100
AcDbSymbolTableRecord
100
AcDbLinetypeTableRecord
  2
Continuous
 70
    64
  3
Solid line
 72
    65
 73
     0
 40
0.0
  0
LTYPE
  5
47
100
AcDbSymbolTableRecord
100
AcDbLinetypeTableRecord
  2
AI9-LType1
 70
    64
  3
Illustrator Dash Style No.1
 72
    65
 73
     4
 40
8.466667
 49
3.527778
 74
     0
 49
-2.116667
 74
     0
 49
0.705556
 74
     0
 49
-2.116667
 74
     0
  0
LTYPE
  5
D7
100
AcDbSymbolTableRecord
100
AcDbLinetypeTableRecord
  2
AI9-LType2
 70
    64
  3
Illustrator Dash Style No.2
 72
    65
 73
     6
 40
10.583333
 49
3.527778
 74
     0
 49
-2.116667
 74
     0
 49
0.705556
 74
     0
 49
-1.411111
 74
     0
 49
0.705556
 74
     0
 49
-2.116667
 74
     0
  0
LTYPE
  5
163
100
AcDbSymbolTableRecord
100
AcDbLinetypeTableRecord
  2
AI9-LType3
 70
    64
  3
Illustrator Dash Style No.3
 72
    65
 73
     2
 40
2.116667
 49
1.058333
 74
     0
 49
-1.058333
 74
     0
  0
ENDTAB
  0
TABLE
  2
LAYER
  5
2
100
AcDbSymbolTable
 70
    13
  0
LAYER
  5
14
100
AcDbSymbolTableRecord
100
AcDbLayerTableRecord
  2
0
 70
     0
 62
     7
  6
Continuous
290
     1
370
    -3
390
1D
  0
LAYER
  5
28
100
AcDbSymbolTableRecord
100
AcDbLayerTableRecord
  2
RAHMEN
 70
     0
 62
     5
  6
Continuous
290
     1
370
    -3
390
1D
  0
LAYER
  5
36
100
AcDbSymbolTableRecord
100
AcDbLayerTableRecord
  2
TEXT
 70
     0
 62
     3
  6
Continuous
290
     1
370
    -3
390
1D
  0
LAYER
  5
42
100
AcDbSymbolTableRecord
100
AcDbLayerTableRecord
  2
BESCHREIBUNG
 70
     0
 62
     1
  6
Continuous
290
     1
370
    -3
390
1D
  0
LAYER
  5
45
100
AcDbSymbolTableRecord
100
AcDbLayerTableRecord
  2
MITTELLINIE
 70
     0
 62
   160
  6
Continuous
290
     1
370
    -3
390
1D
  0
LAYER
  5
49
100
AcDbSymbolTableRecord
100
AcDbLayerTableRecord
  2
SCHRAFFUR
 70
     0
 62
     7
  6
Continuous
290
     1
370
    -3
390
1D
  0
LAYER
  5
D6
100
AcDbSymbolTableRecord
100
AcDbLayerTableRecord
  2
GETRENNT
 70
     0
 62
     4
  6
Continuous
290
     1
370
    -3
390
1D
  0
LAYER
  5
DA
100
AcDbSymbolTableRecord
100
AcDbLayerTableRecord
  2
ROHRSCHRAFFUR
 70
     0
 62
     6
  6
Continuous
290
     1
370
    -3
390
1D
  0
LAYER
  5
15D
100
AcDbSymbolTableRecord
100
AcDbLayerTableRecord
  2
BITUMEN
 70
     0
 62
     5
  6
Continuous
290
     1
370
    -3
390
1D
  0
LAYER
  5
162
100
AcDbSymbolTableRecord
100
AcDbLayerTableRecord
  2
RAUHEIT
 70
     0
 62
     5
  6
Continuous
290
     1
370
    -3
390
1D
  0
LAYER
  5
168
100
AcDbSymbolTableRecord
100
AcDbLayerTableRecord
  2
KOERPER
 70
     0
 62
     3
  6
Continuous
290
     1
370
    -3
390
1D
  0
LAYER
  5
191
100
AcDbSymbolTableRecord
100
AcDbLayerTableRecord
  2
QUELLMTEL
 70
     0
 62
     1
  6
Continuous
290
     1
370
    -3
390
1D
  0
LAYER
  5
194
100
AcDbSymbolTableRecord
100
AcDbLayerTableRecord
  2
WASSER
 70
     0
 62
   160
  6
Continuous
290
     1
370
    -3
390
1D
  0
ENDTAB
  0
TABLE
  2
STYLE
  5
3
100
AcDbSymbolTable
 70
     5
  0
STYLE
  5
17
100
AcDbSymbolTableRecord
100
AcDbTextStyleTableRecord
  2
Standard
 70
     0
 40
0.0
 41
1.0
 50
0.0
 71
     0
 42
0.0
  3
txt
  4

  0
STYLE
  5
24
100
AcDbSymbolTableRecord
100
AcDbTextStyleTableRecord
  2
STD
 70
     0
 40
0.0
 41
1.0
 50
0.0
 71
     0
 42
0.0
  3
txt
  4

  0
STYLE
  5
25
100
AcDbSymbolTableRecord
100
AcDbTextStyleTableRecord
  2
TATESTD
 70
     4
 40
0.0
 41
1.0
 50
0.0
 71
     0
 42
0.0
  3
txt
  4

  0
STYLE
  5
26
100
AcDbSymbolTableRecord
100
AcDbTextStyleTableRecord
  2
KANJISTD
 70
     0
 40
0.0
 41
1.0
 50
0.0
 71
     0
 42
0.0
  3
txt
  4
extfont
  0
STYLE
  5
27
100
AcDbSymbolTableRecord
100
AcDbTextStyleTableRecord
  2
KANJITATE
 70
     4
 40
0.0
 41
1.0
 50
0.0
 71
     0
 42
0.0
  3
txt
  4
extfont
  0
ENDTAB
  0
TABLE
  2
VIEW
  5
5
100
AcDbSymbolTable
 70
     0
  0
ENDTAB
  0
TABLE
  2
UCS
  5
6
100
AcDbSymbolTable
 70
     0
  0
ENDTAB
  0
TABLE
  2
APPID
  5
8
100
AcDbSymbolTable
 70
     1
  0
APPID
  5
16
100
AcDbSymbolTableRecord
100
AcDbRegAppTableRecord
  2
ACAD
 70
     0
  0
ENDTAB
  0
TABLE
  2
DIMSTYLE
  5
9
100
AcDbSymbolTable
 70
     1
100
AcDbDimStyleTable
 71
     0
  0
DIMSTYLE
105
18
100
AcDbSymbolTableRecord
100
AcDbDimStyleTableRecord
  2
Standard
 70
     0
  3

  4

 40
1.0
 41
0.18
 42
0.0625
 43
0.38
 44
0.18
 45
0.0
 46
0.0
 47
0.0
 48
0.0
 71
     0
 72
     0
 73
     1
 74
     1
 75
     0
 76
     0
 77
     0
 78
     0
 79
     0
140
0.18
141
0.09
142
0.0
143
25.4
144
1.0
145
0.0
146
1.0
147
0.09
148
0.0
170
     0
171
     2
172
     0
173
     0
174
     0
175
     0
176
     0
177
     0
178
     0
179
     0
271
     4
272
     4
273
     2
274
     2
275
     0
276
     0
277
     2
278
    46
279
     0
280
     0
281
     0
282
     0
283
     1
284
     0
285
     0
286
     0
288
     0
340
17
341
0
342
0
343
0
344
0
371
    -2
372
    -2
  0
ENDTAB
  0
TABLE
  2
BLOCK_RECORD
  5
1
100
AcDbSymbolTable
 70
     2
  0
BLOCK_RECORD
  5
A
100
AcDbSymbolTableRecord
100
AcDbBlockTableRecord
  2
*MODEL_SPACE
340
20
  0
BLOCK_RECORD
  5
B
100
AcDbSymbolTableRecord
100
AcDbBlockTableRecord
  2
*PAPER_SPACE
340
21
  0
BLOCK_RECORD
  5
DB
100
AcDbSymbolTableRecord
100
AcDbBlockTableRecord
  2
AI9-BLK1
340
0
102
{BLKREFS
331
DC
102
}
  0
BLOCK_RECORD
  5
11C
100
AcDbSymbolTableRecord
100
AcDbBlockTableRecord
  2
AI9-BLK2
340
0
102
{BLKREFS
331
11D
102
}
  0
ENDTAB
  0
ENDSEC
  0
SECTION
  2
BLOCKS
  0
BLOCK
  5
D
100
AcDbEntity
  8
0
100
AcDbBlockBegin
  2
*MODEL_SPACE
 70
     0
 10
0.0
 20
0.0
 30
0.0
  3
*MODEL_SPACE
  1

  0
ENDBLK
  5
E
100
AcDbEntity
  8
0
100
AcDbBlockEnd
  0
BLOCK
  5
F
100
AcDbEntity
 67
     1
  8
0
100
AcDbBlockBegin
  2
*PAPER_SPACE
 70
     0
 10
0.0
 20
0.0
 30
0.0
  3
*PAPER_SPACE
  1

  0
ENDBLK
  5
10
100
AcDbEntity
 67
     1
  8
0
100
AcDbBlockEnd
  0
BLOCK
  5
DD
100
AcDbEntity
  8
ROHRSCHRAFFUR
  6
AI9-LType2
 62
     7
100
AcDbBlockBegin
  2
AI9-BLK1
 70
     0
 10
0.0
 20
0.0
 30
0.0
  3
AI9-BLK1
  1

  0
LINE
  5
11A
100
AcDbEntity
  8
ROHRSCHRAFFUR
 62
     7
100
AcDbLine
 10
1.126029
 20
2.158697
 30
0.0
 11
2.212957
 21
3.245452
 31
0.0
  0
LINE
  5
119
100
AcDbEntity
  8
ROHRSCHRAFFUR
 62
     7
100
AcDbLine
 10
1.128097
 20
1.608343
 30
0.0
 11
2.193665
 21
2.673739
 31
0.0
  0
LINE
  5
118
100
AcDbEntity
  8
ROHRSCHRAFFUR
 62
     7
100
AcDbLine
 10
1.123962
 20
1.051788
 30
0.0
 11
2.165415
 21
2.093068
 31
0.0
  0
LINE
  5
117
100
AcDbEntity
  8
ROHRSCHRAFFUR
 62
     7
100
AcDbLine
 10
1.041625
 20
-1.240407
 30
0.0
 11
1.953541
 21
-0.328662
 31
0.0
  0
LINE
  5
116
100
AcDbEntity
  8
ROHRSCHRAFFUR
 62
     7
100
AcDbLine
 10
1.07263
 20
-0.65698
 30
0.0
 11
2.022443
 21
0.292833
 31
0.0
  0
LINE
  5
115
100
AcDbEntity
  8
ROHRSCHRAFFUR
 62
     7
100
AcDbLine
 10
1.096402
 20
-0.080615
 30
0.0
 11
2.080321
 21
0.903132
 31
0.0
  0
LINE
  5
114
100
AcDbEntity
  8
ROHRSCHRAFFUR
 62
     7
100
AcDbLine
 10
1.113627
 20
0.488859
 30
0.0
 11
2.127863
 21
1.503095
 31
0.0
  0
LINE
  5
113
100
AcDbEntity
  8
ROHRSCHRAFFUR
 62
     7
100
AcDbLine
 10
0.90451
 20
6.356546
 30
0.0
 11
1.847432
 21
7.299296
 31
0.0
  0
LINE
  5
112
100
AcDbEntity
  8
ROHRSCHRAFFUR
 62
     7
100
AcDbLine
 10
0.954808
 20
5.854251
 30
0.0
 11
2.031745
 21
6.931188
 31
0.0
  0
LINE
  5
111
100
AcDbEntity
  8
ROHRSCHRAFFUR
 62
     7
100
AcDbLine
 10
0.994771
 20
5.341965
 30
0.0
 11
2.150601
 21
6.497622
 31
0.0
  0
LINE
  5
110
100
AcDbEntity
  8
ROHRSCHRAFFUR
 62
     7
100
AcDbLine
 10
1.030256
 20
4.824856
 30
0.0
 11
2.188841
 21
5.983614
 31
0.0
  0
LINE
  5
10F
100
AcDbEntity
  8
ROHRSCHRAFFUR
 62
     7
100
AcDbLine
 10
1.060228
 20
4.302407
 30
0.0
 11
2.208823
 21
5.451002
 31
0.0
  0
LINE
  5
10E
100
AcDbEntity
  8
ROHRSCHRAFFUR
 62
     7
100
AcDbLine
 10
1.085033
 20
3.774791
 30
0.0
 11
2.221225
 21
4.911156
 31
0.0
  0
LINE
  5
10D
100
AcDbEntity
  8
ROHRSCHRAFFUR
 62
     7
100
AcDbLine
 10
1.104325
 20
3.241835
 30
0.0
 11
2.226393
 21
4.363902
 31
0.0
  0
LINE
  5
10C
100
AcDbEntity
  8
ROHRSCHRAFFUR
 62
     7
100
AcDbLine
 10
1.118106
 20
2.703194
 30
0.0
 11
2.223637
 21
3.808725
 31
0.0
  0
LINE
  5
10B
100
AcDbEntity
  8
ROHRSCHRAFFUR
 62
     7
100
AcDbLine
 10
1.00304
 20
-1.831241
 30
0.0
 11
1.872582
 21
-0.961698
 31
0.0
  0
LINE
  5
10A
100
AcDbEntity
  8
ROHRSCHRAFFUR
 62
     7
100
AcDbLine
 10
-1.581471
 20
-1.662259
 30
0.0
 11
-0.955497
 21
-1.036285
 31
0.0
  0
LINE
  5
109
100
AcDbEntity
  8
ROHRSCHRAFFUR
 62
     7
100
AcDbLine
 10
-1.094335
 20
-3.928787
 30
0.0
 11
-0.725709
 21
-3.559989
 31
0.0
  0
LINE
  5
108
100
AcDbEntity
  8
ROHRSCHRAFFUR
 62
     7
100
AcDbLine
 10
-1.196309
 20
-3.478168
 30
0.0
 11
-0.780486
 21
-3.062518
 31
0.0
  0
LINE
  5
107
100
AcDbEntity
  8
ROHRSCHRAFFUR
 62
     7
100
AcDbLine
 10
-1.296217
 20
-3.025655
 30
0.0
 11
-0.831129
 21
-2.560739
 31
0.0
  0
LINE
  5
106
100
AcDbEntity
  8
ROHRSCHRAFFUR
 62
     7
100
AcDbLine
 10
-1.393713
 20
-2.570903
 30
0.0
 11
-0.877294
 21
-2.054483
 31
0.0
  0
LINE
  5
105
100
AcDbEntity
  8
ROHRSCHRAFFUR
 62
     7
100
AcDbLine
 10
-1.489487
 20
-2.114083
 30
0.0
 11
-0.918979
 21
-1.543747
 31
0.0
  0
LINE
  5
104
100
AcDbEntity
  8
ROHRSCHRAFFUR
 62
     7
100
AcDbLine
 10
0.598241
 20
-5.550738
 30
0.0
 11
1.090889
 21
-5.058089
 31
0.0
  0
LINE
  5
103
100
AcDbEntity
  8
ROHRSCHRAFFUR
 62
     7
100
AcDbLine
 10
-0.776352
 20
-5.267896
 30
0.0
 11
-0.53554
 21
-5.027083
 31
0.0
  0
LINE
  5
102
100
AcDbEntity
  8
ROHRSCHRAFFUR
 62
     7
100
AcDbLine
 10
0.264067
 20
-7.542348
 30
0.0
 11
0.446657
 21
-7.359757
 31
0.0
  0
LINE
  5
101
100
AcDbEntity
  8
ROHRSCHRAFFUR
 62
     7
100
AcDbLine
 10
0.129363
 20
-8.229644
 30
0.0
 11
0.180006
 21
-8.178657
 31
0.0
  0
LINE
  5
100
100
AcDbEntity
  8
ROHRSCHRAFFUR
 62
     7
100
AcDbLine
 10
0.035312
 20
-8.323695
 30
0.0
 11
0.044614
 21
-8.314049
 31
0.0
  0
LINE
  5
FF
100
AcDbEntity
  8
ROHRSCHRAFFUR
 62
     7
100
AcDbLine
 10
-0.206189
 20
-7.460354
 30
0.0
 11
-0.139354
 21
-7.393519
 31
0.0
  0
LINE
  5
FE
100
AcDbEntity
  8
ROHRSCHRAFFUR
 62
     7
100
AcDbLine
 10
-0.324011
 20
-7.025583
 30
0.0
 11
-0.226171
 21
-6.927743
 31
0.0
  0
LINE
  5
FD
100
AcDbEntity
  8
ROHRSCHRAFFUR
 62
     7
100
AcDbLine
 10
-0.554144
 20
-6.150873
 30
0.0
 11
-0.388435
 21
-5.985164
 31
0.0
  0
LINE
  5
FC
100
AcDbEntity
  8
ROHRSCHRAFFUR
 62
     7
100
AcDbLine
 10
-0.666109
 20
-5.710246
 30
0.0
 11
-0.463882
 21
-5.508019
 31
0.0
  0
LINE
  5
FB
100
AcDbEntity
  8
ROHRSCHRAFFUR
 62
     7
100
AcDbLine
 10
-0.440111
 20
-6.58909
 30
0.0
 11
-0.309197
 21
-6.458176
 31
0.0
  0
LINE
  5
FA
100
AcDbEntity
  8
ROHRSCHRAFFUR
 62
     7
100
AcDbLine
 10
-0.0863
 20
-7.892714
 30
0.0
 11
-0.049093
 21
-7.855507
 31
0.0
  0
LINE
  5
F9
100
AcDbEntity
  8
ROHRSCHRAFFUR
 62
     7
100
AcDbLine
 10
0.497644
 20
-6.203928
 30
0.0
 11
0.899342
 21
-5.80223
 31
0.0
  0
LINE
  5
F8
100
AcDbEntity
  8
ROHRSCHRAFFUR
 62
     7
100
AcDbLine
 10
0.386367
 20
-6.867453
 30
0.0
 11
0.685402
 21
-6.568419
 31
0.0
  0
LINE
  5
F7
100
AcDbEntity
  8
ROHRSCHRAFFUR
 62
     7
100
AcDbLine
 10
-0.884184
 20
-4.82365
 30
0.0
 11
-0.602719
 21
-4.542186
 31
0.0
  0
LINE
  5
F6
100
AcDbEntity
  8
ROHRSCHRAFFUR
 62
     7
100
AcDbLine
 10
-0.990293
 20
-4.377166
 30
0.0
 11
-0.666454
 21
-4.053155
 31
0.0
  0
LINE
  5
F5
100
AcDbEntity
  8
ROHRSCHRAFFUR
 62
     7
100
AcDbLine
 10
0.768773
 20
-4.275191
 30
0.0
 11
1.415762
 21
-3.628547
 31
0.0
  0
LINE
  5
F4
100
AcDbEntity
  8
ROHRSCHRAFFUR
 62
     7
100
AcDbLine
 10
0.840087
 20
-3.651457
 30
0.0
 11
1.552188
 21
-2.9397
 31
0.0
  0
LINE
  5
F3
100
AcDbEntity
  8
ROHRSCHRAFFUR
 62
     7
100
AcDbLine
 10
0.902787
 20
-3.036507
 30
0.0
 11
1.673111
 21
-2.266356
 31
0.0
  0
LINE
  5
F2
100
AcDbEntity
  8
ROHRSCHRAFFUR
 62
     7
100
AcDbLine
 10
0.956875
 20
-2.429826
 30
0.0
 11
1.779564
 21
-1.607309
 31
0.0
  0
LINE
  5
F1
100
AcDbEntity
  8
ROHRSCHRAFFUR
 62
     7
100
AcDbLine
 10
0.688502
 20
-4.908228
 30
0.0
 11
1.262455
 21
-4.334102
 31
0.0
  0
LINE
  5
F0
100
AcDbEntity
  8
ROHRSCHRAFFUR
 62
     7
100
AcDbLine
 10
-2.218469
 20
5.443251
 30
0.0
 11
0.583771
 21
8.245492
 31
0.0
  0
LINE
  5
EF
100
AcDbEntity
  8
ROHRSCHRAFFUR
 62
     7
100
AcDbLine
 10
-2.226393
 20
4.882906
 30
0.0
 11
-0.944473
 21
6.164654
 31
0.0
  0
LINE
  5
EE
100
AcDbEntity
  8
ROHRSCHRAFFUR
 62
     7
100
AcDbLine
 10
-1.837097
 20
-0.252181
 30
0.0
 11
-1.037491
 21
0.547598
 31
0.0
  0
LINE
  5
ED
100
AcDbEntity
  8
ROHRSCHRAFFUR
 62
     7
100
AcDbLine
 10
-1.758549
 20
-0.726054
 30
0.0
 11
-1.015097
 21
0.017398
 31
0.0
  0
LINE
  5
EC
100
AcDbEntity
  8
ROHRSCHRAFFUR
 62
     7
100
AcDbLine
 10
-1.6738
 20
-1.193726
 30
0.0
 11
-0.987881
 21
-0.507979
 31
0.0
  0
LINE
  5
EB
100
AcDbEntity
  8
ROHRSCHRAFFUR
 62
     7
100
AcDbLine
 10
-2.22467
 20
4.332208
 30
0.0
 11
-0.981335
 21
5.575543
 31
0.0
  0
LINE
  5
EA
100
AcDbEntity
  8
ROHRSCHRAFFUR
 62
     7
100
AcDbLine
 10
-2.213646
 20
3.790811
 30
0.0
 11
-1.012341
 21
4.991943
 31
0.0
  0
LINE
  5
E9
100
AcDbEntity
  8
ROHRSCHRAFFUR
 62
     7
100
AcDbLine
 10
-2.193665
 20
3.258371
 30
0.0
 11
-1.036801
 21
4.415062
 31
0.0
  0
LINE
  5
E8
100
AcDbEntity
  8
ROHRSCHRAFFUR
 62
     7
100
AcDbLine
 10
-2.0848
 20
1.709801
 30
0.0
 11
-1.071941
 21
2.722659
 31
0.0
  0
LINE
  5
E7
100
AcDbEntity
  8
ROHRSCHRAFFUR
 62
     7
100
AcDbLine
 10
-2.033468
 20
1.208884
 30
0.0
 11
-1.071597
 21
2.170582
 31
0.0
  0
LINE
  5
E6
100
AcDbEntity
  8
ROHRSCHRAFFUR
 62
     7
100
AcDbLine
 10
-1.974901
 20
0.71503
 30
0.0
 11
-1.06574
 21
1.624018
 31
0.0
  0
LINE
  5
E5
100
AcDbEntity
  8
ROHRSCHRAFFUR
 62
     7
100
AcDbLine
 10
-1.909444
 20
0.228065
 30
0.0
 11
-1.054371
 21
1.083138
 31
0.0
  0
LINE
  5
E4
100
AcDbEntity
  8
ROHRSCHRAFFUR
 62
     7
100
AcDbLine
 10
-2.128897
 20
2.218125
 30
0.0
 11
-1.066429
 21
3.280592
 31
0.0
  0
LINE
  5
E3
100
AcDbEntity
  8
ROHRSCHRAFFUR
 62
     7
100
AcDbLine
 10
-2.165415
 20
2.7342
 30
0.0
 11
-1.054716
 21
3.844727
 31
0.0
  0
LINE
  5
E2
100
AcDbEntity
  8
ROHRSCHRAFFUR
 62
     7
100
AcDbLine
 10
-2.140266
 20
6.626469
 30
0.0
 11
-0.494543
 21
8.272191
 31
0.0
  0
LINE
  5
E1
100
AcDbEntity
  8
ROHRSCHRAFFUR
 62
     7
100
AcDbLine
 10
-2.20021
 20
6.014103
 30
0.0
 11
0.109726
 21
8.323867
 31
0.0
  0
LINE
  5
E0
100
AcDbEntity
  8
ROHRSCHRAFFUR
 62
     7
100
AcDbLine
 10
-0.032556
 20
7.076743
 30
0.0
 11
0.981335
 21
8.090634
 31
0.0
  0
LINE
  5
DF
100
AcDbEntity
  8
ROHRSCHRAFFUR
 62
     7
100
AcDbLine
 10
0.418062
 20
6.97494
 30
0.0
 11
1.320677
 21
7.877555
 31
0.0
  0
LINE
  5
DE
100
AcDbEntity
  8
ROHRSCHRAFFUR
 62
     7
100
AcDbLine
 10
0.722953
 20
6.727238
 30
0.0
 11
1.609032
 21
7.613317
 31
0.0
  0
ENDBLK
  5
11B
100
AcDbEntity
  8
ROHRSCHRAFFUR
100
AcDbBlockEnd
  0
BLOCK
  5
11E
100
AcDbEntity
  8
ROHRSCHRAFFUR
 62
     7
100
AcDbBlockBegin
  2
AI9-BLK2
 70
     0
 10
0.0
 20
0.0
 30
0.0
  3
AI9-BLK2
  1

  0
LINE
  5
15B
100
AcDbEntity
  8
ROHRSCHRAFFUR
 62
     7
100
AcDbLine
 10
2.213474
 20
-3.790552
 30
0.0
 11
1.012514
 21
-4.991513
 31
0.0
  0
LINE
  5
15A
100
AcDbEntity
  8
ROHRSCHRAFFUR
 62
     7
100
AcDbLine
 10
-1.030084
 20
-4.824426
 30
0.0
 11
-2.189014
 21
-5.983356
 31
0.0
  0
LINE
  5
159
100
AcDbEntity
  8
ROHRSCHRAFFUR
 62
     7
100
AcDbLine
 10
2.22467
 20
-4.331777
 30
0.0
 11
0.981335
 21
-5.575112
 31
0.0
  0
LINE
  5
158
100
AcDbEntity
  8
ROHRSCHRAFFUR
 62
     7
100
AcDbLine
 10
2.226393
 20
-4.882648
 30
0.0
 11
0.944645
 21
-6.164223
 31
0.0
  0
LINE
  5
157
100
AcDbEntity
  8
ROHRSCHRAFFUR
 62
     7
100
AcDbLine
 10
-1.060228
 20
-4.302149
 30
0.0
 11
-2.208651
 21
-5.450744
 31
0.0
  0
LINE
  5
156
100
AcDbEntity
  8
ROHRSCHRAFFUR
 62
     7
100
AcDbLine
 10
2.140093
 20
-6.626211
 30
0.0
 11
0.494371
 21
-8.271588
 31
0.0
  0
LINE
  5
155
100
AcDbEntity
  8
ROHRSCHRAFFUR
 62
     7
100
AcDbLine
 10
2.200038
 20
-6.013673
 30
0.0
 11
-0.109726
 21
-8.323609
 31
0.0
  0
LINE
  5
154
100
AcDbEntity
  8
ROHRSCHRAFFUR
 62
     7
100
AcDbLine
 10
2.218297
 20
-5.44282
 30
0.0
 11
-0.583944
 21
-8.245061
 31
0.0
  0
LINE
  5
153
100
AcDbEntity
  8
ROHRSCHRAFFUR
 62
     7
100
AcDbLine
 10
-0.954636
 20
-5.85382
 30
0.0
 11
-2.031745
 21
-6.930757
 31
0.0
  0
LINE
  5
152
100
AcDbEntity
  8
ROHRSCHRAFFUR
 62
     7
100
AcDbLine
 10
-0.994944
 20
-5.341534
 30
0.0
 11
-2.150429
 21
-6.497364
 31
0.0
  0
LINE
  5
151
100
AcDbEntity
  8
ROHRSCHRAFFUR
 62
     7
100
AcDbLine
 10
-0.418062
 20
-6.97451
 30
0.0
 11
-1.320677
 21
-7.877125
 31
0.0
  0
LINE
  5
150
100
AcDbEntity
  8
ROHRSCHRAFFUR
 62
     7
100
AcDbLine
 10
0.032556
 20
-7.07614
 30
0.0
 11
-0.981508
 21
-8.090376
 31
0.0
  0
LINE
  5
14F
100
AcDbEntity
  8
ROHRSCHRAFFUR
 62
     7
100
AcDbLine
 10
-0.722781
 20
-6.726807
 30
0.0
 11
-1.609032
 21
-7.612886
 31
0.0
  0
LINE
  5
14E
100
AcDbEntity
  8
ROHRSCHRAFFUR
 62
     7
100
AcDbLine
 10
-0.90451
 20
-6.356115
 30
0.0
 11
-1.84726
 21
-7.299038
 31
0.0
  0
LINE
  5
14D
100
AcDbEntity
  8
ROHRSCHRAFFUR
 62
     7
100
AcDbLine
 10
1.094335
 20
3.929218
 30
0.0
 11
0.725537
 21
3.560248
 31
0.0
  0
LINE
  5
14C
100
AcDbEntity
  8
ROHRSCHRAFFUR
 62
     7
100
AcDbLine
 10
1.296045
 20
3.025913
 30
0.0
 11
0.831302
 21
2.56117
 31
0.0
  0
LINE
  5
14B
100
AcDbEntity
  8
ROHRSCHRAFFUR
 62
     7
100
AcDbLine
 10
1.196309
 20
3.478599
 30
0.0
 11
0.780659
 21
3.063121
 31
0.0
  0
LINE
  5
14A
100
AcDbEntity
  8
ROHRSCHRAFFUR
 62
     7
100
AcDbLine
 10
1.393886
 20
2.571505
 30
0.0
 11
0.877466
 21
2.055086
 31
0.0
  0
LINE
  5
149
100
AcDbEntity
  8
ROHRSCHRAFFUR
 62
     7
100
AcDbLine
 10
0.990293
 20
4.377424
 30
0.0
 11
0.666281
 21
4.053585
 31
0.0
  0
LINE
  5
148
100
AcDbEntity
  8
ROHRSCHRAFFUR
 62
     7
100
AcDbLine
 10
-0.956875
 20
2.430256
 30
0.0
 11
-1.779564
 21
1.607568
 31
0.0
  0
LINE
  5
147
100
AcDbEntity
  8
ROHRSCHRAFFUR
 62
     7
100
AcDbLine
 10
-1.085033
 20
-3.77436
 30
0.0
 11
-2.221225
 21
-4.910897
 31
0.0
  0
LINE
  5
146
100
AcDbEntity
  8
ROHRSCHRAFFUR
 62
     7
100
AcDbLine
 10
-1.104325
 20
-3.241404
 30
0.0
 11
-2.226393
 21
-4.363472
 31
0.0
  0
LINE
  5
145
100
AcDbEntity
  8
ROHRSCHRAFFUR
 62
     7
100
AcDbLine
 10
-1.118106
 20
-2.702936
 30
0.0
 11
-2.223809
 21
-3.808467
 31
0.0
  0
LINE
  5
144
100
AcDbEntity
  8
ROHRSCHRAFFUR
 62
     7
100
AcDbLine
 10
-1.126202
 20
-2.158266
 30
0.0
 11
-2.212957
 21
-3.245194
 31
0.0
  0
LINE
  5
143
100
AcDbEntity
  8
ROHRSCHRAFFUR
 62
     7
100
AcDbLine
 10
-1.128269
 20
-1.608084
 30
0.0
 11
-2.193665
 21
-2.673308
 31
0.0
  0
LINE
  5
142
100
AcDbEntity
  8
ROHRSCHRAFFUR
 62
     7
100
AcDbLine
 10
-1.124135
 20
-1.051357
 30
0.0
 11
-2.165415
 21
-2.092809
 31
0.0
  0
LINE
  5
141
100
AcDbEntity
  8
ROHRSCHRAFFUR
 62
     7
100
AcDbLine
 10
-1.041452
 20
1.24101
 30
0.0
 11
-1.953369
 21
0.329093
 31
0.0
  0
LINE
  5
140
100
AcDbEntity
  8
ROHRSCHRAFFUR
 62
     7
100
AcDbLine
 10
-1.07263
 20
0.65741
 30
0.0
 11
-2.022271
 21
-0.292402
 31
0.0
  0
LINE
  5
13F
100
AcDbEntity
  8
ROHRSCHRAFFUR
 62
     7
100
AcDbLine
 10
-1.096574
 20
0.081046
 30
0.0
 11
-2.080321
 21
-0.902873
 31
0.0
  0
LINE
  5
13E
100
AcDbEntity
  8
ROHRSCHRAFFUR
 62
     7
100
AcDbLine
 10
-1.113627
 20
-0.488428
 30
0.0
 11
-2.127691
 21
-1.502665
 31
0.0
  0
LINE
  5
13D
100
AcDbEntity
  8
ROHRSCHRAFFUR
 62
     7
100
AcDbLine
 10
-1.00304
 20
1.831843
 30
0.0
 11
-1.872754
 21
0.961957
 31
0.0
  0
LINE
  5
13C
100
AcDbEntity
  8
ROHRSCHRAFFUR
 62
     7
100
AcDbLine
 10
-0.768945
 20
4.275794
 30
0.0
 11
-1.41559
 21
3.628805
 31
0.0
  0
LINE
  5
13B
100
AcDbEntity
  8
ROHRSCHRAFFUR
 62
     7
100
AcDbLine
 10
-0.840259
 20
3.651887
 30
0.0
 11
-1.552016
 21
2.940131
 31
0.0
  0
LINE
  5
13A
100
AcDbEntity
  8
ROHRSCHRAFFUR
 62
     7
100
AcDbLine
 10
-0.902787
 20
3.036938
 30
0.0
 11
-1.672938
 21
2.266614
 31
0.0
  0
LINE
  5
139
100
AcDbEntity
  8
ROHRSCHRAFFUR
 62
     7
100
AcDbLine
 10
-0.598069
 20
5.551341
 30
0.0
 11
-1.090889
 21
5.05852
 31
0.0
  0
LINE
  5
138
100
AcDbEntity
  8
ROHRSCHRAFFUR
 62
     7
100
AcDbLine
 10
-0.68833
 20
4.908658
 30
0.0
 11
-1.262455
 21
4.334361
 31
0.0
  0
LINE
  5
137
100
AcDbEntity
  8
ROHRSCHRAFFUR
 62
     7
100
AcDbLine
 10
0.666109
 20
5.710676
 30
0.0
 11
0.463882
 21
5.508449
 31
0.0
  0
LINE
  5
136
100
AcDbEntity
  8
ROHRSCHRAFFUR
 62
     7
100
AcDbLine
 10
0.884356
 20
4.823909
 30
0.0
 11
0.602892
 21
4.542445
 31
0.0
  0
LINE
  5
135
100
AcDbEntity
  8
ROHRSCHRAFFUR
 62
     7
100
AcDbLine
 10
0.77618
 20
5.268326
 30
0.0
 11
0.535368
 21
5.027514
 31
0.0
  0
LINE
  5
134
100
AcDbEntity
  8
ROHRSCHRAFFUR
 62
     7
100
AcDbLine
 10
-0.497644
 20
6.204186
 30
0.0
 11
-0.899342
 21
5.802488
 31
0.0
  0
LINE
  5
133
100
AcDbEntity
  8
ROHRSCHRAFFUR
 62
     7
100
AcDbLine
 10
-0.38654
 20
6.867712
 30
0.0
 11
-0.685402
 21
6.56885
 31
0.0
  0
LINE
  5
132
100
AcDbEntity
  8
ROHRSCHRAFFUR
 62
     7
100
AcDbLine
 10
-0.129191
 20
8.229902
 30
0.0
 11
-0.180178
 21
8.178915
 31
0.0
  0
LINE
  5
131
100
AcDbEntity
  8
ROHRSCHRAFFUR
 62
     7
100
AcDbLine
 10
-0.263894
 20
7.542778
 30
0.0
 11
-0.446657
 21
7.359844
 31
0.0
  0
LINE
  5
130
100
AcDbEntity
  8
ROHRSCHRAFFUR
 62
     7
100
AcDbLine
 10
-0.035312
 20
8.323781
 30
0.0
 11
-0.044614
 21
8.31448
 31
0.0
  0
LINE
  5
12F
100
AcDbEntity
  8
ROHRSCHRAFFUR
 62
     7
100
AcDbLine
 10
0.086472
 20
7.893144
 30
0.0
 11
0.049265
 21
7.855937
 31
0.0
  0
LINE
  5
12E
100
AcDbEntity
  8
ROHRSCHRAFFUR
 62
     7
100
AcDbLine
 10
0.206189
 20
7.46044
 30
0.0
 11
0.139526
 21
7.393778
 31
0.0
  0
LINE
  5
12D
100
AcDbEntity
  8
ROHRSCHRAFFUR
 62
     7
100
AcDbLine
 10
0.440111
 20
6.58952
 30
0.0
 11
0.309197
 21
6.458607
 31
0.0
  0
LINE
  5
12C
100
AcDbEntity
  8
ROHRSCHRAFFUR
 62
     7
100
AcDbLine
 10
0.554144
 20
6.151132
 30
0.0
 11
0.388435
 21
5.985423
 31
0.0
  0
LINE
  5
12B
100
AcDbEntity
  8
ROHRSCHRAFFUR
 62
     7
100
AcDbLine
 10
0.324183
 20
7.026014
 30
0.0
 11
0.226171
 21
6.928001
 31
0.0
  0
LINE
  5
12A
100
AcDbEntity
  8
ROHRSCHRAFFUR
 62
     7
100
AcDbLine
 10
2.033468
 20
-1.208453
 30
0.0
 11
1.071769
 21
-2.16998
 31
0.0
  0
LINE
  5
129
100
AcDbEntity
  8
ROHRSCHRAFFUR
 62
     7
100
AcDbLine
 10
1.974901
 20
-0.714771
 30
0.0
 11
1.06574
 21
-1.623587
 31
0.0
  0
LINE
  5
128
100
AcDbEntity
  8
ROHRSCHRAFFUR
 62
     7
100
AcDbLine
 10
2.193665
 20
-3.257941
 30
0.0
 11
1.036974
 21
-4.414804
 31
0.0
  0
LINE
  5
127
100
AcDbEntity
  8
ROHRSCHRAFFUR
 62
     7
100
AcDbLine
 10
2.165415
 20
-2.733942
 30
0.0
 11
1.054888
 21
-3.844296
 31
0.0
  0
LINE
  5
126
100
AcDbEntity
  8
ROHRSCHRAFFUR
 62
     7
100
AcDbLine
 10
2.129069
 20
-2.217866
 30
0.0
 11
1.066429
 21
-3.280334
 31
0.0
  0
LINE
  5
125
100
AcDbEntity
  8
ROHRSCHRAFFUR
 62
     7
100
AcDbLine
 10
2.084972
 20
-1.70937
 30
0.0
 11
1.072114
 21
-2.722228
 31
0.0
  0
LINE
  5
124
100
AcDbEntity
  8
ROHRSCHRAFFUR
 62
     7
100
AcDbLine
 10
1.581471
 20
1.662689
 30
0.0
 11
0.955325
 21
1.036715
 31
0.0
  0
LINE
  5
123
100
AcDbEntity
  8
ROHRSCHRAFFUR
 62
     7
100
AcDbLine
 10
1.837269
 20
0.252612
 30
0.0
 11
1.037318
 21
-0.54734
 31
0.0
  0
LINE
  5
122
100
AcDbEntity
  8
ROHRSCHRAFFUR
 62
     7
100
AcDbLine
 10
1.758721
 20
0.726312
 30
0.0
 11
1.01527
 21
-0.016795
 31
0.0
  0
LINE
  5
121
100
AcDbEntity
  8
ROHRSCHRAFFUR
 62
     7
100
AcDbLine
 10
1.6738
 20
1.194156
 30
0.0
 11
0.988053
 21
0.508238
 31
0.0
  0
LINE
  5
120
100
AcDbEntity
  8
ROHRSCHRAFFUR
 62
     7
100
AcDbLine
 10
1.489487
 20
2.114341
 30
0.0
 11
0.918979
 21
1.544178
 31
0.0
  0
LINE
  5
11F
100
AcDbEntity
  8
ROHRSCHRAFFUR
 62
     7
100
AcDbLine
 10
1.909272
 20
-0.227635
 30
0.0
 11
1.054199
 21
-1.082707
 31
0.0
  0
ENDBLK
  5
15C
100
AcDbEntity
  8
ROHRSCHRAFFUR
100
AcDbBlockEnd
  0
ENDSEC
  0
SECTION
  2
ENTITIES
  0
HATCH
  5
198
100
AcDbEntity
  8
WASSER
 62
   152
100
AcDbHatch
 10
0.0
 20
0.0
 30
0.0
210
0.0
220
0.0
230
1.0
  2
SOLID
 70
     1
 71
     0
 91
        1
 92
        1
 93
        1
 72
     4
 94
        3
 73
     0
 74
     0
 95
       23
 96
       19
 40
0.0
 40
0.0
 40
0.0
 40
0.0
 40
1.0
 40
1.0
 40
1.0
 40
2.0
 40
2.0
 40
2.0
 40
3.0
 40
3.0
 40
3.0
 40
4.0
 40
4.0
 40
4.0
 40
5.0
 40
5.0
 40
5.0
 40
6.0
 40
6.0
 40
6.0
 40
6.0
 10
135.96344943576386
 20
66.260210503472223
 10
135.96344943576386
 20
66.260210503472223
 10
135.52058241102429
 20
66.533406575520829
 10
134.91855197482639
 20
66.821416558159711
 10
129.95330810546875
 20
69.196120876736103
 10
131.16425916883679
 20
64.3836669921875
 10
126.24965820312499
 20
67.408460828993043
 10
125.55684950086804
 20
67.834963650173606
 10
124.9169230143229
 20
66.795578342013883
 10
125.61007622612846
 20
66.369075520833334
 10
125.61007622612846
 20
66.369075520833334
 10
126.05277099609374
 20
66.096223958333326
 10
126.65462917751735
 20
65.808213975694443
 10
131.61367187499999
 20
63.434887695312497
 10
130.40857747395833
 20
68.238039822048606
 10
135.32403971354165
 20
65.220480685763889
 10
136.01702067057289
 20
64.794322374131937
 10
136.65643039279513
 20
65.834052191840271
 10
135.96344943576386
 20
66.260210503472223
 97
        0
 75
     0
 76
     1
 98
        1
 10
0.0
 20
0.0
  0
HATCH
  5
197
100
AcDbEntity
  8
WASSER
 62
   152
100
AcDbHatch
 10
0.0
 20
0.0
 30
0.0
210
0.0
220
0.0
230
1.0
  2
SOLID
 70
     1
 71
     0
 91
        1
 92
        1
 93
        1
 72
     4
 94
        3
 73
     0
 74
     0
 95
       23
 96
       19
 40
0.0
 40
0.0
 40
0.0
 40
0.0
 40
1.0
 40
1.0
 40
1.0
 40
2.0
 40
2.0
 40
2.0
 40
3.0
 40
3.0
 40
3.0
 40
4.0
 40
4.0
 40
4.0
 40
5.0
 40
5.0
 40
5.0
 40
6.0
 40
6.0
 40
6.0
 40
6.0
 10
135.96344943576386
 20
63.390101453993047
 10
135.96344943576386
 20
63.390101453993047
 10
135.52058241102429
 20
63.662953016493049
 10
134.91855197482639
 20
63.950618489583327
 10
129.95330810546875
 20
66.325667317708323
 10
131.16425916883679
 20
61.513557942708324
 10
126.24965820312499
 20
64.538007269965277
 10
125.55684950086804
 20
64.964510091145826
 10
124.9169230143229
 20
63.925124782986103
 10
125.61007622612846
 20
63.498621961805547
 10
125.61007622612846
 20
63.498621961805547
 10
126.05277099609374
 20
63.225770399305553
 10
126.65462917751735
 20
62.937760416666663
 10
131.61367187499999
 20
60.564434136284717
 10
130.40857747395833
 20
65.367586263020826
 10
135.32403971354165
 20
62.35037163628472
 10
136.01702067057289
 20
61.924213324652769
 10
136.65643039279513
 20
62.963943142361103
 10
135.96344943576386
 20
63.390101453993047
 97
        0
 75
     0
 76
     1
 98
        1
 10
0.0
 20
0.0
  0
HATCH
  5
196
100
AcDbEntity
  8
WASSER
 62
   152
100
AcDbHatch
 10
0.0
 20
0.0
 30
0.0
210
0.0
220
0.0
230
1.0
  2
SOLID
 70
     1
 71
     0
 91
        1
 92
        1
 93
        1
 72
     4
 94
        3
 73
     0
 74
     0
 95
       23
 96
       19
 40
0.0
 40
0.0
 40
0.0
 40
0.0
 40
1.0
 40
1.0
 40
1.0
 40
2.0
 40
2.0
 40
2.0
 40
3.0
 40
3.0
 40
3.0
 40
4.0
 40
4.0
 40
4.0
 40
5.0
 40
5.0
 40
5.0
 40
6.0
 40
6.0
 40
6.0
 40
6.0
 10
135.96344943576386
 20
60.519647894965274
 10
135.96344943576386
 20
60.519647894965274
 10
135.52058241102429
 20
60.792499457465276
 10
134.91855197482639
 20
61.080164930555547
 10
129.95330810546875
 20
63.455558268229161
 10
131.16425916883679
 20
58.643104383680551
 10
126.24965820312499
 20
61.667898220486109
 10
125.55684950086804
 20
62.094401041666664
 10
124.9169230143229
 20
61.055015733506941
 10
125.61007622612846
 20
60.628512912326386
 10
125.61007622612846
 20
60.628512912326386
 10
126.05277099609374
 20
60.355316840277773
 10
126.65462917751735
 20
60.067306857638883
 10
131.61367187499999
 20
57.693980577256937
 10
130.40857747395833
 20
62.497132703993053
 10
135.32403971354165
 20
59.47991807725694
 10
136.01702067057289
 20
59.053759765624996
 10
136.65643039279513
 20
60.09348958333333
 10
135.96344943576386
 20
60.519647894965274
 97
        0
 75
     0
 76
     1
 98
        1
 10
0.0
 20
0.0
  0
HATCH
  5
195
100
AcDbEntity
  8
WASSER
 62
   152
100
AcDbHatch
 10
0.0
 20
0.0
 30
0.0
210
0.0
220
0.0
230
1.0
  2
SOLID
 70
     1
 71
     0
 91
        1
 92
        1
 93
        1
 72
     4
 94
        3
 73
     0
 74
     0
 95
       23
 96
       19
 40
0.0
 40
0.0
 40
0.0
 40
0.0
 40
1.0
 40
1.0
 40
1.0
 40
2.0
 40
2.0
 40
2.0
 40
3.0
 40
3.0
 40
3.0
 40
4.0
 40
4.0
 40
4.0
 40
5.0
 40
5.0
 40
5.0
 40
6.0
 40
6.0
 40
6.0
 40
6.0
 10
135.96344943576386
 20
69.125496419270831
 10
135.96344943576386
 20
69.125496419270831
 10
135.52058241102429
 20
69.398692491319437
 10
134.91855197482639
 20
69.68670247395832
 10
129.95330810546875
 20
72.061406792534711
 10
131.16425916883679
 20
67.248952907986109
 10
126.24965820312499
 20
70.274091254340277
 10
125.55684950086804
 20
70.700249565972214
 10
124.9169230143229
 20
69.660864257812491
 10
125.61007622612846
 20
69.234361436631943
 10
125.61007622612846
 20
69.234361436631943
 10
126.05277099609374
 20
68.961509874131934
 10
126.65462917751735
 20
68.673499891493051
 10
131.61367187499999
 20
66.300173611111106
 10
130.40857747395833
 20
71.103325737847214
 10
135.32403971354165
 20
68.08645562065972
 10
136.01702067057289
 20
67.659608289930546
 10
136.65643039279513
 20
68.69933810763888
 10
135.96344943576386
 20
69.125496419270831
 97
        0
 75
     0
 76
     1
 98
        1
 10
0.0
 20
0.0
  0
HATCH
  5
193
100
AcDbEntity
  8
QUELLMTEL
 62
   255
100
AcDbHatch
 10
0.0
 20
0.0
 30
0.0
210
0.0
220
0.0
230
1.0
  2
SOLID
 70
     1
 71
     0
 91
        1
 92
        3
 72
     0
 73
     1
 93
        4
 10
128.18132324218749
 20
125.27486843532985
 10
202.84274359809027
 20
125.27486843532985
 10
202.84274359809027
 20
117.69927571614582
 10
128.18132324218749
 20
117.69927571614582
 97
        0
 75
     0
 76
     1
 98
        1
 10
0.0
 20
0.0
  0
HATCH
  5
192
100
AcDbEntity
  8
QUELLMTEL
 62
   255
100
AcDbHatch
 10
0.0
 20
0.0
 30
0.0
210
0.0
220
0.0
230
1.0
  2
SOLID
 70
     1
 71
     0
 91
        1
 92
        3
 72
     0
 73
     1
 93
        4
 10
128.18132324218749
 20
90.262190755208323
 10
202.84274359809027
 20
90.262190755208323
 10
202.84274359809027
 20
82.774964735243046
 10
128.18132324218749
 20
82.774964735243046
 97
        0
 75
     0
 76
     1
 98
        1
 10
0.0
 20
0.0
  0
LINE
  5
190
100
AcDbEntity
  8
KOERPER
 62
     7
100
AcDbLine
 10
202.956087
 20
166.524719
 30
0.0
 11
202.956087
 21
117.774723
 31
0.0
  0
LINE
  5
18F
100
AcDbEntity
  8
KOERPER
 62
     7
100
AcDbLine
 10
132.331113
 20
130.274736
 30
0.0
 11
128.159275
 21
130.274736
 31
0.0
  0
SPLINE
  5
18E
100
AcDbEntity
  8
KOERPER
 62
     7
100
AcDbSpline
210
0.0
220
0.0
230
1.0
 70
     8
 71
     3
 72
     8
 73
     4
 74
     0
 42
0.00000001
 43
0.00000001
 40
0.0
 40
0.0
 40
0.0
 40
0.0
 40
1.0
 40
1.0
 40
1.0
 40
1.0
 10
132.33111300998263
 20
130.27473551432291
 30
0.0
 10
137.00128445095484
 20
130.83042941623262
 30
0.0
 10
140.5033962673611
 20
134.81416558159722
 30
0.0
 10
140.45602620442708
 20
139.51706542968748
 30
0.0
  0
LINE
  5
18D
100
AcDbEntity
  8
KOERPER
 62
     7
100
AcDbLine
 10
128.159275
 20
117.774723
 30
0.0
 11
128.159275
 21
130.182062
 31
0.0
  0
LINE
  5
18C
100
AcDbEntity
  8
KOERPER
 62
     7
100
AcDbLine
 10
214.03138
 20
117.774723
 30
0.0
 11
119.05182
 21
117.774723
 31
0.0
  0
LINE
  5
18B
100
AcDbEntity
  8
KOERPER
 62
     7
100
AcDbLine
 10
214.03138
 20
90.274938
 30
0.0
 11
119.033217
 21
90.274938
 31
0.0
  0
SPLINE
  5
18A
100
AcDbEntity
  8
KOERPER
 62
     7
100
AcDbSpline
210
0.0
220
0.0
230
1.0
 70
     8
 71
     3
 72
     8
 73
     4
 74
     0
 42
0.00000001
 43
0.00000001
 40
0.0
 40
0.0
 40
0.0
 40
0.0
 40
1.0
 40
1.0
 40
1.0
 40
1.0
 10
214.1175075954861
 20
100.97264811197915
 30
0.0
 10
215.76426323784719
 20
105.72136773003471
 30
0.0
 10
216.47533094618055
 20
110.7439724392361
 30
0.0
 10
216.21178114149305
 20
115.76313205295138
 30
0.0
  0
SPLINE
  5
189
100
AcDbEntity
  8
KOERPER
 62
     7
100
AcDbSpline
210
0.0
220
0.0
230
1.0
 70
     8
 71
     3
 72
     8
 73
     4
 74
     0
 42
0.00000001
 43
0.00000001
 40
0.0
 40
0.0
 40
0.0
 40
0.0
 40
1.0
 40
1.0
 40
1.0
 40
1.0
 10
212.37532280815969
 20
108.19873589409721
 30
0.0
 10
212.85177951388886
 20
105.76598171657986
 30
0.0
 10
213.43296712239581
 20
103.35527615017361
 30
0.0
 10
214.1175075954861
 20
100.97264811197915
 30
0.0
  0
SPLINE
  5
188
100
AcDbEntity
  8
KOERPER
 62
     7
100
AcDbSpline
210
0.0
220
0.0
230
1.0
 70
     8
 71
     3
 72
     8
 73
     4
 74
     0
 42
0.00000001
 43
0.00000001
 40
0.0
 40
0.0
 40
0.0
 40
0.0
 40
1.0
 40
1.0
 40
1.0
 40
1.0
 10
211.85476888020833
 20
115.80498996310763
 30
0.0
 10
211.71420898437498
 20
113.0971449110243
 30
0.0
 10
211.92057020399304
 20
110.38240966796874
 30
0.0
 10
212.46902940538192
 20
107.7269300672743
 30
0.0
  0
SPLINE
  5
187
100
AcDbEntity
  8
KOERPER
 62
     7
100
AcDbSpline
210
0.0
220
0.0
230
1.0
 70
     8
 71
     3
 72
     8
 73
     4
 74
     0
 42
0.00000001
 43
0.00000001
 40
0.0
 40
0.0
 40
0.0
 40
0.0
 40
1.0
 40
1.0
 40
1.0
 40
1.0
 10
214.1175075954861
 20
100.97264811197915
 30
0.0
 10
215.1189968532986
 20
105.77580023871526
 30
0.0
 10
215.40597330729165
 20
110.70039198133679
 30
0.0
 10
214.96879069010416
 20
115.58725992838541
 30
0.0
  0
SPLINE
  5
186
100
AcDbEntity
  8
KOERPER
 62
     7
100
AcDbSpline
210
0.0
220
0.0
230
1.0
 70
     8
 71
     3
 72
     8
 73
     4
 74
     0
 42
0.00000001
 43
0.00000001
 40
0.0
 40
0.0
 40
0.0
 40
0.0
 40
1.0
 40
1.0
 40
1.0
 40
1.0
 10
213.09362521701388
 20
115.58725992838541
 30
0.0
 10
212.75221625434025
 20
110.69177924262152
 30
0.0
 10
213.09672580295137
 20
105.77269965277777
 30
0.0
 10
214.1175075954861
 20
100.97264811197915
 30
0.0
  0
SPLINE
  5
185
100
AcDbEntity
  8
KOERPER
 62
     7
100
AcDbSpline
210
0.0
220
0.0
230
1.0
 70
     8
 71
     3
 72
    11
 73
     7
 74
     0
 42
0.00000001
 43
0.00000001
 40
0.0
 40
0.0
 40
0.0
 40
0.0
 40
1.0
 40
1.0
 40
1.0
 40
2.0
 40
2.0
 40
2.0
 40
2.0
 10
214.96879069010416
 20
115.58725992838541
 30
0.0
 10
214.96879069010416
 20
116.10505777994791
 30
0.0
 10
214.54917805989581
 20
116.52484266493055
 30
0.0
 10
214.0313802083333
 20
116.52484266493055
 30
0.0
 10
213.51358235677083
 20
116.52484266493055
 30
0.0
 10
213.09362521701388
 20
116.10505777994791
 30
0.0
 10
213.09362521701388
 20
115.58725992838541
 30
0.0
  0
SPLINE
  5
184
100
AcDbEntity
  8
KOERPER
 62
     7
100
AcDbSpline
210
0.0
220
0.0
230
1.0
 70
     8
 71
     3
 72
    11
 73
     7
 74
     0
 42
0.00000001
 43
0.00000001
 40
0.0
 40
0.0
 40
0.0
 40
0.0
 40
1.0
 40
1.0
 40
1.0
 40
2.0
 40
2.0
 40
2.0
 40
2.0
 10
216.21832682291665
 20
115.63359646267359
 30
0.0
 10
216.19283311631943
 20
116.84144694010416
 30
0.0
 10
215.19272189670136
 20
117.79987250434027
 30
0.0
 10
213.9848714192708
 20
117.77420654296874
 30
0.0
 10
212.79252387152775
 20
117.74905734592012
 30
0.0
 10
211.83995496961805
 20
116.77323404947916
 30
0.0
 10
211.84374457465276
 20
115.58054199218749
 30
0.0
  0
SPLINE
  5
183
100
AcDbEntity
  8
KOERPER
 62
     7
100
AcDbSpline
210
0.0
220
0.0
230
1.0
 70
     8
 71
     3
 72
     8
 73
     4
 74
     0
 42
0.00000001
 43
0.00000001
 40
0.0
 40
0.0
 40
0.0
 40
0.0
 40
1.0
 40
1.0
 40
1.0
 40
1.0
 10
214.1175075954861
 20
100.97264811197915
 30
0.0
 10
214.70214029947914
 20
98.342317708333326
 30
0.0
 10
215.3670437282986
 20
95.730590820312486
 30
0.0
 10
216.11083984374997
 20
93.140568033854152
 30
0.0
  0
SPLINE
  5
182
100
AcDbEntity
  8
KOERPER
 62
     7
100
AcDbSpline
210
0.0
220
0.0
230
1.0
 70
     8
 71
     3
 72
     8
 73
     4
 74
     0
 42
0.00000001
 43
0.00000001
 40
0.0
 40
0.0
 40
0.0
 40
0.0
 40
1.0
 40
1.0
 40
1.0
 40
1.0
 10
118.96552056206596
 20
107.07684054904513
 30
0.0
 10
117.31876491970485
 20
102.32829318576388
 30
0.0
 10
116.60752495659722
 20
97.305343967013883
 30
0.0
 10
116.87124701605902
 20
92.286184353298609
 30
0.0
  0
SPLINE
  5
181
100
AcDbEntity
  8
KOERPER
 62
     7
100
AcDbSpline
210
0.0
220
0.0
230
1.0
 70
     8
 71
     3
 72
     8
 73
     4
 74
     0
 42
0.00000001
 43
0.00000001
 40
0.0
 40
0.0
 40
0.0
 40
0.0
 40
1.0
 40
1.0
 40
1.0
 40
1.0
 10
118.96552056206596
 20
107.07684054904513
 30
0.0
 10
118.3807156032986
 20
109.70717095269096
 30
0.0
 10
117.71598442925347
 20
112.3188978407118
 30
0.0
 10
116.97218831380208
 20
114.90874837239582
 30
0.0
  0
SPLINE
  5
180
100
AcDbEntity
  8
KOERPER
 62
     7
100
AcDbSpline
210
0.0
220
0.0
230
1.0
 70
     8
 71
     3
 72
     8
 73
     4
 74
     0
 42
0.00000001
 43
0.00000001
 40
0.0
 40
0.0
 40
0.0
 40
0.0
 40
1.0
 40
1.0
 40
1.0
 40
1.0
 10
215.28987358940969
 20
90.673190646701386
 30
0.0
 10
215.95133192274304
 20
91.354286024305551
 30
0.0
 10
216.24519856770831
 20
92.311678059895826
 30
0.0
 10
216.08052300347219
 20
93.246676974826386
 30
0.0
  0
SPLINE
  5
17F
100
AcDbEntity
  8
KOERPER
 62
     7
100
AcDbSpline
210
0.0
220
0.0
230
1.0
 70
     8
 71
     3
 72
     8
 73
     4
 74
     0
 42
0.00000001
 43
0.00000001
 40
0.0
 40
0.0
 40
0.0
 40
0.0
 40
1.0
 40
1.0
 40
1.0
 40
1.0
 10
214.0313802083333
 20
90.274937608506931
 30
0.0
 10
214.48165418836803
 20
90.274937608506931
 30
0.0
 10
214.92124837239581
 20
90.413774956597209
 30
0.0
 10
215.28987358940969
 20
90.673190646701386
 30
0.0
  0
SPLINE
  5
17E
100
AcDbEntity
  8
KOERPER
 62
     7
100
AcDbSpline
210
0.0
220
0.0
230
1.0
 70
     8
 71
     3
 72
     8
 73
     4
 74
     0
 42
0.00000001
 43
0.00000001
 40
0.0
 40
0.0
 40
0.0
 40
0.0
 40
1.0
 40
1.0
 40
1.0
 40
1.0
 10
119.05182020399305
 20
117.77472330729165
 30
0.0
 10
118.60120171440971
 20
117.77472330729165
 30
0.0
 10
118.16160753038193
 20
117.63571370442708
 30
0.0
 10
117.79315456814236
 20
117.37647026909721
 30
0.0
  0
SPLINE
  5
17D
100
AcDbEntity
  8
KOERPER
 62
     7
100
AcDbSpline
210
0.0
220
0.0
230
1.0
 70
     8
 71
     3
 72
     8
 73
     4
 74
     0
 42
0.00000001
 43
0.00000001
 40
0.0
 40
0.0
 40
0.0
 40
0.0
 40
1.0
 40
1.0
 40
1.0
 40
1.0
 10
117.79315456814236
 20
117.37647026909721
 30
0.0
 10
117.13186848958333
 20
116.69520263671873
 30
0.0
 10
116.83765733506944
 20
115.73798285590277
 30
0.0
 10
117.00250515407986
 20
114.80298394097221
 30
0.0
  0
SPLINE
  5
17C
100
AcDbEntity
  8
KOERPER
 62
     7
100
AcDbSpline
210
0.0
220
0.0
230
1.0
 70
     8
 71
     3
 72
     8
 73
     4
 74
     0
 42
0.00000001
 43
0.00000001
 40
0.0
 40
0.0
 40
0.0
 40
0.0
 40
1.0
 40
1.0
 40
1.0
 40
1.0
 10
119.98923068576387
 20
92.462228732638877
 30
0.0
 10
120.3308119032118
 20
97.357709418402763
 30
0.0
 10
119.98613009982638
 20
102.27696126302082
 30
0.0
 10
118.96552056206596
 20
107.07684054904513
 30
0.0
  0
SPLINE
  5
17B
100
AcDbEntity
  8
KOERPER
 62
     7
100
AcDbSpline
210
0.0
220
0.0
230
1.0
 70
     8
 71
     3
 72
     8
 73
     4
 74
     0
 42
0.00000001
 43
0.00000001
 40
0.0
 40
0.0
 40
0.0
 40
0.0
 40
1.0
 40
1.0
 40
1.0
 40
1.0
 10
121.22843153211805
 20
92.244498697916654
 30
0.0
 10
121.36881917317707
 20
94.952343749999997
 30
0.0
 10
121.16228569878471
 20
97.66707899305554
 30
0.0
 10
120.61382649739582
 20
100.32255859374999
 30
0.0
  0
SPLINE
  5
17A
100
AcDbEntity
  8
KOERPER
 62
     7
100
AcDbSpline
210
0.0
220
0.0
230
1.0
 70
     8
 71
     3
 72
     8
 73
     4
 74
     0
 42
0.00000001
 43
0.00000001
 40
0.0
 40
0.0
 40
0.0
 40
0.0
 40
1.0
 40
1.0
 40
1.0
 40
1.0
 10
118.96552056206596
 20
107.07684054904513
 30
0.0
 10
117.96385904947915
 20
102.27386067708332
 30
0.0
 10
117.6770548502604
 20
97.349096679687491
 30
0.0
 10
118.11423746744791
 20
92.462228732638877
 30
0.0
  0
SPLINE
  5
179
100
AcDbEntity
  8
KOERPER
 62
     7
100
AcDbSpline
210
0.0
220
0.0
230
1.0
 70
     8
 71
     3
 72
     8
 73
     4
 74
     0
 42
0.00000001
 43
0.00000001
 40
0.0
 40
0.0
 40
0.0
 40
0.0
 40
1.0
 40
1.0
 40
1.0
 40
1.0
 10
120.70753309461804
 20
99.850925021701386
 30
0.0
 10
120.23142089843749
 20
102.28350694444444
 30
0.0
 10
119.65023328993054
 20
104.69438476562499
 30
0.0
 10
118.96552056206596
 20
107.07684054904513
 30
0.0
  0
SPLINE
  5
178
100
AcDbEntity
  8
KOERPER
 62
     7
100
AcDbSpline
210
0.0
220
0.0
230
1.0
 70
     8
 71
     3
 72
    11
 73
     7
 74
     0
 42
0.00000001
 43
0.00000001
 40
0.0
 40
0.0
 40
0.0
 40
0.0
 40
1.0
 40
1.0
 40
1.0
 40
2.0
 40
2.0
 40
2.0
 40
2.0
 10
118.11423746744791
 20
92.462228732638877
 30
0.0
 10
118.11423746744791
 20
91.944430881076386
 30
0.0
 10
118.53402235243054
 20
91.524818250868051
 30
0.0
 10
119.05182020399305
 20
91.524818250868051
 30
0.0
 10
119.56944580078124
 20
91.524818250868051
 30
0.0
 10
119.98923068576387
 20
91.944430881076386
 30
0.0
 10
119.98923068576387
 20
92.462228732638877
 30
0.0
  0
SPLINE
  5
177
100
AcDbEntity
  8
KOERPER
 62
     7
100
AcDbSpline
210
0.0
220
0.0
230
1.0
 70
     8
 71
     3
 72
    11
 73
     7
 74
     0
 42
0.00000001
 43
0.00000001
 40
0.0
 40
0.0
 40
0.0
 40
0.0
 40
1.0
 40
1.0
 40
1.0
 40
2.0
 40
2.0
 40
2.0
 40
2.0
 10
116.86470133463541
 20
92.416064453124989
 30
0.0
 10
116.89036729600693
 20
91.208213975694434
 30
0.0
 10
117.89013400607638
 20
90.249788411458326
 30
0.0
 10
119.09798448350693
 20
90.275282118055543
 30
0.0
 10
120.2905042860243
 20
90.300431315104163
 30
0.0
 10
121.24290093315972
 20
91.27642686631944
 30
0.0
 10
121.23928358289929
 20
92.469118923611106
 30
0.0
  0
LINE
  5
176
100
AcDbEntity
  8
KOERPER
 62
     7
100
AcDbLine
 10
202.956087
 20
125.274868
 30
0.0
 11
128.159275
 21
125.274868
 31
0.0
  0
LINE
  5
175
100
AcDbEntity
  8
KOERPER
 62
     7
100
AcDbLine
 10
202.956087
 20
82.774965
 30
0.0
 11
128.159275
 21
82.774965
 31
0.0
  0
LINE
  5
174
100
AcDbEntity
  8
KOERPER
 62
     7
100
AcDbLine
 10
202.956087
 20
129.191425
 30
0.0
 11
128.159275
 21
129.191425
 31
0.0
  0
LINE
  5
173
100
AcDbEntity
  8
KOERPER
 62
     7
100
AcDbLine
 10
202.956087
 20
82.774965
 30
0.0
 11
128.159275
 21
82.774965
 31
0.0
  0
LINE
  5
172
100
AcDbEntity
  8
KOERPER
 62
     7
100
AcDbLine
 10
202.956087
 20
78.858236
 30
0.0
 11
128.159275
 21
78.858236
 31
0.0
  0
LINE
  5
171
100
AcDbEntity
  8
KOERPER
 62
     7
100
AcDbLine
 10
142.956132
 20
79.024978
 30
0.0
 11
142.956132
 21
41.524769
 31
0.0
  0
LINE
  5
170
100
AcDbEntity
  8
KOERPER
 62
     7
100
AcDbLine
 10
128.159275
 20
90.274938
 30
0.0
 11
128.159275
 21
77.867771
 31
0.0
  0
LINE
  5
16F
100
AcDbEntity
  8
KOERPER
 62
     7
100
AcDbLine
 10
132.331113
 20
77.774753
 30
0.0
 11
128.159275
 21
77.774753
 31
0.0
  0
LINE
  5
16E
100
AcDbEntity
  8
KOERPER
 62
     7
100
AcDbLine
 10
202.956087
 20
41.524769
 30
0.0
 11
202.956087
 21
90.274938
 31
0.0
  0
LINE
  5
16D
100
AcDbEntity
  8
KOERPER
 62
     7
100
AcDbLine
 10
142.956132
 20
166.524719
 30
0.0
 11
142.956132
 21
129.024855
 31
0.0
  0
LINE
  5
16C
100
AcDbEntity
  8
KOERPER
 62
     7
100
AcDbLine
 10
140.456026
 20
139.517065
 30
0.0
 11
140.456026
 21
166.524719
 31
0.0
  0
SPLINE
  5
16B
100
AcDbEntity
  8
KOERPER
 62
     7
100
AcDbSpline
210
0.0
220
0.0
230
1.0
 70
     8
 71
     3
 72
     8
 73
     4
 74
     0
 42
0.00000001
 43
0.00000001
 40
0.0
 40
0.0
 40
0.0
 40
0.0
 40
1.0
 40
1.0
 40
1.0
 40
1.0
 10
132.33111300998263
 20
77.774753146701386
 30
0.0
 10
137.00128445095484
 20
77.219059244791666
 30
0.0
 10
140.5033962673611
 20
73.235495334201389
 30
0.0
 10
140.45602620442708
 20
68.532595486111106
 30
0.0
  0
LINE
  5
16A
100
AcDbEntity
  8
KOERPER
 62
     7
100
AcDbLine
 10
140.456026
 20
68.532595
 30
0.0
 11
140.456026
 21
41.524769
 31
0.0
  0
LINE
  5
169
100
AcDbEntity
  8
KOERPER
 62
     7
100
AcDbLine
 10
132.331113
 20
77.774753
 30
0.0
 11
128.159275
 21
77.774753
 31
0.0
  0
LINE
  5
167
100
AcDbEntity
  8
RAUHEIT
  6
AI9-LType3
 62
     7
100
AcDbLine
 10
202.729744
 20
125.09469
 30
0.0
 11
128.448663
 21
125.09469
 31
0.0
  0
LINE
  5
166
100
AcDbEntity
  8
RAUHEIT
  6
AI9-LType3
 62
     7
100
AcDbLine
 10
202.670833
 20
118.039307
 30
0.0
 11
128.389752
 21
118.039307
 31
0.0
  0
LINE
  5
165
100
AcDbEntity
  8
RAUHEIT
  6
AI9-LType3
 62
     7
100
AcDbLine
 10
202.759028
 20
90.081668
 30
0.0
 11
128.5875
 21
90.081668
 31
0.0
  0
LINE
  5
164
100
AcDbEntity
  8
RAUHEIT
  6
AI9-LType3
 62
     7
100
AcDbLine
 10
202.905789
 20
82.996829
 30
0.0
 11
128.624707
 21
82.996829
 31
0.0
  0
HATCH
  5
161
100
AcDbEntity
  8
BITUMEN
 62
     7
100
AcDbHatch
 10
0.0
 20
0.0
 30
0.0
210
0.0
220
0.0
230
1.0
  2
SOLID
 70
     1
 71
     0
 91
        4
 92
        1
 93
        1
 72
     4
 94
        3
 73
     0
 74
     0
 95
       23
 96
       19
 40
0.0
 40
0.0
 40
0.0
 40
0.0
 40
1.0
 40
1.0
 40
1.0
 40
2.0
 40
2.0
 40
2.0
 40
3.0
 40
3.0
 40
3.0
 40
4.0
 40
4.0
 40
4.0
 40
5.0
 40
5.0
 40
5.0
 40
6.0
 40
6.0
 40
6.0
 40
6.0
 10
138.19501003689234
 20
133.37773301866318
 10
138.19501003689234
 20
133.37773301866318
 10
142.95613199869791
 20
133.37773301866318
 10
142.95613199869791
 20
133.37773301866318
 10
142.95613199869791
 20
133.37773301866318
 10
142.95613199869791
 20
129.02485487196179
 10
142.95613199869791
 20
129.02485487196179
 10
142.95613199869791
 20
129.02485487196179
 10
128.15927463107639
 20
129.02485487196179
 10
128.15927463107639
 20
129.02485487196179
 10
128.15927463107639
 20
129.02485487196179
 10
128.1628919813368
 20
130.27473551432291
 10
128.1628919813368
 20
130.27473551432291
 10
128.1628919813368
 20
130.27473551432291
 10
132.33111300998263
 20
130.27473551432291
 10
132.33111300998263
 20
130.27473551432291
 10
134.6031534830729
 20
130.54517550998261
 10
136.69346516927081
 20
131.6512234157986
 10
138.19501003689234
 20
133.37773301866318
 97
        0
 92
        1
 93
        1
 72
     4
 94
        3
 73
     0
 74
     0
 95
       20
 96
       16
 40
0.0
 40
0.0
 40
0.0
 40
0.0
 40
1.0
 40
1.0
 40
1.0
 40
2.0
 40
2.0
 40
2.0
 40
3.0
 40
3.0
 40
3.0
 40
4.0
 40
4.0
 40
4.0
 40
5.0
 40
5.0
 40
5.0
 40
5.0
 10
140.45602620442708
 20
142.08348931206595
 10
140.45602620442708
 20
142.08348931206595
 10
142.95613199869791
 20
142.08348931206595
 10
142.95613199869791
 20
142.08348931206595
 10
142.95613199869791
 20
142.08348931206595
 10
142.95613199869791
 20
137.73061116536456
 10
142.95613199869791
 20
137.73061116536456
 10
142.95613199869791
 20
137.73061116536456
 10
140.29944661458333
 20
137.73061116536456
 10
140.29944661458333
 20
137.73061116536456
 10
140.40968967013887
 20
138.31955023871527
 10
140.46205512152775
 20
138.91796332465276
 10
140.45602620442708
 20
139.51706542968748
 10
140.45602620442708
 20
139.51706542968748
 10
140.45602620442708
 20
142.08348931206595
 10
140.45602620442708
 20
142.08348931206595
 97
        0
 92
        1
 93
        1
 72
     4
 94
        3
 73
     0
 74
     0
 95
       20
 96
       16
 40
0.0
 40
0.0
 40
0.0
 40
0.0
 40
1.0
 40
1.0
 40
1.0
 40
2.0
 40
2.0
 40
2.0
 40
3.0
 40
3.0
 40
3.0
 40
4.0
 40
4.0
 40
4.0
 40
5.0
 40
5.0
 40
5.0
 40
5.0
 10
140.45602620442708
 20
150.78941786024305
 10
140.45602620442708
 20
150.78941786024305
 10
142.95613199869791
 20
150.78941786024305
 10
142.95613199869791
 20
150.78941786024305
 10
142.95613199869791
 20
150.78941786024305
 10
142.95613199869791
 20
146.43653971354166
 10
142.95613199869791
 20
146.43653971354166
 10
142.95613199869791
 20
146.43653971354166
 10
141.70607910156249
 20
146.43653971354166
 10
141.70607910156249
 20
146.43653971354166
 10
141.70607910156249
 20
146.43653971354166
 10
140.45602620442708
 20
146.43653971354166
 10
140.45602620442708
 20
146.43653971354166
 10
140.45602620442708
 20
146.43653971354166
 10
140.45602620442708
 20
150.78941786024305
 10
140.45602620442708
 20
150.78941786024305
 97
        0
 92
        1
 93
        1
 72
     4
 94
        3
 73
     0
 74
     0
 95
       17
 96
       13
 40
0.0
 40
0.0
 40
0.0
 40
0.0
 40
1.0
 40
1.0
 40
1.0
 40
2.0
 40
2.0
 40
2.0
 40
3.0
 40
3.0
 40
3.0
 40
4.0
 40
4.0
 40
4.0
 40
4.0
 10
140.45602620442708
 20
159.49534640842012
 10
140.45602620442708
 20
159.49534640842012
 10
142.95613199869791
 20
159.49534640842012
 10
142.95613199869791
 20
159.49534640842012
 10
142.95613199869791
 20
159.49534640842012
 10
142.95613199869791
 20
155.14229600694443
 10
142.95613199869791
 20
155.14229600694443
 10
142.95613199869791
 20
155.14229600694443
 10
140.45602620442708
 20
155.14229600694443
 10
140.45602620442708
 20
155.14229600694443
 10
140.45602620442708
 20
155.14229600694443
 10
140.45602620442708
 20
159.49534640842012
 10
140.45602620442708
 20
159.49534640842012
 97
        0
 75
     0
 76
     1
 98
        1
 10
0.0
 20
0.0
  0
HATCH
  5
160
100
AcDbEntity
  8
BITUMEN
 62
     7
100
AcDbHatch
 10
0.0
 20
0.0
 30
0.0
210
0.0
220
0.0
230
1.0
  2
SOLID
 70
     1
 71
     0
 91
        1
 92
        3
 72
     0
 73
     1
 93
        4
 10
142.95613199869791
 20
166.52471923828122
 10
140.45602620442708
 20
166.52471923828122
 10
140.45602620442708
 20
163.8482245551215
 10
142.95613199869791
 20
163.8482245551215
 97
        0
 75
     0
 76
     1
 98
        1
 10
0.0
 20
0.0
  0
HATCH
  5
15F
100
AcDbEntity
  8
BITUMEN
 62
     7
100
AcDbHatch
 10
0.0
 20
0.0
 30
0.0
210
0.0
220
0.0
230
1.0
  2
SOLID
 70
     1
 71
     0
 91
        4
 92
       16
 93
        1
 72
     4
 94
        3
 73
     0
 74
     0
 95
       23
 96
       19
 40
0.0
 40
0.0
 40
0.0
 40
0.0
 40
1.0
 40
1.0
 40
1.0
 40
2.0
 40
2.0
 40
2.0
 40
3.0
 40
3.0
 40
3.0
 40
4.0
 40
4.0
 40
4.0
 40
5.0
 40
5.0
 40
5.0
 40
6.0
 40
6.0
 40
6.0
 40
6.0
 10
138.19501003689234
 20
74.672100151909717
 10
138.19501003689234
 20
74.672100151909717
 10
142.95613199869791
 20
74.672100151909717
 10
142.95613199869791
 20
74.672100151909717
 10
142.95613199869791
 20
74.672100151909717
 10
142.95613199869791
 20
79.024978298611103
 10
142.95613199869791
 20
79.024978298611103
 10
142.95613199869791
 20
79.024978298611103
 10
128.15927463107639
 20
79.024978298611103
 10
128.15927463107639
 20
79.024978298611103
 10
128.15927463107639
 20
79.024978298611103
 10
128.1628919813368
 20
77.774753146701386
 10
128.1628919813368
 20
77.774753146701386
 10
128.1628919813368
 20
77.774753146701386
 10
132.33111300998263
 20
77.774753146701386
 10
132.33111300998263
 20
77.774753146701386
 10
134.6031534830729
 20
77.504657660590269
 10
136.69346516927081
 20
76.3984375
 10
138.19501003689234
 20
74.672100151909717
 97
        0
 92
       16
 93
        1
 72
     4
 94
        3
 73
     0
 74
     0
 95
       20
 96
       16
 40
0.0
 40
0.0
 40
0.0
 40
0.0
 40
1.0
 40
1.0
 40
1.0
 40
2.0
 40
2.0
 40
2.0
 40
3.0
 40
3.0
 40
3.0
 40
4.0
 40
4.0
 40
4.0
 40
5.0
 40
5.0
 40
5.0
 40
5.0
 10
140.45602620442708
 20
65.965999348958334
 10
140.45602620442708
 20
65.965999348958334
 10
142.95613199869791
 20
65.965999348958334
 10
142.95613199869791
 20
65.965999348958334
 10
142.95613199869791
 20
65.965999348958334
 10
142.95613199869791
 20
70.31887749565972
 10
142.95613199869791
 20
70.31887749565972
 10
142.95613199869791
 20
70.31887749565972
 10
140.29944661458333
 20
70.31887749565972
 10
140.29944661458333
 20
70.31887749565972
 10
140.40968967013887
 20
69.730110677083331
 10
140.46205512152775
 20
69.131697591145823
 10
140.45602620442708
 20
68.532595486111106
 10
140.45602620442708
 20
68.532595486111106
 10
140.45602620442708
 20
65.965999348958334
 10
140.45602620442708
 20
65.965999348958334
 97
        0
 92
       16
 93
        1
 72
     4
 94
        3
 73
     0
 74
     0
 95
       20
 96
       16
 40
0.0
 40
0.0
 40
0.0
 40
0.0
 40
1.0
 40
1.0
 40
1.0
 40
2.0
 40
2.0
 40
2.0
 40
3.0
 40
3.0
 40
3.0
 40
4.0
 40
4.0
 40
4.0
 40
5.0
 40
5.0
 40
5.0
 40
5.0
 10
140.45602620442708
 20
57.260243055555549
 10
140.45602620442708
 20
57.260243055555549
 10
142.95613199869791
 20
57.260243055555549
 10
142.95613199869791
 20
57.260243055555549
 10
142.95613199869791
 20
57.260243055555549
 10
142.95613199869791
 20
61.613121202256941
 10
142.95613199869791
 20
61.613121202256941
 10
142.95613199869791
 20
61.613121202256941
 10
141.70607910156249
 20
61.613121202256941
 10
141.70607910156249
 20
61.613121202256941
 10
141.70607910156249
 20
61.613121202256941
 10
140.45602620442708
 20
61.613121202256941
 10
140.45602620442708
 20
61.613121202256941
 10
140.45602620442708
 20
61.613121202256941
 10
140.45602620442708
 20
57.260243055555549
 10
140.45602620442708
 20
57.260243055555549
 97
        0
 92
       16
 93
        1
 72
     4
 94
        3
 73
     0
 74
     0
 95
       17
 96
       13
 40
0.0
 40
0.0
 40
0.0
 40
0.0
 40
1.0
 40
1.0
 40
1.0
 40
2.0
 40
2.0
 40
2.0
 40
3.0
 40
3.0
 40
3.0
 40
4.0
 40
4.0
 40
4.0
 40
4.0
 10
140.45602620442708
 20
48.55448676215277
 10
140.45602620442708
 20
48.55448676215277
 10
142.95613199869791
 20
48.55448676215277
 10
142.95613199869791
 20
48.55448676215277
 10
142.95613199869791
 20
48.55448676215277
 10
142.95613199869791
 20
52.907364908854163
 10
142.95613199869791
 20
52.907364908854163
 10
142.95613199869791
 20
52.907364908854163
 10
140.45602620442708
 20
52.907364908854163
 10
140.45602620442708
 20
52.907364908854163
 10
140.45602620442708
 20
52.907364908854163
 10
140.45602620442708
 20
48.55448676215277
 10
140.45602620442708
 20
48.55448676215277
 97
        0
 75
     0
 76
     1
 98
        1
 10
0.0
 20
0.0
  0
HATCH
  5
15E
100
AcDbEntity
  8
BITUMEN
 62
     7
100
AcDbHatch
 10
0.0
 20
0.0
 30
0.0
210
0.0
220
0.0
230
1.0
  2
SOLID
 70
     1
 71
     0
 91
        1
 92
        3
 72
     0
 73
     1
 93
        4
 10
142.95613199869791
 20
41.524769422743049
 10
140.45602620442708
 20
41.524769422743049
 10
140.45602620442708
 20
44.201608615451384
 10
142.95613199869791
 20
44.201608615451384
 97
        0
 75
     0
 76
     1
 98
        1
 10
0.0
 20
0.0
  0
INSERT
  5
11D
100
AcDbEntity
  8
ROHRSCHRAFFUR
 62
     7
100
AcDbBlockReference
  2
AI9-BLK2
 10
119.006
 20
98.685708
 30
0.0
  0
INSERT
  5
DC
100
AcDbEntity
  8
ROHRSCHRAFFUR
  6
AI9-LType2
 62
     7
100
AcDbBlockReference
  2
AI9-BLK1
 10
214.158332
 20
109.50615
 30
0.0
  0
LINE
  5
D9
100
AcDbEntity
  8
GETRENNT
  6
AI9-LType2
 62
     7
100
AcDbLine
 10
140.456026
 20
41.391789
 30
0.0
 11
203.027056
 21
41.391789
 31
0.0
  0
LINE
  5
D8
100
AcDbEntity
  8
GETRENNT
  6
AI9-LType2
 62
     7
100
AcDbLine
 10
202.956087
 20
166.524719
 30
0.0
 11
140.456026
 21
166.524719
 31
0.0
  0
POLYLINE
  5
D0
100
AcDbEntity
  8
SCHRAFFUR
 62
     7
100
AcDb2dPolyline
 66
     1
 10
0.0
 20
0.0
 30
0.0
 70
     1
  0
VERTEX
  5
D1
100
AcDbEntity
  8
SCHRAFFUR
 62
     7
100
AcDbVertex
100
AcDb2dVertex
 10
128.181323
 20
125.24059
 30
0.0
  0
VERTEX
  5
D2
100
AcDbEntity
  8
SCHRAFFUR
 62
     7
100
AcDbVertex
100
AcDb2dVertex
 10
202.842744
 20
125.24059
 30
0.0
  0
VERTEX
  5
D3
100
AcDbEntity
  8
SCHRAFFUR
 62
     7
100
AcDbVertex
100
AcDb2dVertex
 10
202.842744
 20
118.527304
 30
0.0
  0
VERTEX
  5
D4
100
AcDbEntity
  8
SCHRAFFUR
 62
     7
100
AcDbVertex
100
AcDb2dVertex
 10
128.181323
 20
118.527304
 30
0.0
  0
SEQEND
  5
D5
100
AcDbEntity
  8
SCHRAFFUR
 62
     7
  0
HATCH
  5
CF
100
AcDbEntity
  8
SCHRAFFUR
 62
     7
100
AcDbHatch
 10
0.0
 20
0.0
 30
0.0
210
0.0
220
0.0
230
1.0
  2
_U
 70
     0
 71
     0
 91
        1
 92
        3
 72
     0
 73
     1
 93
        4
 10
128.18132324218749
 20
125.24058973524305
 10
202.84274359809027
 20
125.24058973524305
 10
202.84274359809027
 20
118.52730441623262
 10
128.18132324218749
 20
118.52730441623262
 97
        0
 75
     0
 76
     0
 52
45.0
 41
2.0
 77
     0
 78
     1
 53
45.0
 43
0.0
 44
0.0
 45
-1.4142135623730949
 46
1.4142135623730951
 79
     0
 98
        1
 10
0.0
 20
0.0
  0
LINE
  5
CE
100
AcDbEntity
  8
SCHRAFFUR
 62
     7
100
AcDbLine
 10
139.298991
 20
133.377733
 30
0.0
 11
142.956132
 21
133.377733
 31
0.0
  0
LINE
  5
CD
100
AcDbEntity
  8
SCHRAFFUR
 62
     7
100
AcDbLine
 10
142.956132
 20
129.024855
 30
0.0
 11
128.159275
 21
129.024855
 31
0.0
  0
LINE
  5
CC
100
AcDbEntity
  8
SCHRAFFUR
 62
     7
100
AcDbLine
 10
128.159275
 20
129.024855
 30
0.0
 11
128.162892
 21
130.274736
 31
0.0
  0
LINE
  5
CB
100
AcDbEntity
  8
SCHRAFFUR
 62
     7
100
AcDbLine
 10
142.956132
 20
133.377733
 30
0.0
 11
138.19501
 21
133.377733
 31
0.0
  0
LINE
  5
CA
100
AcDbEntity
  8
SCHRAFFUR
 62
     7
100
AcDbLine
 10
142.956132
 20
41.524769
 30
0.0
 11
142.956132
 21
79.024978
 31
0.0
  0
LINE
  5
C9
100
AcDbEntity
  8
SCHRAFFUR
 62
     7
100
AcDbLine
 10
142.956132
 20
79.024978
 30
0.0
 11
128.159275
 21
79.024978
 31
0.0
  0
LINE
  5
C8
100
AcDbEntity
  8
SCHRAFFUR
 62
     7
100
AcDbLine
 10
128.159275
 20
79.024978
 30
0.0
 11
128.162892
 21
77.774753
 31
0.0
  0
LINE
  5
C7
100
AcDbEntity
  8
SCHRAFFUR
 62
     7
100
AcDbLine
 10
142.956132
 20
74.6721
 30
0.0
 11
138.19501
 21
74.6721
 31
0.0
  0
LINE
  5
C6
100
AcDbEntity
  8
SCHRAFFUR
 62
     7
100
AcDbLine
 10
139.298991
 20
74.6721
 30
0.0
 11
142.956132
 21
74.6721
 31
0.0
  0
POLYLINE
  5
C0
100
AcDbEntity
  8
SCHRAFFUR
 62
     7
100
AcDb2dPolyline
 66
     1
 10
0.0
 20
0.0
 30
0.0
 70
     1
  0
VERTEX
  5
C1
100
AcDbEntity
  8
SCHRAFFUR
 62
     7
100
AcDbVertex
100
AcDb2dVertex
 10
128.181323
 20
125.214924
 30
0.0
  0
VERTEX
  5
C2
100
AcDbEntity
  8
SCHRAFFUR
 62
     7
100
AcDbVertex
100
AcDb2dVertex
 10
202.842744
 20
125.214924
 30
0.0
  0
VERTEX
  5
C3
100
AcDbEntity
  8
SCHRAFFUR
 62
     7
100
AcDbVertex
100
AcDb2dVertex
 10
202.842744
 20
117.935609
 30
0.0
  0
VERTEX
  5
C4
100
AcDbEntity
  8
SCHRAFFUR
 62
     7
100
AcDbVertex
100
AcDb2dVertex
 10
128.181323
 20
117.935609
 30
0.0
  0
SEQEND
  5
C5
100
AcDbEntity
  8
SCHRAFFUR
 62
     7
  0
POLYLINE
  5
BA
100
AcDbEntity
  8
SCHRAFFUR
 62
     7
100
AcDb2dPolyline
 66
     1
 10
0.0
 20
0.0
 30
0.0
 70
     1
  0
VERTEX
  5
BB
100
AcDbEntity
  8
SCHRAFFUR
 62
     7
100
AcDbVertex
100
AcDb2dVertex
 10
128.159275
 20
90.085802
 30
0.0
  0
VERTEX
  5
BC
100
AcDbEntity
  8
SCHRAFFUR
 62
     7
100
AcDbVertex
100
AcDb2dVertex
 10
202.820695
 20
90.085802
 30
0.0
  0
VERTEX
  5
BD
100
AcDbEntity
  8
SCHRAFFUR
 62
     7
100
AcDbVertex
100
AcDb2dVertex
 10
202.820695
 20
82.774965
 30
0.0
  0
VERTEX
  5
BE
100
AcDbEntity
  8
SCHRAFFUR
 62
     7
100
AcDbVertex
100
AcDb2dVertex
 10
128.159275
 20
82.774965
 30
0.0
  0
SEQEND
  5
BF
100
AcDbEntity
  8
SCHRAFFUR
 62
     7
  0
HATCH
  5
B9
100
AcDbEntity
  8
SCHRAFFUR
 62
     7
100
AcDbHatch
 10
0.0
 20
0.0
 30
0.0
210
0.0
220
0.0
230
1.0
  2
_U
 70
     0
 71
     0
 91
        1
 92
        3
 72
     0
 73
     1
 93
        4
 10
128.15927463107639
 20
90.085801866319443
 10
202.82069498697913
 20
90.085801866319443
 10
202.82069498697913
 20
82.774964735243046
 10
128.15927463107639
 20
82.774964735243046
 97
        0
 75
     0
 76
     0
 52
45.0
 41
2.0
 77
     0
 78
     1
 53
45.0
 43
0.0
 44
0.0
 45
-1.4142135623730949
 46
1.4142135623730951
 79
     0
 98
        1
 10
0.0
 20
0.0
  0
LINE
  5
B8
100
AcDbEntity
  8
SCHRAFFUR
 62
     7
100
AcDbLine
 10
146.60156
 20
129.191425
 30
0.0
 11
142.956132
 21
132.836853
 31
0.0
  0
LINE
  5
B7
100
AcDbEntity
  8
SCHRAFFUR
 62
     7
100
AcDbLine
 10
157.827059
 20
129.191425
 30
0.0
 11
142.956132
 21
144.06218
 31
0.0
  0
LINE
  5
B6
100
AcDbEntity
  8
SCHRAFFUR
 62
     7
100
AcDbLine
 10
169.052214
 20
129.191425
 30
0.0
 11
142.956132
 21
155.287507
 31
0.0
  0
LINE
  5
B5
100
AcDbEntity
  8
SCHRAFFUR
 62
     7
100
AcDbLine
 10
180.277713
 20
129.191425
 30
0.0
 11
142.956132
 21
166.512834
 31
0.0
  0
LINE
  5
B4
100
AcDbEntity
  8
SCHRAFFUR
 62
     7
100
AcDbLine
 10
191.502867
 20
129.191425
 30
0.0
 11
154.169401
 21
166.524719
 31
0.0
  0
LINE
  5
B3
100
AcDbEntity
  8
SCHRAFFUR
 62
     7
100
AcDbLine
 10
202.728366
 20
129.191425
 30
0.0
 11
165.3949
 21
166.524719
 31
0.0
  0
LINE
  5
B2
100
AcDbEntity
  8
SCHRAFFUR
 62
     7
100
AcDbLine
 10
202.956087
 20
140.188859
 30
0.0
 11
176.620055
 21
166.524719
 31
0.0
  0
LINE
  5
B1
100
AcDbEntity
  8
SCHRAFFUR
 62
     7
100
AcDbLine
 10
202.956087
 20
151.414186
 30
0.0
 11
187.845554
 21
166.524719
 31
0.0
  0
LINE
  5
B0
100
AcDbEntity
  8
SCHRAFFUR
 62
     7
100
AcDbLine
 10
202.956087
 20
162.639513
 30
0.0
 11
199.070709
 21
166.524719
 31
0.0
  0
LINE
  5
AF
100
AcDbEntity
  8
SCHRAFFUR
 62
     7
100
AcDbLine
 10
146.60156
 20
41.536827
 30
0.0
 11
142.956132
 21
45.182427
 31
0.0
  0
LINE
  5
AE
100
AcDbEntity
  8
SCHRAFFUR
 62
     7
100
AcDbLine
 10
157.827059
 20
41.536827
 30
0.0
 11
142.956132
 21
56.407582
 31
0.0
  0
LINE
  5
AD
100
AcDbEntity
  8
SCHRAFFUR
 62
     7
100
AcDbLine
 10
169.052214
 20
41.536827
 30
0.0
 11
142.956132
 21
67.633081
 31
0.0
  0
LINE
  5
AC
100
AcDbEntity
  8
SCHRAFFUR
 62
     7
100
AcDbLine
 10
180.277713
 20
41.536827
 30
0.0
 11
142.956132
 21
78.858236
 31
0.0
  0
LINE
  5
AB
100
AcDbEntity
  8
SCHRAFFUR
 62
     7
100
AcDbLine
 10
191.502867
 20
41.536827
 30
0.0
 11
154.169401
 21
78.870294
 31
0.0
  0
LINE
  5
AA
100
AcDbEntity
  8
SCHRAFFUR
 62
     7
100
AcDbLine
 10
202.728366
 20
41.536827
 30
0.0
 11
165.3949
 21
78.870294
 31
0.0
  0
LINE
  5
A9
100
AcDbEntity
  8
SCHRAFFUR
 62
     7
100
AcDbLine
 10
202.956087
 20
52.534261
 30
0.0
 11
176.620055
 21
78.870294
 31
0.0
  0
LINE
  5
A8
100
AcDbEntity
  8
SCHRAFFUR
 62
     7
100
AcDbLine
 10
202.956087
 20
63.759416
 30
0.0
 11
187.845554
 21
78.870294
 31
0.0
  0
LINE
  5
A7
100
AcDbEntity
  8
SCHRAFFUR
 62
     7
100
AcDbLine
 10
202.956087
 20
74.984915
 30
0.0
 11
199.070709
 21
78.870294
 31
0.0
  0
LINE
  5
A6
100
AcDbEntity
  8
SCHRAFFUR
 62
     7
100
AcDbLine
 10
128.159275
 20
128.620401
 30
0.0
 11
128.563729
 21
129.024855
 31
0.0
  0
LINE
  5
A5
100
AcDbEntity
  8
SCHRAFFUR
 62
     7
100
AcDbLine
 10
128.159275
 20
126.93661
 30
0.0
 11
130.247519
 21
129.024855
 31
0.0
  0
LINE
  5
A4
100
AcDbEntity
  8
SCHRAFFUR
 62
     7
100
AcDbLine
 10
128.181323
 20
125.274868
 30
0.0
 11
131.93131
 21
129.024855
 31
0.0
  0
LINE
  5
A3
100
AcDbEntity
  8
SCHRAFFUR
 62
     7
100
AcDbLine
 10
129.865114
 20
125.274868
 30
0.0
 11
133.6151
 21
129.024855
 31
0.0
  0
LINE
  5
A2
100
AcDbEntity
  8
SCHRAFFUR
 62
     7
100
AcDbLine
 10
131.548904
 20
125.274868
 30
0.0
 11
135.298891
 21
129.024855
 31
0.0
  0
LINE
  5
A1
100
AcDbEntity
  8
SCHRAFFUR
 62
     7
100
AcDbLine
 10
133.232694
 20
125.274868
 30
0.0
 11
136.982681
 21
129.024855
 31
0.0
  0
LINE
  5
A0
100
AcDbEntity
  8
SCHRAFFUR
 62
     7
100
AcDbLine
 10
134.916485
 20
125.274868
 30
0.0
 11
138.666471
 21
129.024855
 31
0.0
  0
LINE
  5
9F
100
AcDbEntity
  8
SCHRAFFUR
 62
     7
100
AcDbLine
 10
136.600275
 20
125.274868
 30
0.0
 11
140.350262
 21
129.024855
 31
0.0
  0
LINE
  5
9E
100
AcDbEntity
  8
SCHRAFFUR
 62
     7
100
AcDbLine
 10
138.284066
 20
125.274868
 30
0.0
 11
142.034052
 21
129.024855
 31
0.0
  0
LINE
  5
9D
100
AcDbEntity
  8
SCHRAFFUR
 62
     7
100
AcDbLine
 10
139.967856
 20
125.274868
 30
0.0
 11
143.884413
 21
129.191425
 31
0.0
  0
LINE
  5
9C
100
AcDbEntity
  8
SCHRAFFUR
 62
     7
100
AcDbLine
 10
141.651647
 20
125.274868
 30
0.0
 11
145.568203
 21
129.191425
 31
0.0
  0
LINE
  5
9B
100
AcDbEntity
  8
SCHRAFFUR
 62
     7
100
AcDbLine
 10
143.335437
 20
125.274868
 30
0.0
 11
147.251994
 21
129.191425
 31
0.0
  0
LINE
  5
9A
100
AcDbEntity
  8
SCHRAFFUR
 62
     7
100
AcDbLine
 10
145.019227
 20
125.274868
 30
0.0
 11
148.935956
 21
129.191425
 31
0.0
  0
LINE
  5
99
100
AcDbEntity
  8
SCHRAFFUR
 62
     7
100
AcDbLine
 10
146.703018
 20
125.274868
 30
0.0
 11
150.619575
 21
129.191425
 31
0.0
  0
LINE
  5
98
100
AcDbEntity
  8
SCHRAFFUR
 62
     7
100
AcDbLine
 10
148.386808
 20
125.274868
 30
0.0
 11
152.303537
 21
129.191425
 31
0.0
  0
LINE
  5
97
100
AcDbEntity
  8
SCHRAFFUR
 62
     7
100
AcDbLine
 10
150.070771
 20
125.274868
 30
0.0
 11
153.987155
 21
129.191425
 31
0.0
  0
LINE
  5
96
100
AcDbEntity
  8
SCHRAFFUR
 62
     7
100
AcDbLine
 10
151.754389
 20
125.274868
 30
0.0
 11
155.671118
 21
129.191425
 31
0.0
  0
LINE
  5
95
100
AcDbEntity
  8
SCHRAFFUR
 62
     7
100
AcDbLine
 10
153.438352
 20
125.274868
 30
0.0
 11
157.354736
 21
129.191425
 31
0.0
  0
LINE
  5
94
100
AcDbEntity
  8
SCHRAFFUR
 62
     7
100
AcDbLine
 10
155.12197
 20
125.274868
 30
0.0
 11
159.038699
 21
129.191425
 31
0.0
  0
LINE
  5
93
100
AcDbEntity
  8
SCHRAFFUR
 62
     7
100
AcDbLine
 10
156.805933
 20
125.274868
 30
0.0
 11
160.722317
 21
129.191425
 31
0.0
  0
LINE
  5
92
100
AcDbEntity
  8
SCHRAFFUR
 62
     7
100
AcDbLine
 10
158.489551
 20
125.274868
 30
0.0
 11
162.40628
 21
129.191425
 31
0.0
  0
LINE
  5
91
100
AcDbEntity
  8
SCHRAFFUR
 62
     7
100
AcDbLine
 10
160.173513
 20
125.274868
 30
0.0
 11
164.089898
 21
129.191425
 31
0.0
  0
LINE
  5
90
100
AcDbEntity
  8
SCHRAFFUR
 62
     7
100
AcDbLine
 10
161.857132
 20
125.274868
 30
0.0
 11
165.773861
 21
129.191425
 31
0.0
  0
LINE
  5
8F
100
AcDbEntity
  8
SCHRAFFUR
 62
     7
100
AcDbLine
 10
163.541094
 20
125.274868
 30
0.0
 11
167.457479
 21
129.191425
 31
0.0
  0
LINE
  5
8E
100
AcDbEntity
  8
SCHRAFFUR
 62
     7
100
AcDbLine
 10
165.224712
 20
125.274868
 30
0.0
 11
169.141442
 21
129.191425
 31
0.0
  0
LINE
  5
8D
100
AcDbEntity
  8
SCHRAFFUR
 62
     7
100
AcDbLine
 10
166.908675
 20
125.274868
 30
0.0
 11
170.82506
 21
129.191425
 31
0.0
  0
LINE
  5
8C
100
AcDbEntity
  8
SCHRAFFUR
 62
     7
100
AcDbLine
 10
168.592293
 20
125.274868
 30
0.0
 11
172.509022
 21
129.191425
 31
0.0
  0
LINE
  5
8B
100
AcDbEntity
  8
SCHRAFFUR
 62
     7
100
AcDbLine
 10
170.276256
 20
125.274868
 30
0.0
 11
174.192641
 21
129.191425
 31
0.0
  0
LINE
  5
8A
100
AcDbEntity
  8
SCHRAFFUR
 62
     7
100
AcDbLine
 10
171.959874
 20
125.274868
 30
0.0
 11
175.876603
 21
129.191425
 31
0.0
  0
LINE
  5
89
100
AcDbEntity
  8
SCHRAFFUR
 62
     7
100
AcDbLine
 10
173.643837
 20
125.274868
 30
0.0
 11
177.560566
 21
129.191425
 31
0.0
  0
LINE
  5
88
100
AcDbEntity
  8
SCHRAFFUR
 62
     7
100
AcDbLine
 10
175.327455
 20
125.274868
 30
0.0
 11
179.244184
 21
129.191425
 31
0.0
  0
LINE
  5
87
100
AcDbEntity
  8
SCHRAFFUR
 62
     7
100
AcDbLine
 10
177.011418
 20
125.274868
 30
0.0
 11
180.928147
 21
129.191425
 31
0.0
  0
LINE
  5
86
100
AcDbEntity
  8
SCHRAFFUR
 62
     7
100
AcDbLine
 10
178.69538
 20
125.274868
 30
0.0
 11
182.611765
 21
129.191425
 31
0.0
  0
LINE
  5
85
100
AcDbEntity
  8
SCHRAFFUR
 62
     7
100
AcDbLine
 10
180.378998
 20
125.274868
 30
0.0
 11
184.295728
 21
129.191425
 31
0.0
  0
LINE
  5
84
100
AcDbEntity
  8
SCHRAFFUR
 62
     7
100
AcDbLine
 10
182.062961
 20
125.274868
 30
0.0
 11
185.979346
 21
129.191425
 31
0.0
  0
LINE
  5
83
100
AcDbEntity
  8
SCHRAFFUR
 62
     7
100
AcDbLine
 10
183.746579
 20
125.274868
 30
0.0
 11
187.663308
 21
129.191425
 31
0.0
  0
LINE
  5
82
100
AcDbEntity
  8
SCHRAFFUR
 62
     7
100
AcDbLine
 10
185.430542
 20
125.274868
 30
0.0
 11
189.346927
 21
129.191425
 31
0.0
  0
LINE
  5
81
100
AcDbEntity
  8
SCHRAFFUR
 62
     7
100
AcDbLine
 10
187.11416
 20
125.274868
 30
0.0
 11
191.030889
 21
129.191425
 31
0.0
  0
LINE
  5
80
100
AcDbEntity
  8
SCHRAFFUR
 62
     7
100
AcDbLine
 10
188.798123
 20
125.274868
 30
0.0
 11
192.714507
 21
129.191425
 31
0.0
  0
LINE
  5
7F
100
AcDbEntity
  8
SCHRAFFUR
 62
     7
100
AcDbLine
 10
190.481741
 20
125.274868
 30
0.0
 11
194.39847
 21
129.191425
 31
0.0
  0
LINE
  5
7E
100
AcDbEntity
  8
SCHRAFFUR
 62
     7
100
AcDbLine
 10
192.165704
 20
125.274868
 30
0.0
 11
196.082088
 21
129.191425
 31
0.0
  0
LINE
  5
7D
100
AcDbEntity
  8
SCHRAFFUR
 62
     7
100
AcDbLine
 10
193.849322
 20
125.274868
 30
0.0
 11
197.766051
 21
129.191425
 31
0.0
  0
LINE
  5
7C
100
AcDbEntity
  8
SCHRAFFUR
 62
     7
100
AcDbLine
 10
195.533285
 20
125.274868
 30
0.0
 11
199.449669
 21
129.191425
 31
0.0
  0
LINE
  5
7B
100
AcDbEntity
  8
SCHRAFFUR
 62
     7
100
AcDbLine
 10
197.216903
 20
125.274868
 30
0.0
 11
201.133632
 21
129.191425
 31
0.0
  0
LINE
  5
7A
100
AcDbEntity
  8
SCHRAFFUR
 62
     7
100
AcDbLine
 10
198.900865
 20
125.274868
 30
0.0
 11
202.81725
 21
129.191425
 31
0.0
  0
LINE
  5
79
100
AcDbEntity
  8
SCHRAFFUR
 62
     7
100
AcDbLine
 10
200.584484
 20
125.274868
 30
0.0
 11
202.956087
 21
127.6463
 31
0.0
  0
LINE
  5
78
100
AcDbEntity
  8
SCHRAFFUR
 62
     7
100
AcDbLine
 10
202.268446
 20
125.274868
 30
0.0
 11
202.956087
 21
125.962509
 31
0.0
  0
LINE
  5
77
100
AcDbEntity
  8
SCHRAFFUR
 62
     7
100
AcDbLine
 10
128.159275
 20
81.474097
 30
0.0
 11
129.45997
 21
82.774965
 31
0.0
  0
LINE
  5
76
100
AcDbEntity
  8
SCHRAFFUR
 62
     7
100
AcDbLine
 10
128.159275
 20
79.790134
 30
0.0
 11
131.143761
 21
82.774965
 31
0.0
  0
LINE
  5
75
100
AcDbEntity
  8
SCHRAFFUR
 62
     7
100
AcDbLine
 10
129.077737
 20
79.024978
 30
0.0
 11
132.827551
 21
82.774965
 31
0.0
  0
LINE
  5
74
100
AcDbEntity
  8
SCHRAFFUR
 62
     7
100
AcDbLine
 10
130.761528
 20
79.024978
 30
0.0
 11
134.511342
 21
82.774965
 31
0.0
  0
LINE
  5
73
100
AcDbEntity
  8
SCHRAFFUR
 62
     7
100
AcDbLine
 10
132.445318
 20
79.024978
 30
0.0
 11
136.195132
 21
82.774965
 31
0.0
  0
LINE
  5
72
100
AcDbEntity
  8
SCHRAFFUR
 62
     7
100
AcDbLine
 10
134.129108
 20
79.024978
 30
0.0
 11
137.878923
 21
82.774965
 31
0.0
  0
LINE
  5
71
100
AcDbEntity
  8
SCHRAFFUR
 62
     7
100
AcDbLine
 10
135.812899
 20
79.024978
 30
0.0
 11
139.562885
 21
82.774965
 31
0.0
  0
LINE
  5
70
100
AcDbEntity
  8
SCHRAFFUR
 62
     7
100
AcDbLine
 10
137.496689
 20
79.024978
 30
0.0
 11
141.246676
 21
82.774965
 31
0.0
  0
LINE
  5
6F
100
AcDbEntity
  8
SCHRAFFUR
 62
     7
100
AcDbLine
 10
139.18048
 20
79.024978
 30
0.0
 11
142.930466
 21
82.774965
 31
0.0
  0
LINE
  5
6E
100
AcDbEntity
  8
SCHRAFFUR
 62
     7
100
AcDbLine
 10
140.86427
 20
79.024978
 30
0.0
 11
144.614256
 21
82.774965
 31
0.0
  0
LINE
  5
6D
100
AcDbEntity
  8
SCHRAFFUR
 62
     7
100
AcDbLine
 10
142.54806
 20
79.024978
 30
0.0
 11
146.298047
 21
82.774965
 31
0.0
  0
LINE
  5
6C
100
AcDbEntity
  8
SCHRAFFUR
 62
     7
100
AcDbLine
 10
144.06528
 20
78.858236
 30
0.0
 11
147.981837
 21
82.774965
 31
0.0
  0
LINE
  5
6B
100
AcDbEntity
  8
SCHRAFFUR
 62
     7
100
AcDbLine
 10
145.749071
 20
78.858236
 30
0.0
 11
149.665628
 21
82.774965
 31
0.0
  0
LINE
  5
6A
100
AcDbEntity
  8
SCHRAFFUR
 62
     7
100
AcDbLine
 10
147.432861
 20
78.858236
 30
0.0
 11
151.349246
 21
82.774965
 31
0.0
  0
LINE
  5
69
100
AcDbEntity
  8
SCHRAFFUR
 62
     7
100
AcDbLine
 10
149.116824
 20
78.858236
 30
0.0
 11
153.033209
 21
82.774965
 31
0.0
  0
LINE
  5
68
100
AcDbEntity
  8
SCHRAFFUR
 62
     7
100
AcDbLine
 10
150.800442
 20
78.858236
 30
0.0
 11
154.717171
 21
82.774965
 31
0.0
  0
LINE
  5
67
100
AcDbEntity
  8
SCHRAFFUR
 62
     7
100
AcDbLine
 10
152.484405
 20
78.858236
 30
0.0
 11
156.400789
 21
82.774965
 31
0.0
  0
LINE
  5
66
100
AcDbEntity
  8
SCHRAFFUR
 62
     7
100
AcDbLine
 10
154.168023
 20
78.858236
 30
0.0
 11
158.084752
 21
82.774965
 31
0.0
  0
LINE
  5
65
100
AcDbEntity
  8
SCHRAFFUR
 62
     7
100
AcDbLine
 10
155.851986
 20
78.858236
 30
0.0
 11
159.76837
 21
82.774965
 31
0.0
  0
LINE
  5
64
100
AcDbEntity
  8
SCHRAFFUR
 62
     7
100
AcDbLine
 10
157.535604
 20
78.858236
 30
0.0
 11
161.452333
 21
82.774965
 31
0.0
  0
LINE
  5
63
100
AcDbEntity
  8
SCHRAFFUR
 62
     7
100
AcDbLine
 10
159.219567
 20
78.858236
 30
0.0
 11
163.135951
 21
82.774965
 31
0.0
  0
LINE
  5
62
100
AcDbEntity
  8
SCHRAFFUR
 62
     7
100
AcDbLine
 10
160.903185
 20
78.858236
 30
0.0
 11
164.819914
 21
82.774965
 31
0.0
  0
LINE
  5
61
100
AcDbEntity
  8
SCHRAFFUR
 62
     7
100
AcDbLine
 10
162.587147
 20
78.858236
 30
0.0
 11
166.503532
 21
82.774965
 31
0.0
  0
LINE
  5
60
100
AcDbEntity
  8
SCHRAFFUR
 62
     7
100
AcDbLine
 10
164.270766
 20
78.858236
 30
0.0
 11
168.187495
 21
82.774965
 31
0.0
  0
LINE
  5
5F
100
AcDbEntity
  8
SCHRAFFUR
 62
     7
100
AcDbLine
 10
165.954728
 20
78.858236
 30
0.0
 11
169.871113
 21
82.774965
 31
0.0
  0
LINE
  5
5E
100
AcDbEntity
  8
SCHRAFFUR
 62
     7
100
AcDbLine
 10
167.638346
 20
78.858236
 30
0.0
 11
171.555075
 21
82.774965
 31
0.0
  0
LINE
  5
5D
100
AcDbEntity
  8
SCHRAFFUR
 62
     7
100
AcDbLine
 10
169.322309
 20
78.858236
 30
0.0
 11
173.238694
 21
82.774965
 31
0.0
  0
LINE
  5
5C
100
AcDbEntity
  8
SCHRAFFUR
 62
     7
100
AcDbLine
 10
171.005927
 20
78.858236
 30
0.0
 11
174.922656
 21
82.774965
 31
0.0
  0
LINE
  5
5B
100
AcDbEntity
  8
SCHRAFFUR
 62
     7
100
AcDbLine
 10
172.68989
 20
78.858236
 30
0.0
 11
176.606274
 21
82.774965
 31
0.0
  0
LINE
  5
5A
100
AcDbEntity
  8
SCHRAFFUR
 62
     7
100
AcDbLine
 10
174.373508
 20
78.858236
 30
0.0
 11
178.290237
 21
82.774965
 31
0.0
  0
LINE
  5
59
100
AcDbEntity
  8
SCHRAFFUR
 62
     7
100
AcDbLine
 10
176.057471
 20
78.858236
 30
0.0
 11
179.973855
 21
82.774965
 31
0.0
  0
LINE
  5
58
100
AcDbEntity
  8
SCHRAFFUR
 62
     7
100
AcDbLine
 10
177.741089
 20
78.858236
 30
0.0
 11
181.657818
 21
82.774965
 31
0.0
  0
LINE
  5
57
100
AcDbEntity
  8
SCHRAFFUR
 62
     7
100
AcDbLine
 10
179.425052
 20
78.858236
 30
0.0
 11
183.341436
 21
82.774965
 31
0.0
  0
LINE
  5
56
100
AcDbEntity
  8
SCHRAFFUR
 62
     7
100
AcDbLine
 10
181.10867
 20
78.858236
 30
0.0
 11
185.025399
 21
82.774965
 31
0.0
  0
LINE
  5
55
100
AcDbEntity
  8
SCHRAFFUR
 62
     7
100
AcDbLine
 10
182.792632
 20
78.858236
 30
0.0
 11
186.709017
 21
82.774965
 31
0.0
  0
LINE
  5
54
100
AcDbEntity
  8
SCHRAFFUR
 62
     7
100
AcDbLine
 10
184.476595
 20
78.858236
 30
0.0
 11
188.39298
 21
82.774965
 31
0.0
  0
LINE
  5
53
100
AcDbEntity
  8
SCHRAFFUR
 62
     7
100
AcDbLine
 10
186.160213
 20
78.858236
 30
0.0
 11
190.076598
 21
82.774965
 31
0.0
  0
LINE
  5
52
100
AcDbEntity
  8
SCHRAFFUR
 62
     7
100
AcDbLine
 10
187.844176
 20
78.858236
 30
0.0
 11
191.76056
 21
82.774965
 31
0.0
  0
LINE
  5
51
100
AcDbEntity
  8
SCHRAFFUR
 62
     7
100
AcDbLine
 10
189.527794
 20
78.858236
 30
0.0
 11
193.444523
 21
82.774965
 31
0.0
  0
LINE
  5
50
100
AcDbEntity
  8
SCHRAFFUR
 62
     7
100
AcDbLine
 10
191.211757
 20
78.858236
 30
0.0
 11
195.128141
 21
82.774965
 31
0.0
  0
LINE
  5
4F
100
AcDbEntity
  8
SCHRAFFUR
 62
     7
100
AcDbLine
 10
192.895375
 20
78.858236
 30
0.0
 11
196.812104
 21
82.774965
 31
0.0
  0
LINE
  5
4E
100
AcDbEntity
  8
SCHRAFFUR
 62
     7
100
AcDbLine
 10
194.579338
 20
78.858236
 30
0.0
 11
198.495722
 21
82.774965
 31
0.0
  0
LINE
  5
4D
100
AcDbEntity
  8
SCHRAFFUR
 62
     7
100
AcDbLine
 10
196.262956
 20
78.858236
 30
0.0
 11
200.179685
 21
82.774965
 31
0.0
  0
LINE
  5
4C
100
AcDbEntity
  8
SCHRAFFUR
 62
     7
100
AcDbLine
 10
197.946918
 20
78.858236
 30
0.0
 11
201.863303
 21
82.774965
 31
0.0
  0
LINE
  5
4B
100
AcDbEntity
  8
SCHRAFFUR
 62
     7
100
AcDbLine
 10
199.630537
 20
78.858236
 30
0.0
 11
202.956087
 21
82.183786
 31
0.0
  0
LINE
  5
4A
100
AcDbEntity
  8
SCHRAFFUR
 62
     7
100
AcDbLine
 10
201.314499
 20
78.858236
 30
0.0
 11
202.956087
 21
80.500168
 31
0.0
  0
LINE
  5
48
100
AcDbEntity
  8
MITTELLINIE
  6
AI9-LType1
 62
     7
100
AcDbLine
 10
220.300765
 20
104.025003
 30
0.0
 11
113.754125
 21
104.025003
 31
0.0
  0
LINE
  5
46
100
AcDbEntity
  8
MITTELLINIE
 62
     7
100
AcDbLine
 10
153.97372
 20
104.025003
 30
0.0
 11
141.909167
 21
104.025003
 31
0.0
  0
LINE
  5
44
100
AcDbEntity
  8
BESCHREIBUNG
 62
     7
100
AcDbLine
 10
171.405214
 20
126.970717
 30
0.0
 11
121.716774
 21
168.353893
 31
0.0
  0
LINE
  5
43
100
AcDbEntity
  8
BESCHREIBUNG
 62
     7
100
AcDbLine
 10
146.83996
 20
122.426636
 30
0.0
 11
111.096922
 21
125.165142
 31
0.0
  0
LINE
  5
41
100
AcDbEntity
  8
TEXT
 62
     7
100
AcDbLine
 10
141.607205
 20
59.173994
 30
0.0
 11
102.129167
 21
53.190207
 31
0.0
  0
MTEXT
  5
40
100
AcDbEntity
  8
TEXT
 62
     7
100
AcDbMText
 10
76.430305
 20
145.690332
 30
0.0
 40
5.512152
 41
0.0
 71
     1
 72
     2
  1
\fArial|b0|i0;\H5.5122;\C7;\U+0050\U+004D\U+0042\U+0043
  7
STD
210
0.0
220
0.0
230
1.0
 73
     1
 44
1.0
  0
MTEXT
  5
3F
100
AcDbEntity
  8
TEXT
 62
     7
100
AcDbMText
 10
76.430305
 20
153.098665
 30
0.0
 40
5.512152
 41
0.0
 71
     1
 72
     2
  1
\fArial|b0|i0;\H5.5122;\C7;\U+0075\U+006E\U+0064\U+0020\U+0048\U+006F\U+0068\U+006C\U+006B\U+0065\U+0068\U+006C\U+0065
  7
STD
210
0.0
220
0.0
230
1.0
 73
     1
 44
1.0
  0
MTEXT
  5
3E
100
AcDbEntity
  8
TEXT
 62
     7
100
AcDbMText
 10
76.430305
 20
160.506998
 30
0.0
 40
5.512152
 41
0.0
 71
     1
 72
     2
  1
\fArial|b0|i0;\H5.5122;\C7;\U+0049\U+006E\U+006E\U+0065\U+006E\U+006F\U+0062\U+0065\U+0072\U+0066\U+006C\U+00E4\U+0063\U+0068\U+0065\U+0020
  7
STD
210
0.0
220
0.0
230
1.0
 73
     1
 44
1.0
  0
MTEXT
  5
3D
100
AcDbEntity
  8
TEXT
 62
     7
100
AcDbMText
 10
76.430305
 20
167.915332
 30
0.0
 40
5.512152
 41
0.0
 71
     1
 72
     2
  1
\fArial|b0|i0;\H5.5122;\C7;\U+0061\U+0075\U+0066\U+0067\U+0065\U+0072\U+0061\U+0075\U+0074\U+0065\U+0072\U+0020
  7
STD
210
0.0
220
0.0
230
1.0
 73
     1
 44
1.0
  0
MTEXT
  5
3C
100
AcDbEntity
  8
TEXT
 62
     7
100
AcDbMText
 10
76.430305
 20
175.323665
 30
0.0
 40
5.512152
 41
0.0
 71
     1
 72
     2
  1
\fArial|b0|i0;\H5.5122;\C7;\U+0046\U+0075\U+0074\U+0074\U+0065\U+0072\U+0072\U+006F\U+0068\U+0072\U+0020\U+006D\U+0069\U+0074\U+0020
  7
STD
210
0.0
220
0.0
230
1.0
 73
     1
 44
1.0
  0
MTEXT
  5
3B
100
AcDbEntity
  8
TEXT
 62
     7
100
AcDbMText
 10
79.070798
 20
52.075374
 30
0.0
 40
5.512152
 41
0.0
 71
     1
 72
     2
  1
\fArial|b0|i0;\H5.5122;\C7;\U+0061\U+0062\U+0064\U+0069\U+0063\U+0068\U+0074\U+0075\U+006E\U+0067
  7
STD
210
0.0
220
0.0
230
1.0
 73
     1
 44
1.0
  0
MTEXT
  5
3A
100
AcDbEntity
  8
TEXT
 62
     7
100
AcDbMText
 10
79.070798
 20
59.483707
 30
0.0
 40
5.512152
 41
0.0
 71
     1
 72
     2
  1
\fArial|b0|i0;\H5.5122;\C7;\U+0041\U+0075\U+00DF\U+0065\U+006E\U+002D\U+006E\U+002D
  7
STD
210
0.0
220
0.0
230
1.0
 73
     1
 44
1.0
  0
MTEXT
  5
39
100
AcDbEntity
  8
TEXT
 62
     7
100
AcDbMText
 10
76.083384
 20
117.07778
 30
0.0
 40
5.512152
 41
0.0
 71
     1
 72
     2
  1
\fArial|b0|i0;\H5.5122;\C7;\U+0068\U+0061\U+0072\U+007A
  7
STD
210
0.0
220
0.0
230
1.0
 73
     1
 44
1.0
  0
MTEXT
  5
38
100
AcDbEntity
  8
TEXT
 62
     7
100
AcDbMText
 10
76.083384
 20
124.486113
 30
0.0
 40
5.512152
 41
0.0
 71
     1
 72
     2
  1
\fArial|b0|i0;\H5.5122;\C7;\U+0045\U+0078\U+0070\U+0061\U+006E\U+0073\U+0069\U+006F\U+006E\U+0073\U+002D
  7
STD
210
0.0
220
0.0
230
1.0
 73
     1
 44
1.0
  0
MTEXT
  5
37
100
AcDbEntity
  8
TEXT
 62
     7
100
AcDbMText
 10
76.083384
 20
131.894447
 30
0.0
 40
5.512152
 41
0.0
 71
     1
 72
     2
  1
\fArial|b0|i0;\H5.5122;\C7;\U+0056\U+0065\U+0072\U+0067\U+0075\U+0073\U+0073\U+006D\U+00F6\U+0072\U+0074\U+0065\U+006C\U+002F
  7
STD
210
0.0
220
0.0
230
1.0
 73
     1
 44
1.0
  0
POLYLINE
  5
30
100
AcDbEntity
  8
RAHMEN
 62
   250
100
AcDb2dPolyline
 66
     1
 10
0.0
 20
0.0
 30
0.0
 70
     1
  0
VERTEX
  5
31
100
AcDbEntity
  8
RAHMEN
 62
   250
100
AcDbVertex
100
AcDb2dVertex
 10
73.203973
 20
180.755031
 30
0.0
  0
VERTEX
  5
32
100
AcDbEntity
  8
RAHMEN
 62
   250
100
AcDbVertex
100
AcDb2dVertex
 10
73.203973
 20
36.495275
 30
0.0
  0
VERTEX
  5
33
100
AcDbEntity
  8
RAHMEN
 62
   250
100
AcDbVertex
100
AcDb2dVertex
 10
234.871796
 20
36.495275
 30
0.0
  0
VERTEX
  5
34
100
AcDbEntity
  8
RAHMEN
 62
   250
100
AcDbVertex
100
AcDb2dVertex
 10
234.871796
 20
180.755031
 30
0.0
  0
SEQEND
  5
35
100
AcDbEntity
  8
RAHMEN
 62
   250
  0
POLYLINE
  5
2A
100
AcDbEntity
  8
RAHMEN
 62
   250
100
AcDb2dPolyline
 66
     1
 10
0.0
 20
0.0
 30
0.0
 70
     1
  0
VERTEX
  5
2B
100
AcDbEntity
  8
RAHMEN
 62
   250
100
AcDbVertex
100
AcDb2dVertex
 10
215.711209
 20
53.100979
 30
0.0
  0
VERTEX
  5
2C
100
AcDbEntity
  8
RAHMEN
 62
   250
100
AcDbVertex
100
AcDb2dVertex
 10
234.761209
 20
53.100979
 30
0.0
  0
VERTEX
  5
2D
100
AcDbEntity
  8
RAHMEN
 62
   250
100
AcDbVertex
100
AcDb2dVertex
 10
234.761209
 20
36.343346
 30
0.0
  0
VERTEX
  5
2E
100
AcDbEntity
  8
RAHMEN
 62
   250
100
AcDbVertex
100
AcDb2dVertex
 10
215.711209
 20
36.343346
 30
0.0
  0
SEQEND
  5
2F
100
AcDbEntity
  8
RAHMEN
 62
   250
  0
MTEXT
  5
29
100
AcDbEntity
  8
RAHMEN
 62
     7
100
AcDbMText
 10
216.857392
 20
50.644478
 30
0.0
 40
9.449404
 41
0.0
 71
     1
 72
     2
  1
\fMyriad Roman|b0|i0;\H9.4494;\C7;\U+0031\U+002E\U+0035
  7
STD
210
0.0
220
0.0
230
1.0
 73
     1
 44
1.0
  0
ENDSEC
  0
SECTION
  2
OBJECTS
  0
DICTIONARY
  5
19
100
AcDbDictionary
280
     0
281
     1
  3
ACAD_GROUP
350
1A
  3
ACAD_MLINESTYLE
350
1B
  3
ACAD_LAYOUT
350
1E
  3
ACAD_PLOTSETTINGS
350
22
  3
ACAD_PLOTSTYLENAME
350
1F
  3
ACAD_WIPEOUT_VARS
350
23
  0
DICTIONARY
  5
1A
102
{ACAD_REACTORS
330
19
102
}
100
AcDbDictionary
280
     0
281
     1
  0
DICTIONARY
  5
1B
102
{ACAD_REACTORS
330
19
102
}
100
AcDbDictionary
280
     0
281
     1
  3
Standard
350
1C
  0
MLINESTYLE
  5
1C
102
{ACAD_REACTORS
330
1B
102
}
100
AcDbMlineStyle
  2
Standard
 70
     0
  3

 62
     0
 51
90.0
 52
90.0
 71
     2
 49
0.5
 62
   256
  6
ByLayer
 49
-0.5
 62
   256
  6
ByLayer
  0
ACDBDICTIONARYWDFLT
  5
1F
102
{ACAD_REACTORS
330
19
102
}
100
AcDbDictionary
281
     1
  3
Normal
350
1D
100
AcDbDictionaryWithDefault
340
1D
  0
ACDBPLACEHOLDER
  5
1D
102
{ACAD_REACTORS
330
1F
102
}
  0
LAYOUT
  5
20
102
{ACAD_REACTORS
330
1E
102
}
100
AcDbPlotSettings
  1

  2

  4

  6

 40
0.0
 41
0.0
 42
0.0
 43
0.0
 44
0.0
 45
0.0
 46
0.0
 47
0.0
 48
0.0
 49
0.0
140
0.0
141
0.0
142
1.0
143
1.0
 70
  1024
 72
     0
 73
     0
 74
     0
  7

 75
     0
147
1.0
148
0.0
149
0.0
100
AcDbLayout
  1
Model
 70
     0
 71
     0
 10
0.0
 20
0.0
 11
0.0
 21
0.0
 12
0.0
 22
0.0
 32
0.0
 14
0.0
 24
0.0
 34
0.0
 15
0.0
 25
0.0
 35
0.0
146
0.0
 13
0.0
 23
0.0
 33
0.0
 16
0.0
 26
0.0
 36
0.0
 17
0.0
 27
0.0
 37
0.0
 76
     0
330
A
331
0
345
0
346
0
  0
LAYOUT
  5
21
102
{ACAD_REACTORS
330
1E
102
}
100
AcDbPlotSettings
  1

  2

  4

  6

 40
0.0
 41
0.0
 42
0.0
 43
0.0
 44
0.0
 45
0.0
 46
0.0
 47
0.0
 48
0.0
 49
0.0
140
0.0
141
0.0
142
1.0
143
1.0
 70
     0
 72
     0
 73
     0
 74
     0
  7

 75
     0
147
1.0
148
0.0
149
0.0
100
AcDbLayout
  1
Layout1
 70
     0
 71
     0
 10
0.0
 20
0.0
 11
0.0
 21
0.0
 12
0.0
 22
0.0
 32
0.0
 14
0.0
 24
0.0
 34
0.0
 15
0.0
 25
0.0
 35
0.0
146
0.0
 13
0.0
 23
0.0
 33
0.0
 16
0.0
 26
0.0
 36
0.0
 17
0.0
 27
0.0
 37
0.0
 76
     0
330
B
331
0
345
0
346
0
  0
DICTIONARY
  5
1E
102
{ACAD_REACTORS
330
19
102
}
100
AcDbDictionary
280
     0
281
     1
  3
Layout1
350
21
  3
Model
350
20
  0
DICTIONARY
  5
22
102
{ACAD_REACTORS
330
19
102
}
100
AcDbDictionary
280
     0
281
     1
  0
WIPEOUTVARIABLES
  5
23
100
AcDbWipeoutVariables
 70
     1
  0
ENDSEC
  0
EOF
