  0
SECTION
  2
HEADER
  9
$ACADVER
  1
AC1015
  9
$ACADMAINTVER
 70
     6
  9
$DWGCODEPAGE
  3
ANSI_932
  9
$INSBASE
 10
0.0
 20
0.0
 30
0.0
  9
$EXTMIN
 10
72.851195
 20
35.990568
 30
1.000000E+20
  9
$EXTMAX
 10
235.224574
 20
181.107808
 30
-1.000000E+20
  9
$LIMMIN
 10
72.851195
 20
35.990568
  9
$LIMMAX
 10
235.224574
 20
181.107808
  9
$ORTHOMODE
 70
     0
  9
$REGENMODE
 70
     1
  9
$FILLMODE
 70
     1
  9
$QTEXTMODE
 70
     0
  9
$MIRRTEXT
 70
     1
  9
$LTSCALE
 40
1.0
  9
$ATTMODE
 70
     1
  9
$TEXTSIZE
 40
0.2
  9
$TRACEWID
 40
0.05
  9
$TEXTSTYLE
  7
Standard
  9
$CLAYER
  8
0
  9
$CELTYPE
  6
Continuous
  9
$CECOLOR
 62
   256
  9
$CELTSCALE
 40
1.0
  9
$DISPSILH
 70
     0
  9
$DIMSCALE
 40
1.0
  9
$DIMASZ
 40
0.18
  9
$DIMEXO
 40
0.0625
  9
$DIMDLI
 40
0.38
  9
$DIMRND
 40
0.0
  9
$DIMDLE
 40
0.0
  9
$DIMEXE
 40
0.18
  9
$DIMTP
 40
0.0
  9
$DIMTM
 40
0.0
  9
$DIMTXT
 40
0.18
  9
$DIMCEN
 40
0.09
  9
$DIMTSZ
 40
0.0
  9
$DIMTOL
 70
     0
  9
$DIMLIM
 70
     0
  9
$DIMTIH
 70
     1
  9
$DIMTOH
 70
     1
  9
$DIMSE1
 70
     0
  9
$DIMSE2
 70
     0
  9
$DIMTAD
 70
     0
  9
$DIMZIN
 70
     0
  9
$DIMBLK
  1

  9
$DIMASO
 70
     1
  9
$DIMSHO
 70
     1
  9
$DIMPOST
  1

  9
$DIMAPOST
  1

  9
$DIMALT
 70
     0
  9
$DIMALTD
 70
     2
  9
$DIMALTF
 40
25.4
  9
$DIMLFAC
 40
1.0
  9
$DIMTOFL
 70
     0
  9
$DIMTVP
 40
0.0
  9
$DIMTIX
 70
     0
  9
$DIMSOXD
 70
     0
  9
$DIMSAH
 70
     0
  9
$DIMBLK1
  1

  9
$DIMBLK2
  1

  9
$DIMSTYLE
  2
Standard
  9
$DIMCLRD
 70
     0
  9
$DIMCLRE
 70
     0
  9
$DIMCLRT
 70
     0
  9
$DIMTFAC
 40
1.0
  9
$DIMGAP
 40
0.09
  9
$DIMJUST
 70
     0
  9
$DIMSD1
 70
     0
  9
$DIMSD2
 70
     0
  9
$DIMTOLJ
 70
     1
  9
$DIMTZIN
 70
     0
  9
$DIMALTZ
 70
     0
  9
$DIMALTTZ
 70
     0
  9
$DIMUPT
 70
     0
  9
$DIMDEC
 70
     4
  9
$DIMTDEC
 70
     4
  9
$DIMALTU
 70
     2
  9
$DIMALTTD
 70
     2
  9
$DIMTXSTY
  7
Standard
  9
$DIMAUNIT
 70
     0
  9
$DIMADEC
 70
     0
  9
$DIMALTRND
 40
0.0
  9
$DIMAZIN
 70
     0
  9
$DIMDSEP
 70
     0
  9
$DIMATFIT
 70
     3
  9
$DIMFRAC
 70
     0
  9
$DIMLDRBLK
  1

  9
$DIMLUNIT
 70
     2
  9
$DIMLWD
 70
     0
  9
$DIMLWE
 70
     0
  9
$DIMTMOVE
 70
     0
  9
$LUNITS
 70
     2
  9
$LUPREC
 70
     4
  9
$SKETCHINC
 40
0.1
  9
$FILLETRAD
 40
0.0
  9
$AUNITS
 70
     0
  9
$AUPREC
 70
     0
  9
$MENU
  1
acad
  9
$ELEVATION
 40
0.0
  9
$PELEVATION
 40
0.0
  9
$THICKNESS
 40
0.0
  9
$LIMCHECK
 70
     0
  9
$CHAMFERA
 40
0.0
  9
$CHAMFERB
 40
0.0
  9
$CHAMFERC
 40
0.0
  9
$CHAMFERD
 40
0.0
  9
$SKPOLY
 70
     0
  9
$TDCREATE
 40
0.000000000
  9
$TDUCREATE
 40
0.000000000
  9
$TDUPDATE
 40
0.000000000
  9
$TDUUPDATE
 40
0.000000000
  9
$TDINDWG
 40
0.0000000000
  9
$TDUSRTIMER
 40
0.0000000000
  9
$USRTIMER
 70
     1
  9
$ANGBASE
 50
0.0
  9
$ANGDIR
 70
     0
  9
$PDMODE
 70
     0
  9
$PDSIZE
 40
0.0
  9
$PLINEWID
 40
0.0
  9
$SPLFRAME
 70
     0
  9
$SPLINETYPE
 70
     6
  9
$SPLINESEGS
 70
     8
  9
$HANDSEED
  5
177
  9
$SURFTAB1
 70
     6
  9
$SURFTAB2
 70
     6
  9
$SURFTYPE
 70
     6
  9
$SURFU
 70
     6
  9
$SURFV
 70
     6
  9
$UCSBASE
  2

  9
$UCSNAME
  2

  9
$UCSORG
 10
0.0
 20
0.0
 30
0.0
  9
$UCSXDIR
 10
1.0
 20
0.0
 30
0.0
  9
$UCSYDIR
 10
0.0
 20
1.0
 30
0.0
  9
$UCSORTHOREF
  2

  9
$UCSORTHOVIEW
 70
     0
  9
$UCSORGTOP
 10
0.0
 20
0.0
 30
0.0
  9
$UCSORGBOTTOM
 10
0.0
 20
0.0
 30
0.0
  9
$UCSORGLEFT
 10
0.0
 20
0.0
 30
0.0
  9
$UCSORGRIGHT
 10
0.0
 20
0.0
 30
0.0
  9
$UCSORGFRONT
 10
0.0
 20
0.0
 30
0.0
  9
$UCSORGBACK
 10
0.0
 20
0.0
 30
0.0
  9
$PUCSBASE
  2

  9
$PUCSNAME
  2

  9
$PUCSORG
 10
0.0
 20
0.0
 30
0.0
  9
$PUCSXDIR
 10
1.0
 20
0.0
 30
0.0
  9
$PUCSYDIR
 10
0.0
 20
1.0
 30
0.0
  9
$PUCSORTHOREF
  2

  9
$PUCSORTHOVIEW
 70
     0
  9
$PUCSORGTOP
 10
0.0
 20
0.0
 30
0.0
  9
$PUCSORGBOTTOM
 10
0.0
 20
0.0
 30
0.0
  9
$PUCSORGLEFT
 10
0.0
 20
0.0
 30
0.0
  9
$PUCSORGRIGHT
 10
0.0
 20
0.0
 30
0.0
  9
$PUCSORGFRONT
 10
0.0
 20
0.0
 30
0.0
  9
$PUCSORGBACK
 10
0.0
 20
0.0
 30
0.0
  9
$USERI1
 70
     0
  9
$USERI2
 70
     0
  9
$USERI3
 70
     0
  9
$USERI4
 70
     0
  9
$USERI5
 70
     0
  9
$USERR1
 40
0.0
  9
$USERR2
 40
0.0
  9
$USERR3
 40
0.0
  9
$USERR4
 40
0.0
  9
$USERR5
 40
0.0
  9
$WORLDVIEW
 70
     1
  9
$SHADEDGE
 70
     3
  9
$SHADEDIF
 70
    70
  9
$TILEMODE
 70
     1
  9
$MAXACTVP
 70
    16
  9
$PINSBASE
 10
0.0
 20
0.0
 30
0.0
  9
$PLIMCHECK
 70
     0
  9
$PEXTMIN
 10
1.000000E+20
 20
1.000000E+20
 30
1.000000E+20
  9
$PEXTMAX
 10
-1.000000E+20
 20
-1.000000E+20
 30
-1.000000E+20
  9
$PLIMMIN
 10
0.0
 20
0.0
  9
$PLIMMAX
 10
12.0
 20
9.0
  9
$UNITMODE
 70
     0
  9
$VISRETAIN
 70
     0
  9
$PLINEGEN
 70
     1
  9
$PSLTSCALE
 70
     0
  9
$TREEDEPTH
 70
  3020
  9
$CMLSTYLE
  2
Standard
  9
$CMLJUST
 70
     0
  9
$CMLSCALE
 40
1.0
  9
$PROXYGRAPHICS
 70
     0
  9
$MEASUREMENT
 70
     1
  9
$CELWEIGHT
370
     0
  9
$ENDCAPS
280
     0
  9
$JOINSTYLE
280
     0
  9
$LWDISPLAY
290
     0
  9
$INSUNITS
 70
     0
  9
$HYPERLINKBASE
  1

  9
$STYLESHEET
  1

  9
$XEDIT
290
     1
  9
$CEPSNTYPE
380
     0
  9
$PSTYLEMODE
290
     1
  9
$FINGERPRINTGUID
  2

  9
$VERSIONGUID
  2

  9
$EXTNAMES
290
     1
  9
$PSVPSCALE
 40
0.0
  0
ENDSEC
  0
SECTION
  2
CLASSES
  0
CLASS
  1
LWPOLYLINE
  2
AcDbPolyline
  3
AutoCAD 2000
 90
    32768
280
     0
281
     1
  0
CLASS
  1
IMAGE
  2
AcDbRasterImage
  3
ISM
 90
    32895
280
     0
281
     1
  0
CLASS
  1
OLE2FRAME
  2
AcDbOle2Frame
  3
AutoCAD 2000
 90
    32768
280
     0
281
     1
  0
CLASS
  1
HATCH
  2
AcDbHatch
  3
AutoCAD 2000
 90
        0
280
     0
281
     1
  0
CLASS
  1
DICTIONARYVAR
  2
AcDbDictionaryVar
  3
AutoCAD 2000
 90
    32768
280
     0
281
     0
  0
CLASS
  1
RASTERVARIABLES
  2
AcDbRasterVariables
  3
ISM
 90
    32768
280
     0
281
     0
  0
CLASS
  1
IMAGEDEF
  2
AcDbRasterImageDef
  3
ISM
 90
    32768
280
     0
281
     0
  0
CLASS
  1
IMAGEDEF_REACTOR
  2
AcDbRasterImageDefReactor
  3
ISM
 90
    32769
280
     0
281
     0
  0
CLASS
  1
IDBUFFER
  2
AcDbIdBuffer
  3
AutoCAD 2000
 90
    32768
280
     0
281
     0
  0
CLASS
  1
SPATIAL_FILTER
  2
AcDbSpatialFilter
  3
AutoCAD 2000
 90
    32768
280
     0
281
     0
  0
CLASS
  1
XRECORD
  2
AcDbXrecord
  3
AutoCAD 2000
 90
    32768
280
     0
281
     0
  0
CLASS
  1
SORTENTSTABLE
  2
AcDbSortentsTable
  3
AutoCAD 2000
 90
    32768
280
     0
281
     0
  0
CLASS
  1
LAYER_INDEX
  2
AcDbLayerIndex
  3
AutoCAD 2000
 90
    32768
280
     0
281
     0
  0
CLASS
  1
SPATIAL_INDEX
  2
AcDbSpatialIndex
  3
AutoCAD 2000
 90
    32768
280
     0
281
     0
  0
CLASS
  1
OBJECT_PTR
  2
CAseDLPNTableRecord
  3
"ASE-LPNTableRecord"
 90
    32769
280
     0
281
     0
  0
CLASS
  1
LAYOUT
  2
AcDbLayout
  3
AutoCAD 2000
 90
        0
280
     0
281
     0
  0
CLASS
  1
PLOTSETTINGS
  2
AcDbPlotSettings
  3
AutoCAD 2000
 90
    32768
280
     0
281
     0
  0
CLASS
  1
ACDBDICTIONARYWDFLT
  2
AcDbDictionaryWithDefault
  3
AutoCAD 2000
 90
        0
280
     0
281
     0
  0
CLASS
  1
ACDBPLACEHOLDER
  2
AcDbPlaceHolder
  3
AutoCAD 2000
 90
        0
280
     0
281
     0
  0
CLASS
  1
VBA_PROJECT
  2
AcDbVbaProject
  3
acadvba
 90
    32768
280
     0
281
     0
  0
CLASS
  1
WIPEOUT
  2
AcDbWipeout
  3
WipeOut|AutoCAD Express Tool|expresstools@autodesk.com
 90
    32895
280
     0
281
     1
  0
CLASS
  1
WIPEOUTVARIABLES
  2
AcDbWipeoutVariables
  3
WipeOut|AutoCAD Express Tool|expresstools@autodesk.com
 90
        0
280
     0
281
     0
  0
CLASS
  1
RTEXT
  2
RText
  3
RText|AutoCAD Express Tool|expresstools@autodesk.com
 90
    32768
280
     0
281
     1
  0
CLASS
  1
ARCALIGNEDTEXT
  2
AcDbArcAlignedText
  3
ATEXT|AutoCAD Express Tool|expresstools@autodesk.com
 90
    32768
280
     0
281
     1
  0
ENDSEC
  0
SECTION
  2
TABLES
  0
TABLE
  2
VPORT
  5
7
100
AcDbSymbolTable
 70
     1
  0
VPORT
  5
15
100
AcDbSymbolTableRecord
100
AcDbViewportTableRecord
  2
*ACTIVE
 70
     0
 10
0.0
 20
0.0
 11
1.0
 21
1.0
 12
6.591288
 22
4.579184
 13
0.0
 23
0.0
 14
1.0
 24
1.0
 15
0.0
 25
0.0
 16
0.0
 26
0.0
 36
1.0
 17
0.0
 27
0.0
 37
0.0
 40
9.158369
 41
0.688564
 42
50.0
 43
0.0
 44
0.0
 50
0.0
 51
0.0
 71
     0
 72
   100
 73
     1
 74
     1
 75
     0
 76
     0
 77
     0
 78
     0
281
     0
 65
     0
110
0.0
120
0.0
130
0.0
111
1.0
121
0.0
131
0.0
112
0.0
122
1.0
132
0.0
345
0
346
0
 79
     0
146
0.0
  0
ENDTAB
  0
TABLE
  2
LTYPE
  5
4
100
AcDbSymbolTable
 70
     6
  0
LTYPE
  5
11
100
AcDbSymbolTableRecord
100
AcDbLinetypeTableRecord
  2
ByBlock
 70
    64
  3

 72
    65
 73
     0
 40
0.0
  0
LTYPE
  5
12
100
AcDbSymbolTableRecord
100
AcDbLinetypeTableRecord
  2
ByLayer
 70
    64
  3

 72
    65
 73
     0
 40
0.0
  0
LTYPE
  5
13
100
AcDbSymbolTableRecord
100
AcDbLinetypeTableRecord
  2
Continuous
 70
    64
  3
Solid line
 72
    65
 73
     0
 40
0.0
  0
LTYPE
  5
4A
100
AcDbSymbolTableRecord
100
AcDbLinetypeTableRecord
  2
AI9-LType1
 70
    64
  3
Illustrator Dash Style No.1
 72
    65
 73
     4
 40
8.466667
 49
3.527778
 74
     0
 49
-2.116667
 74
     0
 49
0.705556
 74
     0
 49
-2.116667
 74
     0
  0
LTYPE
  5
4D
100
AcDbSymbolTableRecord
100
AcDbLinetypeTableRecord
  2
AI9-LType2
 70
    64
  3
Illustrator Dash Style No.2
 72
    65
 73
     2
 40
2.116667
 49
1.058333
 74
     0
 49
-1.058333
 74
     0
  0
LTYPE
  5
C9
100
AcDbSymbolTableRecord
100
AcDbLinetypeTableRecord
  2
AI9-LType3
 70
    64
  3
Illustrator Dash Style No.3
 72
    65
 73
     6
 40
10.583333
 49
3.527778
 74
     0
 49
-2.116667
 74
     0
 49
0.705556
 74
     0
 49
-1.411111
 74
     0
 49
0.705556
 74
     0
 49
-2.116667
 74
     0
  0
ENDTAB
  0
TABLE
  2
LAYER
  5
2
100
AcDbSymbolTable
 70
    13
  0
LAYER
  5
14
100
AcDbSymbolTableRecord
100
AcDbLayerTableRecord
  2
0
 70
     0
 62
     7
  6
Continuous
290
     1
370
    -3
390
1D
  0
LAYER
  5
28
100
AcDbSymbolTableRecord
100
AcDbLayerTableRecord
  2
RAHMEN
 70
     0
 62
     3
  6
Continuous
290
     1
370
    -3
390
1D
  0
LAYER
  5
36
100
AcDbSymbolTableRecord
100
AcDbLayerTableRecord
  2
TEXT
 70
     0
 62
     1
  6
Continuous
290
     1
370
    -3
390
1D
  0
LAYER
  5
40
100
AcDbSymbolTableRecord
100
AcDbLayerTableRecord
  2
BESCHREIBUNG
 70
     0
 62
     7
  6
Continuous
290
     1
370
    -3
390
1D
  0
LAYER
  5
48
100
AcDbSymbolTableRecord
100
AcDbLayerTableRecord
  2
MITTELLINIE
 70
     0
 62
   253
  6
Continuous
290
     1
370
    -3
390
1D
  0
LAYER
  5
4C
100
AcDbSymbolTableRecord
100
AcDbLayerTableRecord
  2
RAUHEIT
 70
     0
 62
   253
  6
Continuous
290
     1
370
    -3
390
1D
  0
LAYER
  5
50
100
AcDbSymbolTableRecord
100
AcDbLayerTableRecord
  2
SCHRAFFUR
 70
     0
 62
     4
  6
Continuous
290
     1
370
    -3
390
1D
  0
LAYER
  5
C3
100
AcDbSymbolTableRecord
100
AcDbLayerTableRecord
  2
WASSER
 70
     0
 62
     6
  6
Continuous
290
     1
370
    -3
390
1D
  0
LAYER
  5
C8
100
AcDbSymbolTableRecord
100
AcDbLayerTableRecord
  2
GETRENNT
 70
     0
 62
     2
  6
Continuous
290
     1
370
    -3
390
1D
  0
LAYER
  5
CC
100
AcDbSymbolTableRecord
100
AcDbLayerTableRecord
  2
ROHRSCHRAFFUR
 70
     0
 62
     5
  6
Continuous
290
     1
370
    -3
390
1D
  0
LAYER
  5
14F
100
AcDbSymbolTableRecord
100
AcDbLayerTableRecord
  2
KOERPER
 70
     0
 62
     3
  6
Continuous
290
     1
370
    -3
390
1D
  0
LAYER
  5
171
100
AcDbSymbolTableRecord
100
AcDbLayerTableRecord
  2
BITUMEN
 70
     0
 62
     1
  6
Continuous
290
     1
370
    -3
390
1D
  0
LAYER
  5
174
100
AcDbSymbolTableRecord
100
AcDbLayerTableRecord
  2
QUELLMTEL
 70
     0
 62
   160
  6
Continuous
290
     1
370
    -3
390
1D
  0
ENDTAB
  0
TABLE
  2
STYLE
  5
3
100
AcDbSymbolTable
 70
     5
  0
STYLE
  5
17
100
AcDbSymbolTableRecord
100
AcDbTextStyleTableRecord
  2
Standard
 70
     0
 40
0.0
 41
1.0
 50
0.0
 71
     0
 42
0.0
  3
txt
  4

  0
STYLE
  5
24
100
AcDbSymbolTableRecord
100
AcDbTextStyleTableRecord
  2
STD
 70
     0
 40
0.0
 41
1.0
 50
0.0
 71
     0
 42
0.0
  3
txt
  4

  0
STYLE
  5
25
100
AcDbSymbolTableRecord
100
AcDbTextStyleTableRecord
  2
TATESTD
 70
     4
 40
0.0
 41
1.0
 50
0.0
 71
     0
 42
0.0
  3
txt
  4

  0
STYLE
  5
26
100
AcDbSymbolTableRecord
100
AcDbTextStyleTableRecord
  2
KANJISTD
 70
     0
 40
0.0
 41
1.0
 50
0.0
 71
     0
 42
0.0
  3
txt
  4
extfont
  0
STYLE
  5
27
100
AcDbSymbolTableRecord
100
AcDbTextStyleTableRecord
  2
KANJITATE
 70
     4
 40
0.0
 41
1.0
 50
0.0
 71
     0
 42
0.0
  3
txt
  4
extfont
  0
ENDTAB
  0
TABLE
  2
VIEW
  5
5
100
AcDbSymbolTable
 70
     0
  0
ENDTAB
  0
TABLE
  2
UCS
  5
6
100
AcDbSymbolTable
 70
     0
  0
ENDTAB
  0
TABLE
  2
APPID
  5
8
100
AcDbSymbolTable
 70
     1
  0
APPID
  5
16
100
AcDbSymbolTableRecord
100
AcDbRegAppTableRecord
  2
ACAD
 70
     0
  0
ENDTAB
  0
TABLE
  2
DIMSTYLE
  5
9
100
AcDbSymbolTable
 70
     1
100
AcDbDimStyleTable
 71
     0
  0
DIMSTYLE
105
18
100
AcDbSymbolTableRecord
100
AcDbDimStyleTableRecord
  2
Standard
 70
     0
  3

  4

 40
1.0
 41
0.18
 42
0.0625
 43
0.38
 44
0.18
 45
0.0
 46
0.0
 47
0.0
 48
0.0
 71
     0
 72
     0
 73
     1
 74
     1
 75
     0
 76
     0
 77
     0
 78
     0
 79
     0
140
0.18
141
0.09
142
0.0
143
25.4
144
1.0
145
0.0
146
1.0
147
0.09
148
0.0
170
     0
171
     2
172
     0
173
     0
174
     0
175
     0
176
     0
177
     0
178
     0
179
     0
271
     4
272
     4
273
     2
274
     2
275
     0
276
     0
277
     2
278
    46
279
     0
280
     0
281
     0
282
     0
283
     1
284
     0
285
     0
286
     0
288
     0
340
17
341
0
342
0
343
0
344
0
371
    -2
372
    -2
  0
ENDTAB
  0
TABLE
  2
BLOCK_RECORD
  5
1
100
AcDbSymbolTable
 70
     2
  0
BLOCK_RECORD
  5
A
100
AcDbSymbolTableRecord
100
AcDbBlockTableRecord
  2
*MODEL_SPACE
340
20
  0
BLOCK_RECORD
  5
B
100
AcDbSymbolTableRecord
100
AcDbBlockTableRecord
  2
*PAPER_SPACE
340
21
  0
BLOCK_RECORD
  5
CD
100
AcDbSymbolTableRecord
100
AcDbBlockTableRecord
  2
AI9-BLK1
340
0
102
{BLKREFS
331
CE
102
}
  0
BLOCK_RECORD
  5
10E
100
AcDbSymbolTableRecord
100
AcDbBlockTableRecord
  2
AI9-BLK2
340
0
102
{BLKREFS
331
10F
102
}
  0
ENDTAB
  0
ENDSEC
  0
SECTION
  2
BLOCKS
  0
BLOCK
  5
D
100
AcDbEntity
  8
0
100
AcDbBlockBegin
  2
*MODEL_SPACE
 70
     0
 10
0.0
 20
0.0
 30
0.0
  3
*MODEL_SPACE
  1

  0
ENDBLK
  5
E
100
AcDbEntity
  8
0
100
AcDbBlockEnd
  0
BLOCK
  5
F
100
AcDbEntity
 67
     1
  8
0
100
AcDbBlockBegin
  2
*PAPER_SPACE
 70
     0
 10
0.0
 20
0.0
 30
0.0
  3
*PAPER_SPACE
  1

  0
ENDBLK
  5
10
100
AcDbEntity
 67
     1
  8
0
100
AcDbBlockEnd
  0
BLOCK
  5
CF
100
AcDbEntity
  8
ROHRSCHRAFFUR
  6
AI9-LType3
 62
     7
100
AcDbBlockBegin
  2
AI9-BLK1
 70
     0
 10
0.0
 20
0.0
 30
0.0
  3
AI9-BLK1
  1

  0
LINE
  5
10C
100
AcDbEntity
  8
ROHRSCHRAFFUR
 62
     7
100
AcDbLine
 10
1.126029
 20
2.158697
 30
0.0
 11
2.212957
 21
3.245452
 31
0.0
  0
LINE
  5
10B
100
AcDbEntity
  8
ROHRSCHRAFFUR
 62
     7
100
AcDbLine
 10
1.128097
 20
1.608343
 30
0.0
 11
2.193665
 21
2.673739
 31
0.0
  0
LINE
  5
10A
100
AcDbEntity
  8
ROHRSCHRAFFUR
 62
     7
100
AcDbLine
 10
1.123962
 20
1.051788
 30
0.0
 11
2.165415
 21
2.093068
 31
0.0
  0
LINE
  5
109
100
AcDbEntity
  8
ROHRSCHRAFFUR
 62
     7
100
AcDbLine
 10
1.041625
 20
-1.240407
 30
0.0
 11
1.953541
 21
-0.328662
 31
0.0
  0
LINE
  5
108
100
AcDbEntity
  8
ROHRSCHRAFFUR
 62
     7
100
AcDbLine
 10
1.07263
 20
-0.65698
 30
0.0
 11
2.022443
 21
0.292833
 31
0.0
  0
LINE
  5
107
100
AcDbEntity
  8
ROHRSCHRAFFUR
 62
     7
100
AcDbLine
 10
1.096402
 20
-0.080615
 30
0.0
 11
2.080321
 21
0.903132
 31
0.0
  0
LINE
  5
106
100
AcDbEntity
  8
ROHRSCHRAFFUR
 62
     7
100
AcDbLine
 10
1.113627
 20
0.488859
 30
0.0
 11
2.127863
 21
1.503095
 31
0.0
  0
LINE
  5
105
100
AcDbEntity
  8
ROHRSCHRAFFUR
 62
     7
100
AcDbLine
 10
0.90451
 20
6.356546
 30
0.0
 11
1.847432
 21
7.299296
 31
0.0
  0
LINE
  5
104
100
AcDbEntity
  8
ROHRSCHRAFFUR
 62
     7
100
AcDbLine
 10
0.954808
 20
5.854251
 30
0.0
 11
2.031745
 21
6.931188
 31
0.0
  0
LINE
  5
103
100
AcDbEntity
  8
ROHRSCHRAFFUR
 62
     7
100
AcDbLine
 10
0.994771
 20
5.341965
 30
0.0
 11
2.150601
 21
6.497622
 31
0.0
  0
LINE
  5
102
100
AcDbEntity
  8
ROHRSCHRAFFUR
 62
     7
100
AcDbLine
 10
1.030256
 20
4.824856
 30
0.0
 11
2.188841
 21
5.983614
 31
0.0
  0
LINE
  5
101
100
AcDbEntity
  8
ROHRSCHRAFFUR
 62
     7
100
AcDbLine
 10
1.060228
 20
4.302407
 30
0.0
 11
2.208823
 21
5.451002
 31
0.0
  0
LINE
  5
100
100
AcDbEntity
  8
ROHRSCHRAFFUR
 62
     7
100
AcDbLine
 10
1.085033
 20
3.774791
 30
0.0
 11
2.221225
 21
4.911156
 31
0.0
  0
LINE
  5
FF
100
AcDbEntity
  8
ROHRSCHRAFFUR
 62
     7
100
AcDbLine
 10
1.104325
 20
3.241835
 30
0.0
 11
2.226393
 21
4.363902
 31
0.0
  0
LINE
  5
FE
100
AcDbEntity
  8
ROHRSCHRAFFUR
 62
     7
100
AcDbLine
 10
1.118106
 20
2.703194
 30
0.0
 11
2.223637
 21
3.808725
 31
0.0
  0
LINE
  5
FD
100
AcDbEntity
  8
ROHRSCHRAFFUR
 62
     7
100
AcDbLine
 10
1.00304
 20
-1.831241
 30
0.0
 11
1.872582
 21
-0.961698
 31
0.0
  0
LINE
  5
FC
100
AcDbEntity
  8
ROHRSCHRAFFUR
 62
     7
100
AcDbLine
 10
-1.581471
 20
-1.662259
 30
0.0
 11
-0.955497
 21
-1.036285
 31
0.0
  0
LINE
  5
FB
100
AcDbEntity
  8
ROHRSCHRAFFUR
 62
     7
100
AcDbLine
 10
-1.094335
 20
-3.928787
 30
0.0
 11
-0.725709
 21
-3.559989
 31
0.0
  0
LINE
  5
FA
100
AcDbEntity
  8
ROHRSCHRAFFUR
 62
     7
100
AcDbLine
 10
-1.196309
 20
-3.478168
 30
0.0
 11
-0.780486
 21
-3.062518
 31
0.0
  0
LINE
  5
F9
100
AcDbEntity
  8
ROHRSCHRAFFUR
 62
     7
100
AcDbLine
 10
-1.296217
 20
-3.025655
 30
0.0
 11
-0.831129
 21
-2.560739
 31
0.0
  0
LINE
  5
F8
100
AcDbEntity
  8
ROHRSCHRAFFUR
 62
     7
100
AcDbLine
 10
-1.393713
 20
-2.570903
 30
0.0
 11
-0.877294
 21
-2.054483
 31
0.0
  0
LINE
  5
F7
100
AcDbEntity
  8
ROHRSCHRAFFUR
 62
     7
100
AcDbLine
 10
-1.489487
 20
-2.114083
 30
0.0
 11
-0.918979
 21
-1.543747
 31
0.0
  0
LINE
  5
F6
100
AcDbEntity
  8
ROHRSCHRAFFUR
 62
     7
100
AcDbLine
 10
0.598241
 20
-5.550738
 30
0.0
 11
1.090889
 21
-5.058089
 31
0.0
  0
LINE
  5
F5
100
AcDbEntity
  8
ROHRSCHRAFFUR
 62
     7
100
AcDbLine
 10
-0.776352
 20
-5.267896
 30
0.0
 11
-0.53554
 21
-5.027083
 31
0.0
  0
LINE
  5
F4
100
AcDbEntity
  8
ROHRSCHRAFFUR
 62
     7
100
AcDbLine
 10
0.264067
 20
-7.542348
 30
0.0
 11
0.446657
 21
-7.359757
 31
0.0
  0
LINE
  5
F3
100
AcDbEntity
  8
ROHRSCHRAFFUR
 62
     7
100
AcDbLine
 10
0.129363
 20
-8.229644
 30
0.0
 11
0.180006
 21
-8.178657
 31
0.0
  0
LINE
  5
F2
100
AcDbEntity
  8
ROHRSCHRAFFUR
 62
     7
100
AcDbLine
 10
0.035312
 20
-8.323695
 30
0.0
 11
0.044614
 21
-8.314049
 31
0.0
  0
LINE
  5
F1
100
AcDbEntity
  8
ROHRSCHRAFFUR
 62
     7
100
AcDbLine
 10
-0.206189
 20
-7.460354
 30
0.0
 11
-0.139354
 21
-7.393519
 31
0.0
  0
LINE
  5
F0
100
AcDbEntity
  8
ROHRSCHRAFFUR
 62
     7
100
AcDbLine
 10
-0.324011
 20
-7.025583
 30
0.0
 11
-0.226171
 21
-6.927743
 31
0.0
  0
LINE
  5
EF
100
AcDbEntity
  8
ROHRSCHRAFFUR
 62
     7
100
AcDbLine
 10
-0.554144
 20
-6.150873
 30
0.0
 11
-0.388435
 21
-5.985164
 31
0.0
  0
LINE
  5
EE
100
AcDbEntity
  8
ROHRSCHRAFFUR
 62
     7
100
AcDbLine
 10
-0.666109
 20
-5.710246
 30
0.0
 11
-0.463882
 21
-5.508019
 31
0.0
  0
LINE
  5
ED
100
AcDbEntity
  8
ROHRSCHRAFFUR
 62
     7
100
AcDbLine
 10
-0.440111
 20
-6.58909
 30
0.0
 11
-0.309197
 21
-6.458176
 31
0.0
  0
LINE
  5
EC
100
AcDbEntity
  8
ROHRSCHRAFFUR
 62
     7
100
AcDbLine
 10
-0.0863
 20
-7.892714
 30
0.0
 11
-0.049093
 21
-7.855507
 31
0.0
  0
LINE
  5
EB
100
AcDbEntity
  8
ROHRSCHRAFFUR
 62
     7
100
AcDbLine
 10
0.497644
 20
-6.203928
 30
0.0
 11
0.899342
 21
-5.80223
 31
0.0
  0
LINE
  5
EA
100
AcDbEntity
  8
ROHRSCHRAFFUR
 62
     7
100
AcDbLine
 10
0.386367
 20
-6.867453
 30
0.0
 11
0.685402
 21
-6.568419
 31
0.0
  0
LINE
  5
E9
100
AcDbEntity
  8
ROHRSCHRAFFUR
 62
     7
100
AcDbLine
 10
-0.884184
 20
-4.82365
 30
0.0
 11
-0.602719
 21
-4.542186
 31
0.0
  0
LINE
  5
E8
100
AcDbEntity
  8
ROHRSCHRAFFUR
 62
     7
100
AcDbLine
 10
-0.990293
 20
-4.377166
 30
0.0
 11
-0.666454
 21
-4.053155
 31
0.0
  0
LINE
  5
E7
100
AcDbEntity
  8
ROHRSCHRAFFUR
 62
     7
100
AcDbLine
 10
0.768773
 20
-4.275191
 30
0.0
 11
1.415762
 21
-3.628547
 31
0.0
  0
LINE
  5
E6
100
AcDbEntity
  8
ROHRSCHRAFFUR
 62
     7
100
AcDbLine
 10
0.840087
 20
-3.651457
 30
0.0
 11
1.552188
 21
-2.9397
 31
0.0
  0
LINE
  5
E5
100
AcDbEntity
  8
ROHRSCHRAFFUR
 62
     7
100
AcDbLine
 10
0.902787
 20
-3.036507
 30
0.0
 11
1.673111
 21
-2.266356
 31
0.0
  0
LINE
  5
E4
100
AcDbEntity
  8
ROHRSCHRAFFUR
 62
     7
100
AcDbLine
 10
0.956875
 20
-2.429826
 30
0.0
 11
1.779564
 21
-1.607309
 31
0.0
  0
LINE
  5
E3
100
AcDbEntity
  8
ROHRSCHRAFFUR
 62
     7
100
AcDbLine
 10
0.688502
 20
-4.908228
 30
0.0
 11
1.262455
 21
-4.334102
 31
0.0
  0
LINE
  5
E2
100
AcDbEntity
  8
ROHRSCHRAFFUR
 62
     7
100
AcDbLine
 10
-2.218469
 20
5.443251
 30
0.0
 11
0.583771
 21
8.245492
 31
0.0
  0
LINE
  5
E1
100
AcDbEntity
  8
ROHRSCHRAFFUR
 62
     7
100
AcDbLine
 10
-2.226393
 20
4.882906
 30
0.0
 11
-0.944473
 21
6.164654
 31
0.0
  0
LINE
  5
E0
100
AcDbEntity
  8
ROHRSCHRAFFUR
 62
     7
100
AcDbLine
 10
-1.837097
 20
-0.252181
 30
0.0
 11
-1.037491
 21
0.547598
 31
0.0
  0
LINE
  5
DF
100
AcDbEntity
  8
ROHRSCHRAFFUR
 62
     7
100
AcDbLine
 10
-1.758549
 20
-0.726054
 30
0.0
 11
-1.015097
 21
0.017398
 31
0.0
  0
LINE
  5
DE
100
AcDbEntity
  8
ROHRSCHRAFFUR
 62
     7
100
AcDbLine
 10
-1.6738
 20
-1.193726
 30
0.0
 11
-0.987881
 21
-0.507979
 31
0.0
  0
LINE
  5
DD
100
AcDbEntity
  8
ROHRSCHRAFFUR
 62
     7
100
AcDbLine
 10
-2.22467
 20
4.332208
 30
0.0
 11
-0.981335
 21
5.575543
 31
0.0
  0
LINE
  5
DC
100
AcDbEntity
  8
ROHRSCHRAFFUR
 62
     7
100
AcDbLine
 10
-2.213646
 20
3.790811
 30
0.0
 11
-1.012341
 21
4.991943
 31
0.0
  0
LINE
  5
DB
100
AcDbEntity
  8
ROHRSCHRAFFUR
 62
     7
100
AcDbLine
 10
-2.193665
 20
3.258371
 30
0.0
 11
-1.036801
 21
4.415062
 31
0.0
  0
LINE
  5
DA
100
AcDbEntity
  8
ROHRSCHRAFFUR
 62
     7
100
AcDbLine
 10
-2.0848
 20
1.709801
 30
0.0
 11
-1.071941
 21
2.722659
 31
0.0
  0
LINE
  5
D9
100
AcDbEntity
  8
ROHRSCHRAFFUR
 62
     7
100
AcDbLine
 10
-2.033468
 20
1.208884
 30
0.0
 11
-1.071597
 21
2.170582
 31
0.0
  0
LINE
  5
D8
100
AcDbEntity
  8
ROHRSCHRAFFUR
 62
     7
100
AcDbLine
 10
-1.974901
 20
0.71503
 30
0.0
 11
-1.06574
 21
1.624018
 31
0.0
  0
LINE
  5
D7
100
AcDbEntity
  8
ROHRSCHRAFFUR
 62
     7
100
AcDbLine
 10
-1.909444
 20
0.228065
 30
0.0
 11
-1.054371
 21
1.083138
 31
0.0
  0
LINE
  5
D6
100
AcDbEntity
  8
ROHRSCHRAFFUR
 62
     7
100
AcDbLine
 10
-2.128897
 20
2.218125
 30
0.0
 11
-1.066429
 21
3.280592
 31
0.0
  0
LINE
  5
D5
100
AcDbEntity
  8
ROHRSCHRAFFUR
 62
     7
100
AcDbLine
 10
-2.165415
 20
2.7342
 30
0.0
 11
-1.054716
 21
3.844727
 31
0.0
  0
LINE
  5
D4
100
AcDbEntity
  8
ROHRSCHRAFFUR
 62
     7
100
AcDbLine
 10
-2.140266
 20
6.626469
 30
0.0
 11
-0.494543
 21
8.272191
 31
0.0
  0
LINE
  5
D3
100
AcDbEntity
  8
ROHRSCHRAFFUR
 62
     7
100
AcDbLine
 10
-2.20021
 20
6.014103
 30
0.0
 11
0.109726
 21
8.323867
 31
0.0
  0
LINE
  5
D2
100
AcDbEntity
  8
ROHRSCHRAFFUR
 62
     7
100
AcDbLine
 10
-0.032556
 20
7.076743
 30
0.0
 11
0.981335
 21
8.090634
 31
0.0
  0
LINE
  5
D1
100
AcDbEntity
  8
ROHRSCHRAFFUR
 62
     7
100
AcDbLine
 10
0.418062
 20
6.97494
 30
0.0
 11
1.320677
 21
7.877555
 31
0.0
  0
LINE
  5
D0
100
AcDbEntity
  8
ROHRSCHRAFFUR
 62
     7
100
AcDbLine
 10
0.722953
 20
6.727238
 30
0.0
 11
1.609032
 21
7.613317
 31
0.0
  0
ENDBLK
  5
10D
100
AcDbEntity
  8
ROHRSCHRAFFUR
100
AcDbBlockEnd
  0
BLOCK
  5
110
100
AcDbEntity
  8
ROHRSCHRAFFUR
 62
     7
100
AcDbBlockBegin
  2
AI9-BLK2
 70
     0
 10
0.0
 20
0.0
 30
0.0
  3
AI9-BLK2
  1

  0
LINE
  5
14D
100
AcDbEntity
  8
ROHRSCHRAFFUR
 62
     7
100
AcDbLine
 10
2.213474
 20
-3.790552
 30
0.0
 11
1.012514
 21
-4.991513
 31
0.0
  0
LINE
  5
14C
100
AcDbEntity
  8
ROHRSCHRAFFUR
 62
     7
100
AcDbLine
 10
-1.030084
 20
-4.824426
 30
0.0
 11
-2.189014
 21
-5.983356
 31
0.0
  0
LINE
  5
14B
100
AcDbEntity
  8
ROHRSCHRAFFUR
 62
     7
100
AcDbLine
 10
2.22467
 20
-4.331777
 30
0.0
 11
0.981335
 21
-5.575112
 31
0.0
  0
LINE
  5
14A
100
AcDbEntity
  8
ROHRSCHRAFFUR
 62
     7
100
AcDbLine
 10
2.226393
 20
-4.882648
 30
0.0
 11
0.944645
 21
-6.164223
 31
0.0
  0
LINE
  5
149
100
AcDbEntity
  8
ROHRSCHRAFFUR
 62
     7
100
AcDbLine
 10
-1.060228
 20
-4.302149
 30
0.0
 11
-2.208651
 21
-5.450744
 31
0.0
  0
LINE
  5
148
100
AcDbEntity
  8
ROHRSCHRAFFUR
 62
     7
100
AcDbLine
 10
2.140093
 20
-6.626211
 30
0.0
 11
0.494371
 21
-8.271588
 31
0.0
  0
LINE
  5
147
100
AcDbEntity
  8
ROHRSCHRAFFUR
 62
     7
100
AcDbLine
 10
2.200038
 20
-6.013673
 30
0.0
 11
-0.109726
 21
-8.323609
 31
0.0
  0
LINE
  5
146
100
AcDbEntity
  8
ROHRSCHRAFFUR
 62
     7
100
AcDbLine
 10
2.218297
 20
-5.44282
 30
0.0
 11
-0.583944
 21
-8.245061
 31
0.0
  0
LINE
  5
145
100
AcDbEntity
  8
ROHRSCHRAFFUR
 62
     7
100
AcDbLine
 10
-0.954636
 20
-5.85382
 30
0.0
 11
-2.031745
 21
-6.930757
 31
0.0
  0
LINE
  5
144
100
AcDbEntity
  8
ROHRSCHRAFFUR
 62
     7
100
AcDbLine
 10
-0.994944
 20
-5.341534
 30
0.0
 11
-2.150429
 21
-6.497364
 31
0.0
  0
LINE
  5
143
100
AcDbEntity
  8
ROHRSCHRAFFUR
 62
     7
100
AcDbLine
 10
-0.418062
 20
-6.97451
 30
0.0
 11
-1.320677
 21
-7.877125
 31
0.0
  0
LINE
  5
142
100
AcDbEntity
  8
ROHRSCHRAFFUR
 62
     7
100
AcDbLine
 10
0.032556
 20
-7.07614
 30
0.0
 11
-0.981508
 21
-8.090376
 31
0.0
  0
LINE
  5
141
100
AcDbEntity
  8
ROHRSCHRAFFUR
 62
     7
100
AcDbLine
 10
-0.722781
 20
-6.726807
 30
0.0
 11
-1.609032
 21
-7.612886
 31
0.0
  0
LINE
  5
140
100
AcDbEntity
  8
ROHRSCHRAFFUR
 62
     7
100
AcDbLine
 10
-0.90451
 20
-6.356115
 30
0.0
 11
-1.84726
 21
-7.299038
 31
0.0
  0
LINE
  5
13F
100
AcDbEntity
  8
ROHRSCHRAFFUR
 62
     7
100
AcDbLine
 10
1.094335
 20
3.929218
 30
0.0
 11
0.725537
 21
3.560248
 31
0.0
  0
LINE
  5
13E
100
AcDbEntity
  8
ROHRSCHRAFFUR
 62
     7
100
AcDbLine
 10
1.296045
 20
3.025913
 30
0.0
 11
0.831302
 21
2.56117
 31
0.0
  0
LINE
  5
13D
100
AcDbEntity
  8
ROHRSCHRAFFUR
 62
     7
100
AcDbLine
 10
1.196309
 20
3.478599
 30
0.0
 11
0.780659
 21
3.063121
 31
0.0
  0
LINE
  5
13C
100
AcDbEntity
  8
ROHRSCHRAFFUR
 62
     7
100
AcDbLine
 10
1.393886
 20
2.571505
 30
0.0
 11
0.877466
 21
2.055086
 31
0.0
  0
LINE
  5
13B
100
AcDbEntity
  8
ROHRSCHRAFFUR
 62
     7
100
AcDbLine
 10
0.990293
 20
4.377424
 30
0.0
 11
0.666281
 21
4.053585
 31
0.0
  0
LINE
  5
13A
100
AcDbEntity
  8
ROHRSCHRAFFUR
 62
     7
100
AcDbLine
 10
-0.956875
 20
2.430256
 30
0.0
 11
-1.779564
 21
1.607568
 31
0.0
  0
LINE
  5
139
100
AcDbEntity
  8
ROHRSCHRAFFUR
 62
     7
100
AcDbLine
 10
-1.085033
 20
-3.77436
 30
0.0
 11
-2.221225
 21
-4.910897
 31
0.0
  0
LINE
  5
138
100
AcDbEntity
  8
ROHRSCHRAFFUR
 62
     7
100
AcDbLine
 10
-1.104325
 20
-3.241404
 30
0.0
 11
-2.226393
 21
-4.363472
 31
0.0
  0
LINE
  5
137
100
AcDbEntity
  8
ROHRSCHRAFFUR
 62
     7
100
AcDbLine
 10
-1.118106
 20
-2.702936
 30
0.0
 11
-2.223809
 21
-3.808467
 31
0.0
  0
LINE
  5
136
100
AcDbEntity
  8
ROHRSCHRAFFUR
 62
     7
100
AcDbLine
 10
-1.126202
 20
-2.158266
 30
0.0
 11
-2.212957
 21
-3.245194
 31
0.0
  0
LINE
  5
135
100
AcDbEntity
  8
ROHRSCHRAFFUR
 62
     7
100
AcDbLine
 10
-1.128269
 20
-1.608084
 30
0.0
 11
-2.193665
 21
-2.673308
 31
0.0
  0
LINE
  5
134
100
AcDbEntity
  8
ROHRSCHRAFFUR
 62
     7
100
AcDbLine
 10
-1.124135
 20
-1.051357
 30
0.0
 11
-2.165415
 21
-2.092809
 31
0.0
  0
LINE
  5
133
100
AcDbEntity
  8
ROHRSCHRAFFUR
 62
     7
100
AcDbLine
 10
-1.041452
 20
1.24101
 30
0.0
 11
-1.953369
 21
0.329093
 31
0.0
  0
LINE
  5
132
100
AcDbEntity
  8
ROHRSCHRAFFUR
 62
     7
100
AcDbLine
 10
-1.07263
 20
0.65741
 30
0.0
 11
-2.022271
 21
-0.292402
 31
0.0
  0
LINE
  5
131
100
AcDbEntity
  8
ROHRSCHRAFFUR
 62
     7
100
AcDbLine
 10
-1.096574
 20
0.081046
 30
0.0
 11
-2.080321
 21
-0.902873
 31
0.0
  0
LINE
  5
130
100
AcDbEntity
  8
ROHRSCHRAFFUR
 62
     7
100
AcDbLine
 10
-1.113627
 20
-0.488428
 30
0.0
 11
-2.127691
 21
-1.502665
 31
0.0
  0
LINE
  5
12F
100
AcDbEntity
  8
ROHRSCHRAFFUR
 62
     7
100
AcDbLine
 10
-1.00304
 20
1.831843
 30
0.0
 11
-1.872754
 21
0.961957
 31
0.0
  0
LINE
  5
12E
100
AcDbEntity
  8
ROHRSCHRAFFUR
 62
     7
100
AcDbLine
 10
-0.768945
 20
4.275794
 30
0.0
 11
-1.41559
 21
3.628805
 31
0.0
  0
LINE
  5
12D
100
AcDbEntity
  8
ROHRSCHRAFFUR
 62
     7
100
AcDbLine
 10
-0.840259
 20
3.651887
 30
0.0
 11
-1.552016
 21
2.940131
 31
0.0
  0
LINE
  5
12C
100
AcDbEntity
  8
ROHRSCHRAFFUR
 62
     7
100
AcDbLine
 10
-0.902787
 20
3.036938
 30
0.0
 11
-1.672938
 21
2.266614
 31
0.0
  0
LINE
  5
12B
100
AcDbEntity
  8
ROHRSCHRAFFUR
 62
     7
100
AcDbLine
 10
-0.598069
 20
5.551341
 30
0.0
 11
-1.090889
 21
5.05852
 31
0.0
  0
LINE
  5
12A
100
AcDbEntity
  8
ROHRSCHRAFFUR
 62
     7
100
AcDbLine
 10
-0.68833
 20
4.908658
 30
0.0
 11
-1.262455
 21
4.334361
 31
0.0
  0
LINE
  5
129
100
AcDbEntity
  8
ROHRSCHRAFFUR
 62
     7
100
AcDbLine
 10
0.666109
 20
5.710676
 30
0.0
 11
0.463882
 21
5.508449
 31
0.0
  0
LINE
  5
128
100
AcDbEntity
  8
ROHRSCHRAFFUR
 62
     7
100
AcDbLine
 10
0.884356
 20
4.823909
 30
0.0
 11
0.602892
 21
4.542445
 31
0.0
  0
LINE
  5
127
100
AcDbEntity
  8
ROHRSCHRAFFUR
 62
     7
100
AcDbLine
 10
0.77618
 20
5.268326
 30
0.0
 11
0.535368
 21
5.027514
 31
0.0
  0
LINE
  5
126
100
AcDbEntity
  8
ROHRSCHRAFFUR
 62
     7
100
AcDbLine
 10
-0.497644
 20
6.204186
 30
0.0
 11
-0.899342
 21
5.802488
 31
0.0
  0
LINE
  5
125
100
AcDbEntity
  8
ROHRSCHRAFFUR
 62
     7
100
AcDbLine
 10
-0.38654
 20
6.867712
 30
0.0
 11
-0.685402
 21
6.56885
 31
0.0
  0
LINE
  5
124
100
AcDbEntity
  8
ROHRSCHRAFFUR
 62
     7
100
AcDbLine
 10
-0.129191
 20
8.229902
 30
0.0
 11
-0.180178
 21
8.178915
 31
0.0
  0
LINE
  5
123
100
AcDbEntity
  8
ROHRSCHRAFFUR
 62
     7
100
AcDbLine
 10
-0.263894
 20
7.542778
 30
0.0
 11
-0.446657
 21
7.359844
 31
0.0
  0
LINE
  5
122
100
AcDbEntity
  8
ROHRSCHRAFFUR
 62
     7
100
AcDbLine
 10
-0.035312
 20
8.323781
 30
0.0
 11
-0.044614
 21
8.31448
 31
0.0
  0
LINE
  5
121
100
AcDbEntity
  8
ROHRSCHRAFFUR
 62
     7
100
AcDbLine
 10
0.086472
 20
7.893144
 30
0.0
 11
0.049265
 21
7.855937
 31
0.0
  0
LINE
  5
120
100
AcDbEntity
  8
ROHRSCHRAFFUR
 62
     7
100
AcDbLine
 10
0.206189
 20
7.46044
 30
0.0
 11
0.139526
 21
7.393778
 31
0.0
  0
LINE
  5
11F
100
AcDbEntity
  8
ROHRSCHRAFFUR
 62
     7
100
AcDbLine
 10
0.440111
 20
6.58952
 30
0.0
 11
0.309197
 21
6.458607
 31
0.0
  0
LINE
  5
11E
100
AcDbEntity
  8
ROHRSCHRAFFUR
 62
     7
100
AcDbLine
 10
0.554144
 20
6.151132
 30
0.0
 11
0.388435
 21
5.985423
 31
0.0
  0
LINE
  5
11D
100
AcDbEntity
  8
ROHRSCHRAFFUR
 62
     7
100
AcDbLine
 10
0.324183
 20
7.026014
 30
0.0
 11
0.226171
 21
6.928001
 31
0.0
  0
LINE
  5
11C
100
AcDbEntity
  8
ROHRSCHRAFFUR
 62
     7
100
AcDbLine
 10
2.033468
 20
-1.208453
 30
0.0
 11
1.071769
 21
-2.16998
 31
0.0
  0
LINE
  5
11B
100
AcDbEntity
  8
ROHRSCHRAFFUR
 62
     7
100
AcDbLine
 10
1.974901
 20
-0.714771
 30
0.0
 11
1.06574
 21
-1.623587
 31
0.0
  0
LINE
  5
11A
100
AcDbEntity
  8
ROHRSCHRAFFUR
 62
     7
100
AcDbLine
 10
2.193665
 20
-3.257941
 30
0.0
 11
1.036974
 21
-4.414804
 31
0.0
  0
LINE
  5
119
100
AcDbEntity
  8
ROHRSCHRAFFUR
 62
     7
100
AcDbLine
 10
2.165415
 20
-2.733942
 30
0.0
 11
1.054888
 21
-3.844296
 31
0.0
  0
LINE
  5
118
100
AcDbEntity
  8
ROHRSCHRAFFUR
 62
     7
100
AcDbLine
 10
2.129069
 20
-2.217866
 30
0.0
 11
1.066429
 21
-3.280334
 31
0.0
  0
LINE
  5
117
100
AcDbEntity
  8
ROHRSCHRAFFUR
 62
     7
100
AcDbLine
 10
2.084972
 20
-1.70937
 30
0.0
 11
1.072114
 21
-2.722228
 31
0.0
  0
LINE
  5
116
100
AcDbEntity
  8
ROHRSCHRAFFUR
 62
     7
100
AcDbLine
 10
1.581471
 20
1.662689
 30
0.0
 11
0.955325
 21
1.036715
 31
0.0
  0
LINE
  5
115
100
AcDbEntity
  8
ROHRSCHRAFFUR
 62
     7
100
AcDbLine
 10
1.837269
 20
0.252612
 30
0.0
 11
1.037318
 21
-0.54734
 31
0.0
  0
LINE
  5
114
100
AcDbEntity
  8
ROHRSCHRAFFUR
 62
     7
100
AcDbLine
 10
1.758721
 20
0.726312
 30
0.0
 11
1.01527
 21
-0.016795
 31
0.0
  0
LINE
  5
113
100
AcDbEntity
  8
ROHRSCHRAFFUR
 62
     7
100
AcDbLine
 10
1.6738
 20
1.194156
 30
0.0
 11
0.988053
 21
0.508238
 31
0.0
  0
LINE
  5
112
100
AcDbEntity
  8
ROHRSCHRAFFUR
 62
     7
100
AcDbLine
 10
1.489487
 20
2.114341
 30
0.0
 11
0.918979
 21
1.544178
 31
0.0
  0
LINE
  5
111
100
AcDbEntity
  8
ROHRSCHRAFFUR
 62
     7
100
AcDbLine
 10
1.909272
 20
-0.227635
 30
0.0
 11
1.054199
 21
-1.082707
 31
0.0
  0
ENDBLK
  5
14E
100
AcDbEntity
  8
ROHRSCHRAFFUR
100
AcDbBlockEnd
  0
ENDSEC
  0
SECTION
  2
ENTITIES
  0
HATCH
  5
176
100
AcDbEntity
  8
QUELLMTEL
 62
   254
100
AcDbHatch
 10
0.0
 20
0.0
 30
0.0
210
0.0
220
0.0
230
1.0
  2
SOLID
 70
     1
 71
     0
 91
        1
 92
        3
 72
     0
 73
     1
 93
        4
 10
142.95613199869791
 20
125.36564670138888
 10
202.95608723958333
 20
125.36564670138888
 10
202.95608723958333
 20
117.65810682508679
 10
142.95613199869791
 20
117.65810682508679
 97
        0
 75
     0
 76
     1
 98
        1
 10
0.0
 20
0.0
  0
HATCH
  5
175
100
AcDbEntity
  8
QUELLMTEL
 62
   254
100
AcDbHatch
 10
0.0
 20
0.0
 30
0.0
210
0.0
220
0.0
230
1.0
  2
SOLID
 70
     1
 71
     0
 91
        1
 92
        3
 72
     0
 73
     1
 93
        4
 10
142.89498155381943
 20
90.2149929470486
 10
202.89510904947915
 20
90.2149929470486
 10
202.89510904947915
 20
82.684014214409714
 10
142.89498155381943
 20
82.684014214409714
 97
        0
 75
     0
 76
     1
 98
        1
 10
0.0
 20
0.0
  0
HATCH
  5
173
100
AcDbEntity
  8
BITUMEN
 62
     7
100
AcDbHatch
 10
0.0
 20
0.0
 30
0.0
210
0.0
220
0.0
230
1.0
  2
SOLID
 70
     1
 71
     0
 91
        4
 92
        1
 93
        1
 72
     4
 94
        3
 73
     0
 74
     0
 95
       23
 96
       19
 40
0.0
 40
0.0
 40
0.0
 40
0.0
 40
1.0
 40
1.0
 40
1.0
 40
2.0
 40
2.0
 40
2.0
 40
3.0
 40
3.0
 40
3.0
 40
4.0
 40
4.0
 40
4.0
 40
5.0
 40
5.0
 40
5.0
 40
6.0
 40
6.0
 40
6.0
 40
6.0
 10
138.19501003689234
 20
122.12777370876735
 10
138.19501003689234
 20
122.12777370876735
 10
142.95613199869791
 20
122.12777370876735
 10
142.95613199869791
 20
122.12777370876735
 10
142.95613199869791
 20
122.12777370876735
 10
142.95613199869791
 20
117.77472330729165
 10
142.95613199869791
 20
117.77472330729165
 10
142.95613199869791
 20
117.77472330729165
 10
128.15927463107639
 20
117.77472330729165
 10
128.15927463107639
 20
117.77472330729165
 10
128.15927463107639
 20
117.77472330729165
 10
128.1628919813368
 20
119.02477620442707
 10
128.1628919813368
 20
119.02477620442707
 10
128.1628919813368
 20
119.02477620442707
 10
132.33111300998263
 20
119.02477620442707
 10
132.33111300998263
 20
119.02477620442707
 10
134.6031534830729
 20
119.29504394531249
 10
136.69346516927081
 20
120.40126410590277
 10
138.19501003689234
 20
122.12777370876735
 97
        0
 92
        1
 93
        1
 72
     4
 94
        3
 73
     0
 74
     0
 95
       20
 96
       16
 40
0.0
 40
0.0
 40
0.0
 40
0.0
 40
1.0
 40
1.0
 40
1.0
 40
2.0
 40
2.0
 40
2.0
 40
3.0
 40
3.0
 40
3.0
 40
4.0
 40
4.0
 40
4.0
 40
5.0
 40
5.0
 40
5.0
 40
5.0
 10
140.45602620442708
 20
130.83353000217014
 10
140.45602620442708
 20
130.83353000217014
 10
142.95613199869791
 20
130.83353000217014
 10
142.95613199869791
 20
130.83353000217014
 10
142.95613199869791
 20
130.83353000217014
 10
142.95613199869791
 20
126.48065185546874
 10
142.95613199869791
 20
126.48065185546874
 10
142.95613199869791
 20
126.48065185546874
 10
140.29944661458333
 20
126.48065185546874
 10
140.29944661458333
 20
126.48065185546874
 10
140.40968967013887
 20
127.06959092881944
 10
140.46205512152775
 20
127.66783175998263
 10
140.45602620442708
 20
128.26693386501734
 10
140.45602620442708
 20
128.26693386501734
 10
140.45602620442708
 20
130.83353000217014
 10
140.45602620442708
 20
130.83353000217014
 97
        0
 92
        1
 93
        1
 72
     4
 94
        3
 73
     0
 74
     0
 95
       20
 96
       16
 40
0.0
 40
0.0
 40
0.0
 40
0.0
 40
1.0
 40
1.0
 40
1.0
 40
2.0
 40
2.0
 40
2.0
 40
3.0
 40
3.0
 40
3.0
 40
4.0
 40
4.0
 40
4.0
 40
5.0
 40
5.0
 40
5.0
 40
5.0
 10
140.45602620442708
 20
139.53945855034721
 10
140.45602620442708
 20
139.53945855034721
 10
142.95613199869791
 20
139.53945855034721
 10
142.95613199869791
 20
139.53945855034721
 10
142.95613199869791
 20
139.53945855034721
 10
142.95613199869791
 20
135.18658040364582
 10
142.95613199869791
 20
135.18658040364582
 10
142.95613199869791
 20
135.18658040364582
 10
141.70607910156249
 20
135.18658040364582
 10
141.70607910156249
 20
135.18658040364582
 10
141.70607910156249
 20
135.18658040364582
 10
140.45602620442708
 20
135.18658040364582
 10
140.45602620442708
 20
135.18658040364582
 10
140.45602620442708
 20
135.18658040364582
 10
140.45602620442708
 20
139.53945855034721
 10
140.45602620442708
 20
139.53945855034721
 97
        0
 92
        1
 93
        1
 72
     4
 94
        3
 73
     0
 74
     0
 95
       17
 96
       13
 40
0.0
 40
0.0
 40
0.0
 40
0.0
 40
1.0
 40
1.0
 40
1.0
 40
2.0
 40
2.0
 40
2.0
 40
3.0
 40
3.0
 40
3.0
 40
4.0
 40
4.0
 40
4.0
 40
4.0
 10
140.45602620442708
 20
148.24521484374998
 10
140.45602620442708
 20
148.24521484374998
 10
142.95613199869791
 20
148.24521484374998
 10
142.95613199869791
 20
148.24521484374998
 10
142.95613199869791
 20
148.24521484374998
 10
142.95613199869791
 20
143.89233669704859
 10
142.95613199869791
 20
143.89233669704859
 10
142.95613199869791
 20
143.89233669704859
 10
140.45602620442708
 20
143.89233669704859
 10
140.45602620442708
 20
143.89233669704859
 10
140.45602620442708
 20
143.89233669704859
 10
140.45602620442708
 20
148.24521484374998
 10
140.45602620442708
 20
148.24521484374998
 97
        0
 75
     0
 76
     1
 98
        1
 10
0.0
 20
0.0
  0
HATCH
  5
172
100
AcDbEntity
  8
BITUMEN
 62
     7
100
AcDbHatch
 10
0.0
 20
0.0
 30
0.0
210
0.0
220
0.0
230
1.0
  2
SOLID
 70
     1
 71
     0
 91
        4
 92
       16
 93
        1
 72
     4
 94
        3
 73
     0
 74
     0
 95
       23
 96
       19
 40
0.0
 40
0.0
 40
0.0
 40
0.0
 40
1.0
 40
1.0
 40
1.0
 40
2.0
 40
2.0
 40
2.0
 40
3.0
 40
3.0
 40
3.0
 40
4.0
 40
4.0
 40
4.0
 40
5.0
 40
5.0
 40
5.0
 40
6.0
 40
6.0
 40
6.0
 40
6.0
 10
138.19501003689234
 20
85.921714952256934
 10
138.19501003689234
 20
85.921714952256934
 10
142.95613199869791
 20
85.921714952256934
 10
142.95613199869791
 20
85.921714952256934
 10
142.95613199869791
 20
85.921714952256934
 10
142.95613199869791
 20
90.274937608506931
 10
142.95613199869791
 20
90.274937608506931
 10
142.95613199869791
 20
90.274937608506931
 10
128.15927463107639
 20
90.274937608506931
 10
128.15927463107639
 20
90.274937608506931
 10
128.15927463107639
 20
90.274937608506931
 10
128.1628919813368
 20
89.024712456597214
 10
128.1628919813368
 20
89.024712456597214
 10
128.1628919813368
 20
89.024712456597214
 10
132.33111300998263
 20
89.024712456597214
 10
132.33111300998263
 20
89.024712456597214
 10
134.6031534830729
 20
88.754616970486097
 10
136.69346516927081
 20
87.648396809895829
 10
138.19501003689234
 20
85.921714952256934
 97
        0
 92
       16
 93
        1
 72
     4
 94
        3
 73
     0
 74
     0
 95
       20
 96
       16
 40
0.0
 40
0.0
 40
0.0
 40
0.0
 40
1.0
 40
1.0
 40
1.0
 40
2.0
 40
2.0
 40
2.0
 40
3.0
 40
3.0
 40
3.0
 40
4.0
 40
4.0
 40
4.0
 40
5.0
 40
5.0
 40
5.0
 40
5.0
 10
140.45602620442708
 20
77.215958658854163
 10
140.45602620442708
 20
77.215958658854163
 10
142.95613199869791
 20
77.215958658854163
 10
142.95613199869791
 20
77.215958658854163
 10
142.95613199869791
 20
77.215958658854163
 10
142.95613199869791
 20
81.568836805555549
 10
142.95613199869791
 20
81.568836805555549
 10
142.95613199869791
 20
81.568836805555549
 10
140.29944661458333
 20
81.568836805555549
 10
140.29944661458333
 20
81.568836805555549
 10
140.40968967013887
 20
80.98006998697916
 10
140.46205512152775
 20
80.381656901041666
 10
140.45602620442708
 20
79.782554796006934
 10
140.45602620442708
 20
79.782554796006934
 10
140.45602620442708
 20
77.215958658854163
 10
140.45602620442708
 20
77.215958658854163
 97
        0
 92
       16
 93
        1
 72
     4
 94
        3
 73
     0
 74
     0
 95
       20
 96
       16
 40
0.0
 40
0.0
 40
0.0
 40
0.0
 40
1.0
 40
1.0
 40
1.0
 40
2.0
 40
2.0
 40
2.0
 40
3.0
 40
3.0
 40
3.0
 40
4.0
 40
4.0
 40
4.0
 40
5.0
 40
5.0
 40
5.0
 40
5.0
 10
140.45602620442708
 20
68.510202365451377
 10
140.45602620442708
 20
68.510202365451377
 10
142.95613199869791
 20
68.510202365451377
 10
142.95613199869791
 20
68.510202365451377
 10
142.95613199869791
 20
68.510202365451377
 10
142.95613199869791
 20
72.863080512152777
 10
142.95613199869791
 20
72.863080512152777
 10
142.95613199869791
 20
72.863080512152777
 10
141.70607910156249
 20
72.863080512152777
 10
141.70607910156249
 20
72.863080512152777
 10
141.70607910156249
 20
72.863080512152777
 10
140.45602620442708
 20
72.863080512152777
 10
140.45602620442708
 20
72.863080512152777
 10
140.45602620442708
 20
72.863080512152777
 10
140.45602620442708
 20
68.510202365451377
 10
140.45602620442708
 20
68.510202365451377
 97
        0
 92
       16
 93
        1
 72
     4
 94
        3
 73
     0
 74
     0
 95
       17
 96
       13
 40
0.0
 40
0.0
 40
0.0
 40
0.0
 40
1.0
 40
1.0
 40
1.0
 40
2.0
 40
2.0
 40
2.0
 40
3.0
 40
3.0
 40
3.0
 40
4.0
 40
4.0
 40
4.0
 40
4.0
 10
140.45602620442708
 20
59.804446072048606
 10
140.45602620442708
 20
59.804446072048606
 10
142.95613199869791
 20
59.804446072048606
 10
142.95613199869791
 20
59.804446072048606
 10
142.95613199869791
 20
59.804446072048606
 10
142.95613199869791
 20
64.157324218749991
 10
142.95613199869791
 20
64.157324218749991
 10
142.95613199869791
 20
64.157324218749991
 10
140.45602620442708
 20
64.157324218749991
 10
140.45602620442708
 20
64.157324218749991
 10
140.45602620442708
 20
64.157324218749991
 10
140.45602620442708
 20
59.804446072048606
 10
140.45602620442708
 20
59.804446072048606
 97
        0
 75
     0
 76
     1
 98
        1
 10
0.0
 20
0.0
  0
LINE
  5
170
100
AcDbEntity
  8
KOERPER
 62
     7
100
AcDbLine
 10
202.956087
 20
166.524719
 30
0.0
 11
202.956087
 21
117.774723
 31
0.0
  0
LINE
  5
16F
100
AcDbEntity
  8
KOERPER
 62
     7
100
AcDbLine
 10
202.956087
 20
125.365647
 30
0.0
 11
142.956132
 21
125.365647
 31
0.0
  0
SPLINE
  5
16E
100
AcDbEntity
  8
KOERPER
 62
     7
100
AcDbSpline
210
0.0
220
0.0
230
1.0
 70
     8
 71
     3
 72
     8
 73
     4
 74
     0
 42
0.00000001
 43
0.00000001
 40
0.0
 40
0.0
 40
0.0
 40
0.0
 40
1.0
 40
1.0
 40
1.0
 40
1.0
 10
132.33111300998263
 20
119.02477620442707
 30
0.0
 10
137.00128445095484
 20
119.58047010633679
 30
0.0
 10
140.5033962673611
 20
123.56420627170138
 30
0.0
 10
140.45602620442708
 20
128.26693386501734
 30
0.0
  0
LINE
  5
16D
100
AcDbEntity
  8
KOERPER
 62
     7
100
AcDbLine
 10
202.956087
 20
90.274938
 30
0.0
 11
128.159275
 21
90.274938
 31
0.0
  0
LINE
  5
16C
100
AcDbEntity
  8
KOERPER
 62
     7
100
AcDbLine
 10
142.956132
 20
90.274938
 30
0.0
 11
142.956132
 21
41.657406
 31
0.0
  0
LINE
  5
16B
100
AcDbEntity
  8
KOERPER
 62
     7
100
AcDbLine
 10
142.956132
 20
117.774723
 30
0.0
 11
142.956132
 21
166.524719
 31
0.0
  0
LINE
  5
16A
100
AcDbEntity
  8
KOERPER
 62
     7
100
AcDbLine
 10
140.456026
 20
128.266934
 30
0.0
 11
140.456026
 21
166.524719
 31
0.0
  0
LINE
  5
169
100
AcDbEntity
  8
KOERPER
 62
     7
100
AcDbLine
 10
202.956087
 20
90.274938
 30
0.0
 11
202.956087
 21
41.391789
 31
0.0
  0
LINE
  5
168
100
AcDbEntity
  8
KOERPER
 62
     7
100
AcDbLine
 10
214.03138
 20
117.774723
 30
0.0
 11
119.05182
 21
117.774723
 31
0.0
  0
LINE
  5
167
100
AcDbEntity
  8
KOERPER
 62
     7
100
AcDbLine
 10
214.03138
 20
90.274938
 30
0.0
 11
119.033217
 21
90.274938
 31
0.0
  0
SPLINE
  5
166
100
AcDbEntity
  8
KOERPER
 62
     7
100
AcDbSpline
210
0.0
220
0.0
230
1.0
 70
     8
 71
     3
 72
     8
 73
     4
 74
     0
 42
0.00000001
 43
0.00000001
 40
0.0
 40
0.0
 40
0.0
 40
0.0
 40
1.0
 40
1.0
 40
1.0
 40
1.0
 10
214.1175075954861
 20
100.97264811197915
 30
0.0
 10
215.76426323784719
 20
105.72136773003471
 30
0.0
 10
216.47533094618055
 20
110.7439724392361
 30
0.0
 10
216.21178114149305
 20
115.76313205295138
 30
0.0
  0
SPLINE
  5
165
100
AcDbEntity
  8
KOERPER
 62
     7
100
AcDbSpline
210
0.0
220
0.0
230
1.0
 70
     8
 71
     3
 72
     8
 73
     4
 74
     0
 42
0.00000001
 43
0.00000001
 40
0.0
 40
0.0
 40
0.0
 40
0.0
 40
1.0
 40
1.0
 40
1.0
 40
1.0
 10
212.37532280815969
 20
108.19873589409721
 30
0.0
 10
212.85177951388886
 20
105.76598171657986
 30
0.0
 10
213.43296712239581
 20
103.35527615017361
 30
0.0
 10
214.1175075954861
 20
100.97264811197915
 30
0.0
  0
SPLINE
  5
164
100
AcDbEntity
  8
KOERPER
 62
     7
100
AcDbSpline
210
0.0
220
0.0
230
1.0
 70
     8
 71
     3
 72
     8
 73
     4
 74
     0
 42
0.00000001
 43
0.00000001
 40
0.0
 40
0.0
 40
0.0
 40
0.0
 40
1.0
 40
1.0
 40
1.0
 40
1.0
 10
211.85476888020833
 20
115.80498996310763
 30
0.0
 10
211.71420898437498
 20
113.0971449110243
 30
0.0
 10
211.92057020399304
 20
110.38240966796874
 30
0.0
 10
212.46902940538192
 20
107.7269300672743
 30
0.0
  0
SPLINE
  5
163
100
AcDbEntity
  8
KOERPER
 62
     7
100
AcDbSpline
210
0.0
220
0.0
230
1.0
 70
     8
 71
     3
 72
     8
 73
     4
 74
     0
 42
0.00000001
 43
0.00000001
 40
0.0
 40
0.0
 40
0.0
 40
0.0
 40
1.0
 40
1.0
 40
1.0
 40
1.0
 10
214.1175075954861
 20
100.97264811197915
 30
0.0
 10
215.1189968532986
 20
105.77580023871526
 30
0.0
 10
215.40597330729165
 20
110.70039198133679
 30
0.0
 10
214.96879069010416
 20
115.58725992838541
 30
0.0
  0
SPLINE
  5
162
100
AcDbEntity
  8
KOERPER
 62
     7
100
AcDbSpline
210
0.0
220
0.0
230
1.0
 70
     8
 71
     3
 72
     8
 73
     4
 74
     0
 42
0.00000001
 43
0.00000001
 40
0.0
 40
0.0
 40
0.0
 40
0.0
 40
1.0
 40
1.0
 40
1.0
 40
1.0
 10
213.09362521701388
 20
115.58725992838541
 30
0.0
 10
212.75221625434025
 20
110.69177924262152
 30
0.0
 10
213.09672580295137
 20
105.77269965277777
 30
0.0
 10
214.1175075954861
 20
100.97264811197915
 30
0.0
  0
SPLINE
  5
161
100
AcDbEntity
  8
KOERPER
 62
     7
100
AcDbSpline
210
0.0
220
0.0
230
1.0
 70
     8
 71
     3
 72
    11
 73
     7
 74
     0
 42
0.00000001
 43
0.00000001
 40
0.0
 40
0.0
 40
0.0
 40
0.0
 40
1.0
 40
1.0
 40
1.0
 40
2.0
 40
2.0
 40
2.0
 40
2.0
 10
214.96879069010416
 20
115.58725992838541
 30
0.0
 10
214.96879069010416
 20
116.10505777994791
 30
0.0
 10
214.54917805989581
 20
116.52484266493055
 30
0.0
 10
214.0313802083333
 20
116.52484266493055
 30
0.0
 10
213.51358235677083
 20
116.52484266493055
 30
0.0
 10
213.09362521701388
 20
116.10505777994791
 30
0.0
 10
213.09362521701388
 20
115.58725992838541
 30
0.0
  0
SPLINE
  5
160
100
AcDbEntity
  8
KOERPER
 62
     7
100
AcDbSpline
210
0.0
220
0.0
230
1.0
 70
     8
 71
     3
 72
    11
 73
     7
 74
     0
 42
0.00000001
 43
0.00000001
 40
0.0
 40
0.0
 40
0.0
 40
0.0
 40
1.0
 40
1.0
 40
1.0
 40
2.0
 40
2.0
 40
2.0
 40
2.0
 10
216.21832682291665
 20
115.63359646267359
 30
0.0
 10
216.19283311631943
 20
116.84144694010416
 30
0.0
 10
215.19272189670136
 20
117.79987250434027
 30
0.0
 10
213.9848714192708
 20
117.77420654296874
 30
0.0
 10
212.79252387152775
 20
117.74905734592012
 30
0.0
 10
211.83995496961805
 20
116.77323404947916
 30
0.0
 10
211.84374457465276
 20
115.58054199218749
 30
0.0
  0
SPLINE
  5
15F
100
AcDbEntity
  8
KOERPER
 62
     7
100
AcDbSpline
210
0.0
220
0.0
230
1.0
 70
     8
 71
     3
 72
     8
 73
     4
 74
     0
 42
0.00000001
 43
0.00000001
 40
0.0
 40
0.0
 40
0.0
 40
0.0
 40
1.0
 40
1.0
 40
1.0
 40
1.0
 10
214.1175075954861
 20
100.97264811197915
 30
0.0
 10
214.70214029947914
 20
98.342317708333326
 30
0.0
 10
215.3670437282986
 20
95.730590820312486
 30
0.0
 10
216.11083984374997
 20
93.140568033854152
 30
0.0
  0
SPLINE
  5
15E
100
AcDbEntity
  8
KOERPER
 62
     7
100
AcDbSpline
210
0.0
220
0.0
230
1.0
 70
     8
 71
     3
 72
     8
 73
     4
 74
     0
 42
0.00000001
 43
0.00000001
 40
0.0
 40
0.0
 40
0.0
 40
0.0
 40
1.0
 40
1.0
 40
1.0
 40
1.0
 10
118.96552056206596
 20
107.07684054904513
 30
0.0
 10
117.31876491970485
 20
102.32829318576388
 30
0.0
 10
116.60752495659722
 20
97.305343967013883
 30
0.0
 10
116.87124701605902
 20
92.286184353298609
 30
0.0
  0
SPLINE
  5
15D
100
AcDbEntity
  8
KOERPER
 62
     7
100
AcDbSpline
210
0.0
220
0.0
230
1.0
 70
     8
 71
     3
 72
     8
 73
     4
 74
     0
 42
0.00000001
 43
0.00000001
 40
0.0
 40
0.0
 40
0.0
 40
0.0
 40
1.0
 40
1.0
 40
1.0
 40
1.0
 10
118.96552056206596
 20
107.07684054904513
 30
0.0
 10
118.3807156032986
 20
109.70717095269096
 30
0.0
 10
117.71598442925347
 20
112.3188978407118
 30
0.0
 10
116.97218831380208
 20
114.90874837239582
 30
0.0
  0
SPLINE
  5
15C
100
AcDbEntity
  8
KOERPER
 62
     7
100
AcDbSpline
210
0.0
220
0.0
230
1.0
 70
     8
 71
     3
 72
     8
 73
     4
 74
     0
 42
0.00000001
 43
0.00000001
 40
0.0
 40
0.0
 40
0.0
 40
0.0
 40
1.0
 40
1.0
 40
1.0
 40
1.0
 10
215.28987358940969
 20
90.673190646701386
 30
0.0
 10
215.95133192274304
 20
91.354286024305551
 30
0.0
 10
216.24519856770831
 20
92.311678059895826
 30
0.0
 10
216.08052300347219
 20
93.246676974826386
 30
0.0
  0
SPLINE
  5
15B
100
AcDbEntity
  8
KOERPER
 62
     7
100
AcDbSpline
210
0.0
220
0.0
230
1.0
 70
     8
 71
     3
 72
     8
 73
     4
 74
     0
 42
0.00000001
 43
0.00000001
 40
0.0
 40
0.0
 40
0.0
 40
0.0
 40
1.0
 40
1.0
 40
1.0
 40
1.0
 10
214.0313802083333
 20
90.274937608506931
 30
0.0
 10
214.48165418836803
 20
90.274937608506931
 30
0.0
 10
214.92124837239581
 20
90.413774956597209
 30
0.0
 10
215.28987358940969
 20
90.673190646701386
 30
0.0
  0
SPLINE
  5
15A
100
AcDbEntity
  8
KOERPER
 62
     7
100
AcDbSpline
210
0.0
220
0.0
230
1.0
 70
     8
 71
     3
 72
     8
 73
     4
 74
     0
 42
0.00000001
 43
0.00000001
 40
0.0
 40
0.0
 40
0.0
 40
0.0
 40
1.0
 40
1.0
 40
1.0
 40
1.0
 10
119.05182020399305
 20
117.77472330729165
 30
0.0
 10
118.60120171440971
 20
117.77472330729165
 30
0.0
 10
118.16160753038193
 20
117.63571370442708
 30
0.0
 10
117.79315456814236
 20
117.37647026909721
 30
0.0
  0
SPLINE
  5
159
100
AcDbEntity
  8
KOERPER
 62
     7
100
AcDbSpline
210
0.0
220
0.0
230
1.0
 70
     8
 71
     3
 72
     8
 73
     4
 74
     0
 42
0.00000001
 43
0.00000001
 40
0.0
 40
0.0
 40
0.0
 40
0.0
 40
1.0
 40
1.0
 40
1.0
 40
1.0
 10
117.79315456814236
 20
117.37647026909721
 30
0.0
 10
117.13186848958333
 20
116.69520263671873
 30
0.0
 10
116.83765733506944
 20
115.73798285590277
 30
0.0
 10
117.00250515407986
 20
114.80298394097221
 30
0.0
  0
SPLINE
  5
158
100
AcDbEntity
  8
KOERPER
 62
     7
100
AcDbSpline
210
0.0
220
0.0
230
1.0
 70
     8
 71
     3
 72
     8
 73
     4
 74
     0
 42
0.00000001
 43
0.00000001
 40
0.0
 40
0.0
 40
0.0
 40
0.0
 40
1.0
 40
1.0
 40
1.0
 40
1.0
 10
119.98923068576387
 20
92.462228732638877
 30
0.0
 10
120.3308119032118
 20
97.357709418402763
 30
0.0
 10
119.98613009982638
 20
102.27696126302082
 30
0.0
 10
118.96552056206596
 20
107.07684054904513
 30
0.0
  0
SPLINE
  5
157
100
AcDbEntity
  8
KOERPER
 62
     7
100
AcDbSpline
210
0.0
220
0.0
230
1.0
 70
     8
 71
     3
 72
     8
 73
     4
 74
     0
 42
0.00000001
 43
0.00000001
 40
0.0
 40
0.0
 40
0.0
 40
0.0
 40
1.0
 40
1.0
 40
1.0
 40
1.0
 10
121.22843153211805
 20
92.244498697916654
 30
0.0
 10
121.36881917317707
 20
94.952343749999997
 30
0.0
 10
121.16228569878471
 20
97.66707899305554
 30
0.0
 10
120.61382649739582
 20
100.32255859374999
 30
0.0
  0
SPLINE
  5
156
100
AcDbEntity
  8
KOERPER
 62
     7
100
AcDbSpline
210
0.0
220
0.0
230
1.0
 70
     8
 71
     3
 72
     8
 73
     4
 74
     0
 42
0.00000001
 43
0.00000001
 40
0.0
 40
0.0
 40
0.0
 40
0.0
 40
1.0
 40
1.0
 40
1.0
 40
1.0
 10
118.96552056206596
 20
107.07684054904513
 30
0.0
 10
117.96385904947915
 20
102.27386067708332
 30
0.0
 10
117.6770548502604
 20
97.349096679687491
 30
0.0
 10
118.11423746744791
 20
92.462228732638877
 30
0.0
  0
SPLINE
  5
155
100
AcDbEntity
  8
KOERPER
 62
     7
100
AcDbSpline
210
0.0
220
0.0
230
1.0
 70
     8
 71
     3
 72
     8
 73
     4
 74
     0
 42
0.00000001
 43
0.00000001
 40
0.0
 40
0.0
 40
0.0
 40
0.0
 40
1.0
 40
1.0
 40
1.0
 40
1.0
 10
120.70753309461804
 20
99.850925021701386
 30
0.0
 10
120.23142089843749
 20
102.28350694444444
 30
0.0
 10
119.65023328993054
 20
104.69438476562499
 30
0.0
 10
118.96552056206596
 20
107.07684054904513
 30
0.0
  0
SPLINE
  5
154
100
AcDbEntity
  8
KOERPER
 62
     7
100
AcDbSpline
210
0.0
220
0.0
230
1.0
 70
     8
 71
     3
 72
    11
 73
     7
 74
     0
 42
0.00000001
 43
0.00000001
 40
0.0
 40
0.0
 40
0.0
 40
0.0
 40
1.0
 40
1.0
 40
1.0
 40
2.0
 40
2.0
 40
2.0
 40
2.0
 10
118.11423746744791
 20
92.462228732638877
 30
0.0
 10
118.11423746744791
 20
91.944430881076386
 30
0.0
 10
118.53402235243054
 20
91.524818250868051
 30
0.0
 10
119.05182020399305
 20
91.524818250868051
 30
0.0
 10
119.56944580078124
 20
91.524818250868051
 30
0.0
 10
119.98923068576387
 20
91.944430881076386
 30
0.0
 10
119.98923068576387
 20
92.462228732638877
 30
0.0
  0
SPLINE
  5
153
100
AcDbEntity
  8
KOERPER
 62
     7
100
AcDbSpline
210
0.0
220
0.0
230
1.0
 70
     8
 71
     3
 72
    11
 73
     7
 74
     0
 42
0.00000001
 43
0.00000001
 40
0.0
 40
0.0
 40
0.0
 40
0.0
 40
1.0
 40
1.0
 40
1.0
 40
2.0
 40
2.0
 40
2.0
 40
2.0
 10
116.86470133463541
 20
92.416064453124989
 30
0.0
 10
116.89036729600693
 20
91.208213975694434
 30
0.0
 10
117.89013400607638
 20
90.249788411458326
 30
0.0
 10
119.09798448350693
 20
90.275282118055543
 30
0.0
 10
120.2905042860243
 20
90.300431315104163
 30
0.0
 10
121.24290093315972
 20
91.27642686631944
 30
0.0
 10
121.23928358289929
 20
92.469118923611106
 30
0.0
  0
SPLINE
  5
152
100
AcDbEntity
  8
KOERPER
 62
     7
100
AcDbSpline
210
0.0
220
0.0
230
1.0
 70
     8
 71
     3
 72
     8
 73
     4
 74
     0
 42
0.00000001
 43
0.00000001
 40
0.0
 40
0.0
 40
0.0
 40
0.0
 40
1.0
 40
1.0
 40
1.0
 40
1.0
 10
140.45602620442708
 20
79.782554796006934
 30
0.0
 10
140.5033962673611
 20
84.485454644097217
 30
0.0
 10
137.00128445095484
 20
88.469018554687494
 30
0.0
 10
132.33111300998263
 20
89.024712456597214
 30
0.0
  0
LINE
  5
151
100
AcDbEntity
  8
KOERPER
 62
     7
100
AcDbLine
 10
140.456026
 20
79.782555
 30
0.0
 11
140.456026
 21
41.437609
 31
0.0
  0
LINE
  5
150
100
AcDbEntity
  8
KOERPER
 62
     7
100
AcDbLine
 10
202.956087
 20
82.684014
 30
0.0
 11
142.956132
 21
82.684014
 31
0.0
  0
INSERT
  5
10F
100
AcDbEntity
  8
ROHRSCHRAFFUR
 62
     7
100
AcDbBlockReference
  2
AI9-BLK2
 10
119.006
 20
98.685708
 30
0.0
  0
INSERT
  5
CE
100
AcDbEntity
  8
ROHRSCHRAFFUR
  6
AI9-LType3
 62
     7
100
AcDbBlockReference
  2
AI9-BLK1
 10
214.158332
 20
109.50615
 30
0.0
  0
LINE
  5
CB
100
AcDbEntity
  8
GETRENNT
  6
AI9-LType3
 62
     7
100
AcDbLine
 10
140.456026
 20
41.391789
 30
0.0
 11
203.027056
 21
41.391789
 31
0.0
  0
LINE
  5
CA
100
AcDbEntity
  8
GETRENNT
  6
AI9-LType3
 62
     7
100
AcDbLine
 10
202.956087
 20
166.524719
 30
0.0
 11
140.456026
 21
166.524719
 31
0.0
  0
HATCH
  5
C7
100
AcDbEntity
  8
WASSER
 62
   160
100
AcDbHatch
 10
0.0
 20
0.0
 30
0.0
210
0.0
220
0.0
230
1.0
  2
SOLID
 70
     1
 71
     0
 91
        1
 92
        1
 93
        1
 72
     4
 94
        3
 73
     0
 74
     0
 95
       23
 96
       19
 40
0.0
 40
0.0
 40
0.0
 40
0.0
 40
1.0
 40
1.0
 40
1.0
 40
2.0
 40
2.0
 40
2.0
 40
3.0
 40
3.0
 40
3.0
 40
4.0
 40
4.0
 40
4.0
 40
5.0
 40
5.0
 40
5.0
 40
6.0
 40
6.0
 40
6.0
 40
6.0
 10
135.6106716579861
 20
61.674099392361107
 10
135.6106716579861
 20
61.674099392361107
 10
135.1678046332465
 20
61.94729546440972
 10
134.5657741970486
 20
62.235305447048603
 10
129.60053032769096
 20
64.610009765624994
 10
130.811481391059
 20
59.797555881076384
 10
125.89688042534721
 20
62.822349717881941
 10
125.20407172309027
 20
63.248852539062497
 10
124.56414523654513
 20
62.209467230902774
 10
125.25729844835068
 20
61.782964409722219
 10
125.25729844835068
 20
61.782964409722219
 10
125.69999321831597
 20
61.510112847222217
 10
126.30185139973958
 20
61.222102864583327
 10
131.26089409722221
 20
58.848776584201381
 10
130.05579969618054
 20
63.651928710937497
 10
134.97126193576386
 20
60.634369574652773
 10
135.66424289279513
 20
60.208211263020829
 10
136.30365261501734
 20
61.247941080729163
 10
135.6106716579861
 20
61.674099392361107
 97
        0
 75
     0
 76
     1
 98
        1
 10
0.0
 20
0.0
  0
HATCH
  5
C6
100
AcDbEntity
  8
WASSER
 62
   160
100
AcDbHatch
 10
0.0
 20
0.0
 30
0.0
210
0.0
220
0.0
230
1.0
  2
SOLID
 70
     1
 71
     0
 91
        1
 92
        1
 93
        1
 72
     4
 94
        3
 73
     0
 74
     0
 95
       23
 96
       19
 40
0.0
 40
0.0
 40
0.0
 40
0.0
 40
1.0
 40
1.0
 40
1.0
 40
2.0
 40
2.0
 40
2.0
 40
3.0
 40
3.0
 40
3.0
 40
4.0
 40
4.0
 40
4.0
 40
5.0
 40
5.0
 40
5.0
 40
6.0
 40
6.0
 40
6.0
 40
6.0
 10
135.6106716579861
 20
58.803990342881939
 10
135.6106716579861
 20
58.803990342881939
 10
135.1678046332465
 20
59.07684190538194
 10
134.5657741970486
 20
59.364507378472219
 10
129.60053032769096
 20
61.739556206597214
 10
130.811481391059
 20
56.927446831597216
 10
125.89688042534721
 20
59.951896158854161
 10
125.20407172309027
 20
60.378398980034717
 10
124.56414523654513
 20
59.339013671874994
 10
125.25729844835068
 20
58.912510850694439
 10
125.25729844835068
 20
58.912510850694439
 10
125.69999321831597
 20
58.639659288194437
 10
126.30185139973958
 20
58.351649305555547
 10
131.26089409722221
 20
55.978323025173609
 10
130.05579969618054
 20
60.781475151909717
 10
134.97126193576386
 20
57.764260525173604
 10
135.66424289279513
 20
57.33810221354166
 10
136.30365261501734
 20
58.377832031249994
 10
135.6106716579861
 20
58.803990342881939
 97
        0
 75
     0
 76
     1
 98
        1
 10
0.0
 20
0.0
  0
HATCH
  5
C5
100
AcDbEntity
  8
WASSER
 62
   160
100
AcDbHatch
 10
0.0
 20
0.0
 30
0.0
210
0.0
220
0.0
230
1.0
  2
SOLID
 70
     1
 71
     0
 91
        1
 92
        1
 93
        1
 72
     4
 94
        3
 73
     0
 74
     0
 95
       23
 96
       19
 40
0.0
 40
0.0
 40
0.0
 40
0.0
 40
1.0
 40
1.0
 40
1.0
 40
2.0
 40
2.0
 40
2.0
 40
3.0
 40
3.0
 40
3.0
 40
4.0
 40
4.0
 40
4.0
 40
5.0
 40
5.0
 40
5.0
 40
6.0
 40
6.0
 40
6.0
 40
6.0
 10
135.6106716579861
 20
55.933536783854159
 10
135.6106716579861
 20
55.933536783854159
 10
135.1678046332465
 20
56.20638834635416
 10
134.5657741970486
 20
56.494053819444439
 10
129.60053032769096
 20
58.869447157118053
 10
130.811481391059
 20
54.056993272569443
 10
125.89688042534721
 20
57.081787109374993
 10
125.20407172309027
 20
57.508289930555549
 10
124.56414523654513
 20
56.468904622395826
 10
125.25729844835068
 20
56.04240180121527
 10
125.25729844835068
 20
56.04240180121527
 10
125.69999321831597
 20
55.769205729166664
 10
126.30185139973958
 20
55.481195746527774
 10
131.26089409722221
 20
53.107869466145829
 10
130.05579969618054
 20
57.911021592881937
 10
134.97126193576386
 20
54.893806966145831
 10
135.66424289279513
 20
54.467648654513887
 10
136.30365261501734
 20
55.507378472222214
 10
135.6106716579861
 20
55.933536783854159
 97
        0
 75
     0
 76
     1
 98
        1
 10
0.0
 20
0.0
  0
HATCH
  5
C4
100
AcDbEntity
  8
WASSER
 62
   160
100
AcDbHatch
 10
0.0
 20
0.0
 30
0.0
210
0.0
220
0.0
230
1.0
  2
SOLID
 70
     1
 71
     0
 91
        1
 92
        1
 93
        1
 72
     4
 94
        3
 73
     0
 74
     0
 95
       23
 96
       19
 40
0.0
 40
0.0
 40
0.0
 40
0.0
 40
1.0
 40
1.0
 40
1.0
 40
2.0
 40
2.0
 40
2.0
 40
3.0
 40
3.0
 40
3.0
 40
4.0
 40
4.0
 40
4.0
 40
5.0
 40
5.0
 40
5.0
 40
6.0
 40
6.0
 40
6.0
 40
6.0
 10
135.6106716579861
 20
64.539385308159723
 10
135.6106716579861
 20
64.539385308159723
 10
135.1678046332465
 20
64.812581380208329
 10
134.5657741970486
 20
65.100591362847211
 10
129.60053032769096
 20
67.475295681423603
 10
130.811481391059
 20
62.662841796874993
 10
125.89688042534721
 20
65.687980143229154
 10
125.20407172309027
 20
66.114138454861106
 10
124.56414523654513
 20
65.074753146701383
 10
125.25729844835068
 20
64.648250325520834
 10
125.25729844835068
 20
64.648250325520834
 10
125.69999321831597
 20
64.375398763020826
 10
126.30185139973958
 20
64.087388780381943
 10
131.26089409722221
 20
61.714062499999997
 10
130.05579969618054
 20
66.517214626736106
 10
134.97126193576386
 20
63.500344509548604
 10
135.66424289279513
 20
63.073497178819437
 10
136.30365261501734
 20
64.113226996527771
 10
135.6106716579861
 20
64.539385308159723
 97
        0
 75
     0
 76
     1
 98
        1
 10
0.0
 20
0.0
  0
POLYLINE
  5
BD
100
AcDbEntity
  8
SCHRAFFUR
 62
     7
100
AcDb2dPolyline
 66
     1
 10
0.0
 20
0.0
 30
0.0
 70
     1
  0
VERTEX
  5
BE
100
AcDbEntity
  8
SCHRAFFUR
 62
     7
100
AcDbVertex
100
AcDb2dVertex
 10
142.956132
 20
125.365647
 30
0.0
  0
VERTEX
  5
BF
100
AcDbEntity
  8
SCHRAFFUR
 62
     7
100
AcDbVertex
100
AcDb2dVertex
 10
202.956087
 20
125.365647
 30
0.0
  0
VERTEX
  5
C0
100
AcDbEntity
  8
SCHRAFFUR
 62
     7
100
AcDbVertex
100
AcDb2dVertex
 10
202.956087
 20
117.834496
 30
0.0
  0
VERTEX
  5
C1
100
AcDbEntity
  8
SCHRAFFUR
 62
     7
100
AcDbVertex
100
AcDb2dVertex
 10
142.956132
 20
117.834496
 30
0.0
  0
SEQEND
  5
C2
100
AcDbEntity
  8
SCHRAFFUR
 62
     7
  0
HATCH
  5
BC
100
AcDbEntity
  8
SCHRAFFUR
 62
     7
100
AcDbHatch
 10
0.0
 20
0.0
 30
0.0
210
0.0
220
0.0
230
1.0
  2
_U
 70
     0
 71
     0
 91
        1
 92
        3
 72
     0
 73
     1
 93
        4
 10
142.95613199869791
 20
125.36564670138888
 10
202.95608723958333
 20
125.36564670138888
 10
202.95608723958333
 20
117.83449571397568
 10
142.95613199869791
 20
117.83449571397568
 97
        0
 75
     0
 76
     0
 52
45.0
 41
2.0
 77
     0
 78
     1
 53
45.0
 43
0.0
 44
0.0
 45
-1.4142135623730949
 46
1.4142135623730951
 79
     0
 98
        1
 10
0.0
 20
0.0
  0
POLYLINE
  5
B5
100
AcDbEntity
  8
SCHRAFFUR
 62
     7
100
AcDb2dPolyline
 66
     1
 10
0.0
 20
0.0
 30
0.0
  0
VERTEX
  5
B6
100
AcDbEntity
  8
SCHRAFFUR
 62
     7
100
AcDbVertex
100
AcDb2dVertex
 10
139.298991
 20
122.127774
 30
0.0
  0
VERTEX
  5
B7
100
AcDbEntity
  8
SCHRAFFUR
 62
     7
100
AcDbVertex
100
AcDb2dVertex
 10
142.956132
 20
122.127774
 30
0.0
  0
VERTEX
  5
B8
100
AcDbEntity
  8
SCHRAFFUR
 62
     7
100
AcDbVertex
100
AcDb2dVertex
 10
142.956132
 20
117.774723
 30
0.0
  0
VERTEX
  5
B9
100
AcDbEntity
  8
SCHRAFFUR
 62
     7
100
AcDbVertex
100
AcDb2dVertex
 10
128.159275
 20
117.774723
 30
0.0
  0
VERTEX
  5
BA
100
AcDbEntity
  8
SCHRAFFUR
 62
     7
100
AcDbVertex
100
AcDb2dVertex
 10
128.162892
 20
119.024776
 30
0.0
  0
SEQEND
  5
BB
100
AcDbEntity
  8
SCHRAFFUR
 62
     7
  0
POLYLINE
  5
AF
100
AcDbEntity
  8
SCHRAFFUR
 62
     7
100
AcDb2dPolyline
 66
     1
 10
0.0
 20
0.0
 30
0.0
  0
VERTEX
  5
B0
100
AcDbEntity
  8
SCHRAFFUR
 62
     7
100
AcDbVertex
100
AcDb2dVertex
 10
141.507469
 20
126.480652
 30
0.0
  0
VERTEX
  5
B1
100
AcDbEntity
  8
SCHRAFFUR
 62
     7
100
AcDbVertex
100
AcDb2dVertex
 10
142.956132
 20
126.480652
 30
0.0
  0
VERTEX
  5
B2
100
AcDbEntity
  8
SCHRAFFUR
 62
     7
100
AcDbVertex
100
AcDb2dVertex
 10
142.956132
 20
122.127774
 30
0.0
  0
VERTEX
  5
B3
100
AcDbEntity
  8
SCHRAFFUR
 62
     7
100
AcDbVertex
100
AcDb2dVertex
 10
138.19501
 20
122.127774
 30
0.0
  0
SEQEND
  5
B4
100
AcDbEntity
  8
SCHRAFFUR
 62
     7
  0
POLYLINE
  5
A9
100
AcDbEntity
  8
SCHRAFFUR
 62
     7
100
AcDb2dPolyline
 66
     1
 10
0.0
 20
0.0
 30
0.0
  0
VERTEX
  5
AA
100
AcDbEntity
  8
SCHRAFFUR
 62
     7
100
AcDbVertex
100
AcDb2dVertex
 10
141.706079
 20
130.83353
 30
0.0
  0
VERTEX
  5
AB
100
AcDbEntity
  8
SCHRAFFUR
 62
     7
100
AcDbVertex
100
AcDb2dVertex
 10
142.956132
 20
130.83353
 30
0.0
  0
VERTEX
  5
AC
100
AcDbEntity
  8
SCHRAFFUR
 62
     7
100
AcDbVertex
100
AcDb2dVertex
 10
142.956132
 20
126.480652
 30
0.0
  0
VERTEX
  5
AD
100
AcDbEntity
  8
SCHRAFFUR
 62
     7
100
AcDbVertex
100
AcDb2dVertex
 10
140.299447
 20
126.480652
 30
0.0
  0
SEQEND
  5
AE
100
AcDbEntity
  8
SCHRAFFUR
 62
     7
  0
POLYLINE
  5
A3
100
AcDbEntity
  8
SCHRAFFUR
 62
     7
100
AcDb2dPolyline
 66
     1
 10
0.0
 20
0.0
 30
0.0
  0
VERTEX
  5
A4
100
AcDbEntity
  8
SCHRAFFUR
 62
     7
100
AcDbVertex
100
AcDb2dVertex
 10
141.706079
 20
135.18658
 30
0.0
  0
VERTEX
  5
A5
100
AcDbEntity
  8
SCHRAFFUR
 62
     7
100
AcDbVertex
100
AcDb2dVertex
 10
142.956132
 20
135.18658
 30
0.0
  0
VERTEX
  5
A6
100
AcDbEntity
  8
SCHRAFFUR
 62
     7
100
AcDbVertex
100
AcDb2dVertex
 10
142.956132
 20
130.83353
 30
0.0
  0
VERTEX
  5
A7
100
AcDbEntity
  8
SCHRAFFUR
 62
     7
100
AcDbVertex
100
AcDb2dVertex
 10
140.456026
 20
130.83353
 30
0.0
  0
SEQEND
  5
A8
100
AcDbEntity
  8
SCHRAFFUR
 62
     7
  0
POLYLINE
  5
9D
100
AcDbEntity
  8
SCHRAFFUR
 62
     7
100
AcDb2dPolyline
 66
     1
 10
0.0
 20
0.0
 30
0.0
  0
VERTEX
  5
9E
100
AcDbEntity
  8
SCHRAFFUR
 62
     7
100
AcDbVertex
100
AcDb2dVertex
 10
141.706079
 20
139.539459
 30
0.0
  0
VERTEX
  5
9F
100
AcDbEntity
  8
SCHRAFFUR
 62
     7
100
AcDbVertex
100
AcDb2dVertex
 10
142.956132
 20
139.539459
 30
0.0
  0
VERTEX
  5
A0
100
AcDbEntity
  8
SCHRAFFUR
 62
     7
100
AcDbVertex
100
AcDb2dVertex
 10
142.956132
 20
135.18658
 30
0.0
  0
VERTEX
  5
A1
100
AcDbEntity
  8
SCHRAFFUR
 62
     7
100
AcDbVertex
100
AcDb2dVertex
 10
140.456026
 20
135.18658
 30
0.0
  0
SEQEND
  5
A2
100
AcDbEntity
  8
SCHRAFFUR
 62
     7
  0
POLYLINE
  5
97
100
AcDbEntity
  8
SCHRAFFUR
 62
     7
100
AcDb2dPolyline
 66
     1
 10
0.0
 20
0.0
 30
0.0
  0
VERTEX
  5
98
100
AcDbEntity
  8
SCHRAFFUR
 62
     7
100
AcDbVertex
100
AcDb2dVertex
 10
140.456026
 20
143.892337
 30
0.0
  0
VERTEX
  5
99
100
AcDbEntity
  8
SCHRAFFUR
 62
     7
100
AcDbVertex
100
AcDb2dVertex
 10
142.956132
 20
143.892337
 30
0.0
  0
VERTEX
  5
9A
100
AcDbEntity
  8
SCHRAFFUR
 62
     7
100
AcDbVertex
100
AcDb2dVertex
 10
142.956132
 20
139.539459
 30
0.0
  0
VERTEX
  5
9B
100
AcDbEntity
  8
SCHRAFFUR
 62
     7
100
AcDbVertex
100
AcDb2dVertex
 10
140.456026
 20
139.539459
 30
0.0
  0
SEQEND
  5
9C
100
AcDbEntity
  8
SCHRAFFUR
 62
     7
  0
POLYLINE
  5
91
100
AcDbEntity
  8
SCHRAFFUR
 62
     7
100
AcDb2dPolyline
 66
     1
 10
0.0
 20
0.0
 30
0.0
  0
VERTEX
  5
92
100
AcDbEntity
  8
SCHRAFFUR
 62
     7
100
AcDbVertex
100
AcDb2dVertex
 10
140.456026
 20
148.245215
 30
0.0
  0
VERTEX
  5
93
100
AcDbEntity
  8
SCHRAFFUR
 62
     7
100
AcDbVertex
100
AcDb2dVertex
 10
142.956132
 20
148.245215
 30
0.0
  0
VERTEX
  5
94
100
AcDbEntity
  8
SCHRAFFUR
 62
     7
100
AcDbVertex
100
AcDb2dVertex
 10
142.956132
 20
143.892337
 30
0.0
  0
VERTEX
  5
95
100
AcDbEntity
  8
SCHRAFFUR
 62
     7
100
AcDbVertex
100
AcDb2dVertex
 10
140.456026
 20
143.892337
 30
0.0
  0
SEQEND
  5
96
100
AcDbEntity
  8
SCHRAFFUR
 62
     7
  0
POLYLINE
  5
8B
100
AcDbEntity
  8
SCHRAFFUR
 62
     7
100
AcDb2dPolyline
 66
     1
 10
0.0
 20
0.0
 30
0.0
  0
VERTEX
  5
8C
100
AcDbEntity
  8
SCHRAFFUR
 62
     7
100
AcDbVertex
100
AcDb2dVertex
 10
140.456026
 20
51.395312
 30
0.0
  0
VERTEX
  5
8D
100
AcDbEntity
  8
SCHRAFFUR
 62
     7
100
AcDbVertex
100
AcDb2dVertex
 10
142.956132
 20
51.395312
 30
0.0
  0
VERTEX
  5
8E
100
AcDbEntity
  8
SCHRAFFUR
 62
     7
100
AcDbVertex
100
AcDb2dVertex
 10
142.956132
 20
55.748191
 30
0.0
  0
VERTEX
  5
8F
100
AcDbEntity
  8
SCHRAFFUR
 62
     7
100
AcDbVertex
100
AcDb2dVertex
 10
140.456026
 20
55.748191
 30
0.0
  0
SEQEND
  5
90
100
AcDbEntity
  8
SCHRAFFUR
 62
     7
  0
POLYLINE
  5
85
100
AcDbEntity
  8
SCHRAFFUR
 62
     7
100
AcDb2dPolyline
 66
     1
 10
0.0
 20
0.0
 30
0.0
  0
VERTEX
  5
86
100
AcDbEntity
  8
SCHRAFFUR
 62
     7
100
AcDbVertex
100
AcDb2dVertex
 10
141.706079
 20
60.101069
 30
0.0
  0
VERTEX
  5
87
100
AcDbEntity
  8
SCHRAFFUR
 62
     7
100
AcDbVertex
100
AcDb2dVertex
 10
142.956132
 20
60.101069
 30
0.0
  0
VERTEX
  5
88
100
AcDbEntity
  8
SCHRAFFUR
 62
     7
100
AcDbVertex
100
AcDb2dVertex
 10
142.956132
 20
64.453947
 30
0.0
  0
VERTEX
  5
89
100
AcDbEntity
  8
SCHRAFFUR
 62
     7
100
AcDbVertex
100
AcDb2dVertex
 10
140.456026
 20
64.453947
 30
0.0
  0
SEQEND
  5
8A
100
AcDbEntity
  8
SCHRAFFUR
 62
     7
  0
POLYLINE
  5
7F
100
AcDbEntity
  8
SCHRAFFUR
 62
     7
100
AcDb2dPolyline
 66
     1
 10
0.0
 20
0.0
 30
0.0
  0
VERTEX
  5
80
100
AcDbEntity
  8
SCHRAFFUR
 62
     7
100
AcDbVertex
100
AcDb2dVertex
 10
140.456026
 20
55.748191
 30
0.0
  0
VERTEX
  5
81
100
AcDbEntity
  8
SCHRAFFUR
 62
     7
100
AcDbVertex
100
AcDb2dVertex
 10
142.956132
 20
55.748191
 30
0.0
  0
VERTEX
  5
82
100
AcDbEntity
  8
SCHRAFFUR
 62
     7
100
AcDbVertex
100
AcDb2dVertex
 10
142.956132
 20
60.101069
 30
0.0
  0
VERTEX
  5
83
100
AcDbEntity
  8
SCHRAFFUR
 62
     7
100
AcDbVertex
100
AcDb2dVertex
 10
140.456026
 20
60.101069
 30
0.0
  0
SEQEND
  5
84
100
AcDbEntity
  8
SCHRAFFUR
 62
     7
  0
POLYLINE
  5
79
100
AcDbEntity
  8
SCHRAFFUR
 62
     7
100
AcDb2dPolyline
 66
     1
 10
0.0
 20
0.0
 30
0.0
  0
VERTEX
  5
7A
100
AcDbEntity
  8
SCHRAFFUR
 62
     7
100
AcDbVertex
100
AcDb2dVertex
 10
141.706079
 20
64.453947
 30
0.0
  0
VERTEX
  5
7B
100
AcDbEntity
  8
SCHRAFFUR
 62
     7
100
AcDbVertex
100
AcDb2dVertex
 10
142.956132
 20
64.453947
 30
0.0
  0
VERTEX
  5
7C
100
AcDbEntity
  8
SCHRAFFUR
 62
     7
100
AcDbVertex
100
AcDb2dVertex
 10
142.956132
 20
68.806825
 30
0.0
  0
VERTEX
  5
7D
100
AcDbEntity
  8
SCHRAFFUR
 62
     7
100
AcDbVertex
100
AcDb2dVertex
 10
140.456026
 20
68.806825
 30
0.0
  0
SEQEND
  5
7E
100
AcDbEntity
  8
SCHRAFFUR
 62
     7
  0
LINE
  5
78
100
AcDbEntity
  8
SCHRAFFUR
 62
     7
100
AcDbLine
 10
142.956132
 20
149.039826
 30
0.0
 11
160.441197
 21
166.524719
 31
0.0
  0
LINE
  5
77
100
AcDbEntity
  8
SCHRAFFUR
 62
     7
100
AcDbLine
 10
142.956132
 20
137.814499
 30
0.0
 11
171.666352
 21
166.524719
 31
0.0
  0
LINE
  5
76
100
AcDbEntity
  8
SCHRAFFUR
 62
     7
100
AcDbLine
 10
142.956132
 20
126.589172
 30
0.0
 11
182.891851
 21
166.524719
 31
0.0
  0
LINE
  5
75
100
AcDbEntity
  8
SCHRAFFUR
 62
     7
100
AcDbLine
 10
152.958105
 20
125.365647
 30
0.0
 11
194.117006
 21
166.524719
 31
0.0
  0
LINE
  5
74
100
AcDbEntity
  8
SCHRAFFUR
 62
     7
100
AcDbLine
 10
164.18326
 20
125.365647
 30
0.0
 11
202.956087
 21
164.138474
 31
0.0
  0
LINE
  5
73
100
AcDbEntity
  8
SCHRAFFUR
 62
     7
100
AcDbLine
 10
175.408759
 20
125.365647
 30
0.0
 11
202.956087
 21
152.913147
 31
0.0
  0
LINE
  5
72
100
AcDbEntity
  8
SCHRAFFUR
 62
     7
100
AcDbLine
 10
186.633914
 20
125.365647
 30
0.0
 11
202.956087
 21
141.687992
 31
0.0
  0
LINE
  5
71
100
AcDbEntity
  8
SCHRAFFUR
 62
     7
100
AcDbLine
 10
197.859413
 20
125.365647
 30
0.0
 11
202.956087
 21
130.462665
 31
0.0
  0
LINE
  5
70
100
AcDbEntity
  8
SCHRAFFUR
 62
     7
100
AcDbLine
 10
142.956132
 20
56.421018
 30
0.0
 11
169.218956
 21
82.684014
 31
0.0
  0
LINE
  5
6F
100
AcDbEntity
  8
SCHRAFFUR
 62
     7
100
AcDbLine
 10
142.956132
 20
45.195519
 30
0.0
 11
180.444455
 21
82.684014
 31
0.0
  0
LINE
  5
6E
100
AcDbEntity
  8
SCHRAFFUR
 62
     7
100
AcDbLine
 10
150.377384
 20
41.391789
 30
0.0
 11
191.66961
 21
82.684014
 31
0.0
  0
LINE
  5
6D
100
AcDbEntity
  8
SCHRAFFUR
 62
     7
100
AcDbLine
 10
161.602884
 20
41.391789
 30
0.0
 11
202.956087
 21
82.744992
 31
0.0
  0
LINE
  5
6C
100
AcDbEntity
  8
SCHRAFFUR
 62
     7
100
AcDbLine
 10
172.828038
 20
41.391789
 30
0.0
 11
202.956087
 21
71.519838
 31
0.0
  0
LINE
  5
6B
100
AcDbEntity
  8
SCHRAFFUR
 62
     7
100
AcDbLine
 10
184.053537
 20
41.391789
 30
0.0
 11
202.956087
 21
60.294339
 31
0.0
  0
LINE
  5
6A
100
AcDbEntity
  8
SCHRAFFUR
 62
     7
100
AcDbLine
 10
195.278692
 20
41.391789
 30
0.0
 11
202.956087
 21
49.069184
 31
0.0
  0
POLYLINE
  5
64
100
AcDbEntity
  8
SCHRAFFUR
 62
     7
100
AcDb2dPolyline
 66
     1
 10
0.0
 20
0.0
 30
0.0
  0
VERTEX
  5
65
100
AcDbEntity
  8
SCHRAFFUR
 62
     7
100
AcDbVertex
100
AcDb2dVertex
 10
140.456026
 20
156.951143
 30
0.0
  0
VERTEX
  5
66
100
AcDbEntity
  8
SCHRAFFUR
 62
     7
100
AcDbVertex
100
AcDb2dVertex
 10
142.956132
 20
156.951143
 30
0.0
  0
VERTEX
  5
67
100
AcDbEntity
  8
SCHRAFFUR
 62
     7
100
AcDbVertex
100
AcDb2dVertex
 10
142.956132
 20
152.598093
 30
0.0
  0
VERTEX
  5
68
100
AcDbEntity
  8
SCHRAFFUR
 62
     7
100
AcDbVertex
100
AcDb2dVertex
 10
140.456026
 20
152.598093
 30
0.0
  0
SEQEND
  5
69
100
AcDbEntity
  8
SCHRAFFUR
 62
     7
  0
POLYLINE
  5
5E
100
AcDbEntity
  8
SCHRAFFUR
 62
     7
100
AcDb2dPolyline
 66
     1
 10
0.0
 20
0.0
 30
0.0
 70
     1
  0
VERTEX
  5
5F
100
AcDbEntity
  8
SCHRAFFUR
 62
     7
100
AcDbVertex
100
AcDb2dVertex
 10
140.456026
 20
156.951143
 30
0.0
  0
VERTEX
  5
60
100
AcDbEntity
  8
SCHRAFFUR
 62
     7
100
AcDbVertex
100
AcDb2dVertex
 10
142.956132
 20
156.951143
 30
0.0
  0
VERTEX
  5
61
100
AcDbEntity
  8
SCHRAFFUR
 62
     7
100
AcDbVertex
100
AcDb2dVertex
 10
142.956132
 20
152.598093
 30
0.0
  0
VERTEX
  5
62
100
AcDbEntity
  8
SCHRAFFUR
 62
     7
100
AcDbVertex
100
AcDb2dVertex
 10
140.456026
 20
152.598093
 30
0.0
  0
SEQEND
  5
63
100
AcDbEntity
  8
SCHRAFFUR
 62
     7
  0
HATCH
  5
5D
100
AcDbEntity
  8
SCHRAFFUR
 62
     7
100
AcDbHatch
 10
0.0
 20
0.0
 30
0.0
210
0.0
220
0.0
230
1.0
  2
SOLID
 70
     1
 71
     0
 91
        1
 92
        3
 72
     0
 73
     1
 93
        4
 10
140.45602620442708
 20
156.95114339192708
 10
142.95613199869791
 20
156.95114339192708
 10
142.95613199869791
 20
152.59809299045136
 10
140.45602620442708
 20
152.59809299045136
 97
        0
 75
     0
 76
     1
 98
        1
 10
0.0
 20
0.0
  0
LINE
  5
5C
100
AcDbEntity
  8
SCHRAFFUR
 62
     7
100
AcDbLine
 10
142.956132
 20
67.664776
 30
0.0
 11
157.975198
 21
82.684014
 31
0.0
  0
LINE
  5
5B
100
AcDbEntity
  8
SCHRAFFUR
 62
     7
100
AcDbLine
 10
142.956132
 20
78.890275
 30
0.0
 11
146.749871
 21
82.684014
 31
0.0
  0
HATCH
  5
5A
100
AcDbEntity
  8
SCHRAFFUR
 62
     7
100
AcDbHatch
 10
0.0
 20
0.0
 30
0.0
210
0.0
220
0.0
230
1.0
  2
SOLID
 70
     1
 71
     0
 91
        1
 92
        3
 72
     0
 73
     1
 93
        4
 10
142.95613199869791
 20
55.748190646701381
 10
140.45602620442708
 20
55.748190646701381
 10
140.45602620442708
 20
51.395312499999996
 10
142.95613199869791
 20
51.395312499999996
 97
        0
 75
     0
 76
     1
 98
        1
 10
0.0
 20
0.0
  0
HATCH
  5
59
100
AcDbEntity
  8
SCHRAFFUR
 62
     7
100
AcDbHatch
 10
0.0
 20
0.0
 30
0.0
210
0.0
220
0.0
230
1.0
  2
SOLID
 70
     1
 71
     0
 91
        1
 92
        3
 72
     0
 73
     1
 93
        4
 10
142.95613199869791
 20
47.04243435329861
 10
140.45602620442708
 20
47.04243435329861
 10
140.45602620442708
 20
42.689211697048606
 10
142.95613199869791
 20
42.689211697048606
 97
        0
 75
     0
 76
     1
 98
        1
 10
0.0
 20
0.0
  0
HATCH
  5
58
100
AcDbEntity
  8
SCHRAFFUR
 62
     7
100
AcDbHatch
 10
0.0
 20
0.0
 30
0.0
210
0.0
220
0.0
230
1.0
  2
SOLID
 70
     1
 71
     0
 91
        1
 92
        3
 72
     0
 73
     1
 93
        4
 10
142.95613199869791
 20
165.63536783854164
 10
140.45602620442708
 20
165.63536783854164
 10
140.45602620442708
 20
161.28231743706596
 10
142.95613199869791
 20
161.28231743706596
 97
        0
 75
     0
 76
     1
 98
        1
 10
0.0
 20
0.0
  0
POLYLINE
  5
52
100
AcDbEntity
  8
SCHRAFFUR
 62
     7
100
AcDb2dPolyline
 66
     1
 10
0.0
 20
0.0
 30
0.0
 70
     1
  0
VERTEX
  5
53
100
AcDbEntity
  8
SCHRAFFUR
 62
     7
100
AcDbVertex
100
AcDb2dVertex
 10
142.894982
 20
90.013455
 30
0.0
  0
VERTEX
  5
54
100
AcDbEntity
  8
SCHRAFFUR
 62
     7
100
AcDbVertex
100
AcDb2dVertex
 10
202.895109
 20
90.013455
 30
0.0
  0
VERTEX
  5
55
100
AcDbEntity
  8
SCHRAFFUR
 62
     7
100
AcDbVertex
100
AcDb2dVertex
 10
202.895109
 20
82.885552
 30
0.0
  0
VERTEX
  5
56
100
AcDbEntity
  8
SCHRAFFUR
 62
     7
100
AcDbVertex
100
AcDb2dVertex
 10
142.894982
 20
82.885552
 30
0.0
  0
SEQEND
  5
57
100
AcDbEntity
  8
SCHRAFFUR
 62
     7
  0
HATCH
  5
51
100
AcDbEntity
  8
SCHRAFFUR
 62
     7
100
AcDbHatch
 10
0.0
 20
0.0
 30
0.0
210
0.0
220
0.0
230
1.0
  2
_U
 70
     0
 71
     0
 91
        1
 92
        3
 72
     0
 73
     1
 93
        4
 10
142.89498155381943
 20
90.0134548611111
 10
202.89510904947915
 20
90.0134548611111
 10
202.89510904947915
 20
82.885552300347214
 10
142.89498155381943
 20
82.885552300347214
 97
        0
 75
     0
 76
     0
 52
45.0
 41
2.0
 77
     0
 78
     1
 53
45.0
 43
0.0
 44
0.0
 45
-1.4142135623730949
 46
1.4142135623730951
 79
     0
 98
        1
 10
0.0
 20
0.0
  0
LINE
  5
4F
100
AcDbEntity
  8
RAUHEIT
  6
AI9-LType2
 62
     7
100
AcDbLine
 10
202.716998
 20
118.039307
 30
0.0
 11
143.030029
 21
118.039307
 31
0.0
  0
LINE
  5
4E
100
AcDbEntity
  8
RAUHEIT
  6
AI9-LType2
 62
     7
100
AcDbLine
 10
202.787967
 20
90.081668
 30
0.0
 11
143.188848
 21
90.081668
 31
0.0
  0
LINE
  5
4B
100
AcDbEntity
  8
MITTELLINIE
  6
AI9-LType1
 62
     7
100
AcDbLine
 10
220.300765
 20
104.025003
 30
0.0
 11
113.754125
 21
104.025003
 31
0.0
  0
LINE
  5
49
100
AcDbEntity
  8
MITTELLINIE
 62
     7
100
AcDbLine
 10
153.97372
 20
104.025003
 30
0.0
 11
141.909167
 21
104.025003
 31
0.0
  0
LINE
  5
47
100
AcDbEntity
  8
BESCHREIBUNG
 62
     7
100
AcDbLine
 10
137.185769
 20
126.970717
 30
0.0
 11
118.541774
 21
157.770559
 31
0.0
  0
LINE
  5
46
100
AcDbEntity
  8
BESCHREIBUNG
 62
     7
100
AcDbLine
 10
141.706079
 20
46.603185
 30
0.0
 11
121.116466
 21
39.695079
 31
0.0
  0
LINE
  5
45
100
AcDbEntity
  8
BESCHREIBUNG
 62
     7
100
AcDbLine
 10
146.83996
 20
119.604414
 30
0.0
 11
111.096922
 21
122.34292
 31
0.0
  0
LINE
  5
44
100
AcDbEntity
  8
BESCHREIBUNG
 62
     7
100
AcDbLine
 10
137.185769
 20
81.078944
 30
0.0
 11
118.541774
 21
50.279102
 31
0.0
  0
LINE
  5
43
100
AcDbEntity
  8
BESCHREIBUNG
 62
     7
100
AcDbLine
 10
137.185769
 20
126.970717
 30
0.0
 11
117.475
 21
153.202707
 31
0.0
  0
LINE
  5
42
100
AcDbEntity
  8
BESCHREIBUNG
 62
     7
100
AcDbLine
 10
152.488539
 20
123.007996
 30
0.0
 11
111.092788
 21
122.819893
 31
0.0
  0
LINE
  5
41
100
AcDbEntity
  8
BESCHREIBUNG
 62
     7
100
AcDbLine
 10
137.185769
 20
81.078944
 30
0.0
 11
109.713889
 21
63.949929
 31
0.0
  0
MTEXT
  5
3F
100
AcDbEntity
  8
TEXT
 62
     7
100
AcDbMText
 10
77.158081
 20
55.990725
 30
0.0
 40
5.512152
 41
0.0
 71
     1
 72
     2
  1
\fArial|b0|i0;\H5.5122;\C7;\U+0050\U+004D\U+0042\U+0043
  7
STD
210
0.0
220
0.0
230
1.0
 73
     1
 44
1.0
  0
MTEXT
  5
3E
100
AcDbEntity
  8
TEXT
 62
     7
100
AcDbMText
 10
77.158081
 20
63.399058
 30
0.0
 40
5.512152
 41
0.0
 71
     1
 72
     2
  1
\fArial|b0|i0;\H5.5122;\C7;\U+0061\U+0062\U+0064\U+0069\U+0063\U+0068\U+0074\U+0075\U+006E\U+0067
  7
STD
210
0.0
220
0.0
230
1.0
 73
     1
 44
1.0
  0
MTEXT
  5
3D
100
AcDbEntity
  8
TEXT
 62
     7
100
AcDbMText
 10
77.158081
 20
70.807392
 30
0.0
 40
5.512152
 41
0.0
 71
     1
 72
     2
  1
\fArial|b0|i0;\H5.5122;\C7;\U+0041\U+0075\U+00DF\U+0065\U+006E\U+002D
  7
STD
210
0.0
220
0.0
230
1.0
 73
     1
 44
1.0
  0
MTEXT
  5
3C
100
AcDbEntity
  8
TEXT
 62
     7
100
AcDbMText
 10
76.667844
 20
150.429233
 30
0.0
 40
5.512152
 41
0.0
 71
     1
 72
     2
  1
\fArial|b0|i0;\H5.5122;\C7;\U+006B\U+0065\U+0068\U+006C\U+0065\U+0020\U+0050\U+004D\U+0042\U+0043
  7
STD
210
0.0
220
0.0
230
1.0
 73
     1
 44
1.0
  0
MTEXT
  5
3B
100
AcDbEntity
  8
TEXT
 62
     7
100
AcDbMText
 10
76.667844
 20
157.837566
 30
0.0
 40
5.512152
 41
0.0
 71
     1
 72
     2
  1
\fArial|b0|i0;\H5.5122;\C7;\U+006D\U+0069\U+0074\U+0020\U+0048\U+006F\U+0068\U+006C\U+002D
  7
STD
210
0.0
220
0.0
230
1.0
 73
     1
 44
1.0
  0
MTEXT
  5
3A
100
AcDbEntity
  8
TEXT
 62
     7
100
AcDbMText
 10
76.667844
 20
165.245899
 30
0.0
 40
5.512152
 41
0.0
 71
     1
 72
     2
  1
\fArial|b0|i0;\H5.5122;\C7;\U+004B\U+0065\U+0072\U+006E\U+0062\U+006F\U+0068\U+0072\U+0075\U+006E\U+0067
  7
STD
210
0.0
220
0.0
230
1.0
 73
     1
 44
1.0
  0
MTEXT
  5
39
100
AcDbEntity
  8
TEXT
 62
     7
100
AcDbMText
 10
75.730606
 20
115.313891
 30
0.0
 40
5.512152
 41
0.0
 71
     1
 72
     2
  1
\fArial|b0|i0;\H5.5122;\C7;\U+0068\U+0061\U+0072\U+007A
  7
STD
210
0.0
220
0.0
230
1.0
 73
     1
 44
1.0
  0
MTEXT
  5
38
100
AcDbEntity
  8
TEXT
 62
     7
100
AcDbMText
 10
75.730606
 20
122.722225
 30
0.0
 40
5.512152
 41
0.0
 71
     1
 72
     2
  1
\fArial|b0|i0;\H5.5122;\C7;\U+0045\U+0078\U+0070\U+0061\U+006E\U+0073\U+0069\U+006F\U+006E\U+0073\U+002D
  7
STD
210
0.0
220
0.0
230
1.0
 73
     1
 44
1.0
  0
MTEXT
  5
37
100
AcDbEntity
  8
TEXT
 62
     7
100
AcDbMText
 10
75.730606
 20
130.130558
 30
0.0
 40
5.512152
 41
0.0
 71
     1
 72
     2
  1
\fArial|b0|i0;\H5.5122;\C7;\U+0056\U+0065\U+0072\U+0067\U+0075\U+0073\U+0073\U+006D\U+00F6\U+0072\U+0074\U+0065\U+006C\U+002F
  7
STD
210
0.0
220
0.0
230
1.0
 73
     1
 44
1.0
  0
POLYLINE
  5
30
100
AcDbEntity
  8
RAHMEN
 62
     7
100
AcDb2dPolyline
 66
     1
 10
0.0
 20
0.0
 30
0.0
 70
     1
  0
VERTEX
  5
31
100
AcDbEntity
  8
RAHMEN
 62
     7
100
AcDbVertex
100
AcDb2dVertex
 10
73.203973
 20
180.755031
 30
0.0
  0
VERTEX
  5
32
100
AcDbEntity
  8
RAHMEN
 62
     7
100
AcDbVertex
100
AcDb2dVertex
 10
73.203973
 20
36.495275
 30
0.0
  0
VERTEX
  5
33
100
AcDbEntity
  8
RAHMEN
 62
     7
100
AcDbVertex
100
AcDb2dVertex
 10
234.871796
 20
36.495275
 30
0.0
  0
VERTEX
  5
34
100
AcDbEntity
  8
RAHMEN
 62
     7
100
AcDbVertex
100
AcDb2dVertex
 10
234.871796
 20
180.755031
 30
0.0
  0
SEQEND
  5
35
100
AcDbEntity
  8
RAHMEN
 62
     7
  0
POLYLINE
  5
2A
100
AcDbEntity
  8
RAHMEN
 62
     7
100
AcDb2dPolyline
 66
     1
 10
0.0
 20
0.0
 30
0.0
 70
     1
  0
VERTEX
  5
2B
100
AcDbEntity
  8
RAHMEN
 62
     7
100
AcDbVertex
100
AcDb2dVertex
 10
215.711209
 20
53.100979
 30
0.0
  0
VERTEX
  5
2C
100
AcDbEntity
  8
RAHMEN
 62
     7
100
AcDbVertex
100
AcDb2dVertex
 10
234.761209
 20
53.100979
 30
0.0
  0
VERTEX
  5
2D
100
AcDbEntity
  8
RAHMEN
 62
     7
100
AcDbVertex
100
AcDb2dVertex
 10
234.761209
 20
36.343346
 30
0.0
  0
VERTEX
  5
2E
100
AcDbEntity
  8
RAHMEN
 62
     7
100
AcDbVertex
100
AcDb2dVertex
 10
215.711209
 20
36.343346
 30
0.0
  0
SEQEND
  5
2F
100
AcDbEntity
  8
RAHMEN
 62
     7
  0
MTEXT
  5
29
100
AcDbEntity
  8
RAHMEN
 62
     7
100
AcDbMText
 10
216.857392
 20
50.644478
 30
0.0
 40
9.449404
 41
0.0
 71
     1
 72
     2
  1
\fMyriad Roman|b0|i0;\H9.4494;\C7;\U+0031\U+002E\U+0036
  7
STD
210
0.0
220
0.0
230
1.0
 73
     1
 44
1.0
  0
ENDSEC
  0
SECTION
  2
OBJECTS
  0
DICTIONARY
  5
19
100
AcDbDictionary
280
     0
281
     1
  3
ACAD_GROUP
350
1A
  3
ACAD_MLINESTYLE
350
1B
  3
ACAD_LAYOUT
350
1E
  3
ACAD_PLOTSETTINGS
350
22
  3
ACAD_PLOTSTYLENAME
350
1F
  3
ACAD_WIPEOUT_VARS
350
23
  0
DICTIONARY
  5
1A
102
{ACAD_REACTORS
330
19
102
}
100
AcDbDictionary
280
     0
281
     1
  0
DICTIONARY
  5
1B
102
{ACAD_REACTORS
330
19
102
}
100
AcDbDictionary
280
     0
281
     1
  3
Standard
350
1C
  0
MLINESTYLE
  5
1C
102
{ACAD_REACTORS
330
1B
102
}
100
AcDbMlineStyle
  2
Standard
 70
     0
  3

 62
     0
 51
90.0
 52
90.0
 71
     2
 49
0.5
 62
   256
  6
ByLayer
 49
-0.5
 62
   256
  6
ByLayer
  0
ACDBDICTIONARYWDFLT
  5
1F
102
{ACAD_REACTORS
330
19
102
}
100
AcDbDictionary
281
     1
  3
Normal
350
1D
100
AcDbDictionaryWithDefault
340
1D
  0
ACDBPLACEHOLDER
  5
1D
102
{ACAD_REACTORS
330
1F
102
}
  0
LAYOUT
  5
20
102
{ACAD_REACTORS
330
1E
102
}
100
AcDbPlotSettings
  1

  2

  4

  6

 40
0.0
 41
0.0
 42
0.0
 43
0.0
 44
0.0
 45
0.0
 46
0.0
 47
0.0
 48
0.0
 49
0.0
140
0.0
141
0.0
142
1.0
143
1.0
 70
  1024
 72
     0
 73
     0
 74
     0
  7

 75
     0
147
1.0
148
0.0
149
0.0
100
AcDbLayout
  1
Model
 70
     0
 71
     0
 10
0.0
 20
0.0
 11
0.0
 21
0.0
 12
0.0
 22
0.0
 32
0.0
 14
0.0
 24
0.0
 34
0.0
 15
0.0
 25
0.0
 35
0.0
146
0.0
 13
0.0
 23
0.0
 33
0.0
 16
0.0
 26
0.0
 36
0.0
 17
0.0
 27
0.0
 37
0.0
 76
     0
330
A
331
0
345
0
346
0
  0
LAYOUT
  5
21
102
{ACAD_REACTORS
330
1E
102
}
100
AcDbPlotSettings
  1

  2

  4

  6

 40
0.0
 41
0.0
 42
0.0
 43
0.0
 44
0.0
 45
0.0
 46
0.0
 47
0.0
 48
0.0
 49
0.0
140
0.0
141
0.0
142
1.0
143
1.0
 70
     0
 72
     0
 73
     0
 74
     0
  7

 75
     0
147
1.0
148
0.0
149
0.0
100
AcDbLayout
  1
Layout1
 70
     0
 71
     0
 10
0.0
 20
0.0
 11
0.0
 21
0.0
 12
0.0
 22
0.0
 32
0.0
 14
0.0
 24
0.0
 34
0.0
 15
0.0
 25
0.0
 35
0.0
146
0.0
 13
0.0
 23
0.0
 33
0.0
 16
0.0
 26
0.0
 36
0.0
 17
0.0
 27
0.0
 37
0.0
 76
     0
330
B
331
0
345
0
346
0
  0
DICTIONARY
  5
1E
102
{ACAD_REACTORS
330
19
102
}
100
AcDbDictionary
280
     0
281
     1
  3
Layout1
350
21
  3
Model
350
20
  0
DICTIONARY
  5
22
102
{ACAD_REACTORS
330
19
102
}
100
AcDbDictionary
280
     0
281
     1
  0
WIPEOUTVARIABLES
  5
23
100
AcDbWipeoutVariables
 70
     1
  0
ENDSEC
  0
EOF
