  0
SECTION
  2
HEADER
  9
$ACADVER
  1
AC1015
  9
$ACADMAINTVER
 70
     6
  9
$DWGCODEPAGE
  3
ANSI_932
  9
$INSBASE
 10
0.0
 20
0.0
 30
0.0
  9
$EXTMIN
 10
67.596735
 20
33.29547
 30
1.000000E+20
  9
$EXTMAX
 10
229.970114
 20
178.41271
 30
-1.000000E+20
  9
$LIMMIN
 10
67.596735
 20
33.29547
  9
$LIMMAX
 10
229.970114
 20
178.41271
  9
$ORTHOMODE
 70
     0
  9
$REGENMODE
 70
     1
  9
$FILLMODE
 70
     1
  9
$QTEXTMODE
 70
     0
  9
$MIRRTEXT
 70
     1
  9
$LTSCALE
 40
1.0
  9
$ATTMODE
 70
     1
  9
$TEXTSIZE
 40
0.2
  9
$TRACEWID
 40
0.05
  9
$TEXTSTYLE
  7
Standard
  9
$CLAYER
  8
0
  9
$CELTYPE
  6
Continuous
  9
$CECOLOR
 62
   256
  9
$CELTSCALE
 40
1.0
  9
$DISPSILH
 70
     0
  9
$DIMSCALE
 40
1.0
  9
$DIMASZ
 40
0.18
  9
$DIMEXO
 40
0.0625
  9
$DIMDLI
 40
0.38
  9
$DIMRND
 40
0.0
  9
$DIMDLE
 40
0.0
  9
$DIMEXE
 40
0.18
  9
$DIMTP
 40
0.0
  9
$DIMTM
 40
0.0
  9
$DIMTXT
 40
0.18
  9
$DIMCEN
 40
0.09
  9
$DIMTSZ
 40
0.0
  9
$DIMTOL
 70
     0
  9
$DIMLIM
 70
     0
  9
$DIMTIH
 70
     1
  9
$DIMTOH
 70
     1
  9
$DIMSE1
 70
     0
  9
$DIMSE2
 70
     0
  9
$DIMTAD
 70
     0
  9
$DIMZIN
 70
     0
  9
$DIMBLK
  1

  9
$DIMASO
 70
     1
  9
$DIMSHO
 70
     1
  9
$DIMPOST
  1

  9
$DIMAPOST
  1

  9
$DIMALT
 70
     0
  9
$DIMALTD
 70
     2
  9
$DIMALTF
 40
25.4
  9
$DIMLFAC
 40
1.0
  9
$DIMTOFL
 70
     0
  9
$DIMTVP
 40
0.0
  9
$DIMTIX
 70
     0
  9
$DIMSOXD
 70
     0
  9
$DIMSAH
 70
     0
  9
$DIMBLK1
  1

  9
$DIMBLK2
  1

  9
$DIMSTYLE
  2
Standard
  9
$DIMCLRD
 70
     0
  9
$DIMCLRE
 70
     0
  9
$DIMCLRT
 70
     0
  9
$DIMTFAC
 40
1.0
  9
$DIMGAP
 40
0.09
  9
$DIMJUST
 70
     0
  9
$DIMSD1
 70
     0
  9
$DIMSD2
 70
     0
  9
$DIMTOLJ
 70
     1
  9
$DIMTZIN
 70
     0
  9
$DIMALTZ
 70
     0
  9
$DIMALTTZ
 70
     0
  9
$DIMUPT
 70
     0
  9
$DIMDEC
 70
     4
  9
$DIMTDEC
 70
     4
  9
$DIMALTU
 70
     2
  9
$DIMALTTD
 70
     2
  9
$DIMTXSTY
  7
Standard
  9
$DIMAUNIT
 70
     0
  9
$DIMADEC
 70
     0
  9
$DIMALTRND
 40
0.0
  9
$DIMAZIN
 70
     0
  9
$DIMDSEP
 70
     0
  9
$DIMATFIT
 70
     3
  9
$DIMFRAC
 70
     0
  9
$DIMLDRBLK
  1

  9
$DIMLUNIT
 70
     2
  9
$DIMLWD
 70
     0
  9
$DIMLWE
 70
     0
  9
$DIMTMOVE
 70
     0
  9
$LUNITS
 70
     2
  9
$LUPREC
 70
     4
  9
$SKETCHINC
 40
0.1
  9
$FILLETRAD
 40
0.0
  9
$AUNITS
 70
     0
  9
$AUPREC
 70
     0
  9
$MENU
  1
acad
  9
$ELEVATION
 40
0.0
  9
$PELEVATION
 40
0.0
  9
$THICKNESS
 40
0.0
  9
$LIMCHECK
 70
     0
  9
$CHAMFERA
 40
0.0
  9
$CHAMFERB
 40
0.0
  9
$CHAMFERC
 40
0.0
  9
$CHAMFERD
 40
0.0
  9
$SKPOLY
 70
     0
  9
$TDCREATE
 40
0.000000000
  9
$TDUCREATE
 40
0.000000000
  9
$TDUPDATE
 40
0.000000000
  9
$TDUUPDATE
 40
0.000000000
  9
$TDINDWG
 40
0.0000000000
  9
$TDUSRTIMER
 40
0.0000000000
  9
$USRTIMER
 70
     1
  9
$ANGBASE
 50
0.0
  9
$ANGDIR
 70
     0
  9
$PDMODE
 70
     0
  9
$PDSIZE
 40
0.0
  9
$PLINEWID
 40
0.0
  9
$SPLFRAME
 70
     0
  9
$SPLINETYPE
 70
     6
  9
$SPLINESEGS
 70
     8
  9
$HANDSEED
  5
1C6
  9
$SURFTAB1
 70
     6
  9
$SURFTAB2
 70
     6
  9
$SURFTYPE
 70
     6
  9
$SURFU
 70
     6
  9
$SURFV
 70
     6
  9
$UCSBASE
  2

  9
$UCSNAME
  2

  9
$UCSORG
 10
0.0
 20
0.0
 30
0.0
  9
$UCSXDIR
 10
1.0
 20
0.0
 30
0.0
  9
$UCSYDIR
 10
0.0
 20
1.0
 30
0.0
  9
$UCSORTHOREF
  2

  9
$UCSORTHOVIEW
 70
     0
  9
$UCSORGTOP
 10
0.0
 20
0.0
 30
0.0
  9
$UCSORGBOTTOM
 10
0.0
 20
0.0
 30
0.0
  9
$UCSORGLEFT
 10
0.0
 20
0.0
 30
0.0
  9
$UCSORGRIGHT
 10
0.0
 20
0.0
 30
0.0
  9
$UCSORGFRONT
 10
0.0
 20
0.0
 30
0.0
  9
$UCSORGBACK
 10
0.0
 20
0.0
 30
0.0
  9
$PUCSBASE
  2

  9
$PUCSNAME
  2

  9
$PUCSORG
 10
0.0
 20
0.0
 30
0.0
  9
$PUCSXDIR
 10
1.0
 20
0.0
 30
0.0
  9
$PUCSYDIR
 10
0.0
 20
1.0
 30
0.0
  9
$PUCSORTHOREF
  2

  9
$PUCSORTHOVIEW
 70
     0
  9
$PUCSORGTOP
 10
0.0
 20
0.0
 30
0.0
  9
$PUCSORGBOTTOM
 10
0.0
 20
0.0
 30
0.0
  9
$PUCSORGLEFT
 10
0.0
 20
0.0
 30
0.0
  9
$PUCSORGRIGHT
 10
0.0
 20
0.0
 30
0.0
  9
$PUCSORGFRONT
 10
0.0
 20
0.0
 30
0.0
  9
$PUCSORGBACK
 10
0.0
 20
0.0
 30
0.0
  9
$USERI1
 70
     0
  9
$USERI2
 70
     0
  9
$USERI3
 70
     0
  9
$USERI4
 70
     0
  9
$USERI5
 70
     0
  9
$USERR1
 40
0.0
  9
$USERR2
 40
0.0
  9
$USERR3
 40
0.0
  9
$USERR4
 40
0.0
  9
$USERR5
 40
0.0
  9
$WORLDVIEW
 70
     1
  9
$SHADEDGE
 70
     3
  9
$SHADEDIF
 70
    70
  9
$TILEMODE
 70
     1
  9
$MAXACTVP
 70
    16
  9
$PINSBASE
 10
0.0
 20
0.0
 30
0.0
  9
$PLIMCHECK
 70
     0
  9
$PEXTMIN
 10
1.000000E+20
 20
1.000000E+20
 30
1.000000E+20
  9
$PEXTMAX
 10
-1.000000E+20
 20
-1.000000E+20
 30
-1.000000E+20
  9
$PLIMMIN
 10
0.0
 20
0.0
  9
$PLIMMAX
 10
12.0
 20
9.0
  9
$UNITMODE
 70
     0
  9
$VISRETAIN
 70
     0
  9
$PLINEGEN
 70
     1
  9
$PSLTSCALE
 70
     0
  9
$TREEDEPTH
 70
  3020
  9
$CMLSTYLE
  2
Standard
  9
$CMLJUST
 70
     0
  9
$CMLSCALE
 40
1.0
  9
$PROXYGRAPHICS
 70
     0
  9
$MEASUREMENT
 70
     1
  9
$CELWEIGHT
370
     0
  9
$ENDCAPS
280
     0
  9
$JOINSTYLE
280
     0
  9
$LWDISPLAY
290
     0
  9
$INSUNITS
 70
     0
  9
$HYPERLINKBASE
  1

  9
$STYLESHEET
  1

  9
$XEDIT
290
     1
  9
$CEPSNTYPE
380
     0
  9
$PSTYLEMODE
290
     1
  9
$FINGERPRINTGUID
  2

  9
$VERSIONGUID
  2

  9
$EXTNAMES
290
     1
  9
$PSVPSCALE
 40
0.0
  0
ENDSEC
  0
SECTION
  2
CLASSES
  0
CLASS
  1
LWPOLYLINE
  2
AcDbPolyline
  3
AutoCAD 2000
 90
    32768
280
     0
281
     1
  0
CLASS
  1
IMAGE
  2
AcDbRasterImage
  3
ISM
 90
    32895
280
     0
281
     1
  0
CLASS
  1
OLE2FRAME
  2
AcDbOle2Frame
  3
AutoCAD 2000
 90
    32768
280
     0
281
     1
  0
CLASS
  1
HATCH
  2
AcDbHatch
  3
AutoCAD 2000
 90
        0
280
     0
281
     1
  0
CLASS
  1
DICTIONARYVAR
  2
AcDbDictionaryVar
  3
AutoCAD 2000
 90
    32768
280
     0
281
     0
  0
CLASS
  1
RASTERVARIABLES
  2
AcDbRasterVariables
  3
ISM
 90
    32768
280
     0
281
     0
  0
CLASS
  1
IMAGEDEF
  2
AcDbRasterImageDef
  3
ISM
 90
    32768
280
     0
281
     0
  0
CLASS
  1
IMAGEDEF_REACTOR
  2
AcDbRasterImageDefReactor
  3
ISM
 90
    32769
280
     0
281
     0
  0
CLASS
  1
IDBUFFER
  2
AcDbIdBuffer
  3
AutoCAD 2000
 90
    32768
280
     0
281
     0
  0
CLASS
  1
SPATIAL_FILTER
  2
AcDbSpatialFilter
  3
AutoCAD 2000
 90
    32768
280
     0
281
     0
  0
CLASS
  1
XRECORD
  2
AcDbXrecord
  3
AutoCAD 2000
 90
    32768
280
     0
281
     0
  0
CLASS
  1
SORTENTSTABLE
  2
AcDbSortentsTable
  3
AutoCAD 2000
 90
    32768
280
     0
281
     0
  0
CLASS
  1
LAYER_INDEX
  2
AcDbLayerIndex
  3
AutoCAD 2000
 90
    32768
280
     0
281
     0
  0
CLASS
  1
SPATIAL_INDEX
  2
AcDbSpatialIndex
  3
AutoCAD 2000
 90
    32768
280
     0
281
     0
  0
CLASS
  1
OBJECT_PTR
  2
CAseDLPNTableRecord
  3
"ASE-LPNTableRecord"
 90
    32769
280
     0
281
     0
  0
CLASS
  1
LAYOUT
  2
AcDbLayout
  3
AutoCAD 2000
 90
        0
280
     0
281
     0
  0
CLASS
  1
PLOTSETTINGS
  2
AcDbPlotSettings
  3
AutoCAD 2000
 90
    32768
280
     0
281
     0
  0
CLASS
  1
ACDBDICTIONARYWDFLT
  2
AcDbDictionaryWithDefault
  3
AutoCAD 2000
 90
        0
280
     0
281
     0
  0
CLASS
  1
ACDBPLACEHOLDER
  2
AcDbPlaceHolder
  3
AutoCAD 2000
 90
        0
280
     0
281
     0
  0
CLASS
  1
VBA_PROJECT
  2
AcDbVbaProject
  3
acadvba
 90
    32768
280
     0
281
     0
  0
CLASS
  1
WIPEOUT
  2
AcDbWipeout
  3
WipeOut|AutoCAD Express Tool|expresstools@autodesk.com
 90
    32895
280
     0
281
     1
  0
CLASS
  1
WIPEOUTVARIABLES
  2
AcDbWipeoutVariables
  3
WipeOut|AutoCAD Express Tool|expresstools@autodesk.com
 90
        0
280
     0
281
     0
  0
CLASS
  1
RTEXT
  2
RText
  3
RText|AutoCAD Express Tool|expresstools@autodesk.com
 90
    32768
280
     0
281
     1
  0
CLASS
  1
ARCALIGNEDTEXT
  2
AcDbArcAlignedText
  3
ATEXT|AutoCAD Express Tool|expresstools@autodesk.com
 90
    32768
280
     0
281
     1
  0
ENDSEC
  0
SECTION
  2
TABLES
  0
TABLE
  2
VPORT
  5
7
100
AcDbSymbolTable
 70
     1
  0
VPORT
  5
15
100
AcDbSymbolTableRecord
100
AcDbViewportTableRecord
  2
*ACTIVE
 70
     0
 10
0.0
 20
0.0
 11
1.0
 21
1.0
 12
6.591288
 22
4.579184
 13
0.0
 23
0.0
 14
1.0
 24
1.0
 15
0.0
 25
0.0
 16
0.0
 26
0.0
 36
1.0
 17
0.0
 27
0.0
 37
0.0
 40
9.158369
 41
0.688564
 42
50.0
 43
0.0
 44
0.0
 50
0.0
 51
0.0
 71
     0
 72
   100
 73
     1
 74
     1
 75
     0
 76
     0
 77
     0
 78
     0
281
     0
 65
     0
110
0.0
120
0.0
130
0.0
111
1.0
121
0.0
131
0.0
112
0.0
122
1.0
132
0.0
345
0
346
0
 79
     0
146
0.0
  0
ENDTAB
  0
TABLE
  2
LTYPE
  5
4
100
AcDbSymbolTable
 70
     6
  0
LTYPE
  5
11
100
AcDbSymbolTableRecord
100
AcDbLinetypeTableRecord
  2
ByBlock
 70
    64
  3

 72
    65
 73
     0
 40
0.0
  0
LTYPE
  5
12
100
AcDbSymbolTableRecord
100
AcDbLinetypeTableRecord
  2
ByLayer
 70
    64
  3

 72
    65
 73
     0
 40
0.0
  0
LTYPE
  5
13
100
AcDbSymbolTableRecord
100
AcDbLinetypeTableRecord
  2
Continuous
 70
    64
  3
Solid line
 72
    65
 73
     0
 40
0.0
  0
LTYPE
  5
45
100
AcDbSymbolTableRecord
100
AcDbLinetypeTableRecord
  2
AI9-LType1
 70
    64
  3
Illustrator Dash Style No.1
 72
    65
 73
     4
 40
14.816667
 49
8.466667
 74
     0
 49
-2.822222
 74
     0
 49
0.705556
 74
     0
 49
-2.822222
 74
     0
  0
LTYPE
  5
188
100
AcDbSymbolTableRecord
100
AcDbLinetypeTableRecord
  2
AI9-LType2
 70
    64
  3
Illustrator Dash Style No.2
 72
    65
 73
     6
 40
17.638889
 49
8.466667
 74
     0
 49
-2.822222
 74
     0
 49
0.705556
 74
     0
 49
-2.116667
 74
     0
 49
0.705556
 74
     0
 49
-2.822222
 74
     0
  0
LTYPE
  5
18C
100
AcDbSymbolTableRecord
100
AcDbLinetypeTableRecord
  2
AI9-LType3
 70
    64
  3
Illustrator Dash Style No.3
 72
    65
 73
     4
 40
2.822222
 49
0.705556
 74
     0
 49
-0.705556
 74
     0
 49
0.705556
 74
     0
 49
-0.705556
 74
     0
  0
ENDTAB
  0
TABLE
  2
LAYER
  5
2
100
AcDbSymbolTable
 70
    12
  0
LAYER
  5
14
100
AcDbSymbolTableRecord
100
AcDbLayerTableRecord
  2
0
 70
     0
 62
     7
  6
Continuous
290
     1
370
    -3
390
1D
  0
LAYER
  5
28
100
AcDbSymbolTableRecord
100
AcDbLayerTableRecord
  2
AM_0
 70
     4
 62
     3
  6
Continuous
290
     1
370
    -3
390
1D
  0
LAYER
  5
40
100
AcDbSymbolTableRecord
100
AcDbLayerTableRecord
  2
AM_8
 70
     0
 62
     1
  6
Continuous
290
     1
370
    -3
390
1D
  0
LAYER
  5
44
100
AcDbSymbolTableRecord
100
AcDbLayerTableRecord
  2
MITTELLINIE
 70
     0
 62
   160
  6
Continuous
290
     1
370
    -3
390
1D
  0
LAYER
  5
47
100
AcDbSymbolTableRecord
100
AcDbLayerTableRecord
  2
SCHRAFFUR
 70
     4
 62
     7
  6
Continuous
290
     1
370
    -3
390
1D
  0
LAYER
  5
17D
100
AcDbSymbolTableRecord
100
AcDbLayerTableRecord
  2
TEXT
 70
     4
 62
     7
  6
Continuous
290
     1
370
    -3
390
1D
  0
LAYER
  5
187
100
AcDbSymbolTableRecord
100
AcDbLayerTableRecord
  2
GETRENNT
 70
     0
 62
     4
  6
Continuous
290
     1
370
    -3
390
1D
  0
LAYER
  5
18B
100
AcDbSymbolTableRecord
100
AcDbLayerTableRecord
  2
OBJEKT
 70
     0
 62
     3
  6
Continuous
290
     1
370
    -3
390
1D
  0
LAYER
  5
1A5
100
AcDbSymbolTableRecord
100
AcDbLayerTableRecord
  2
MOERTEL
 70
     4
 62
     1
  6
Continuous
290
     1
370
    -3
390
1D
  0
LAYER
  5
1A8
100
AcDbSymbolTableRecord
100
AcDbLayerTableRecord
  2
WASSER
 70
     4
 62
     1
  6
Continuous
290
     1
370
    -3
390
1D
  0
LAYER
  5
1AD
100
AcDbSymbolTableRecord
100
AcDbLayerTableRecord
  2
RAHMEN
 70
     0
 62
     1
  6
Continuous
290
     1
370
    -3
390
1D
  0
LAYER
  5
1BB
100
AcDbSymbolTableRecord
100
AcDbLayerTableRecord
  2
BITUMEN
 70
     4
 62
   160
  6
Continuous
290
     1
370
    -3
390
1D
  0
ENDTAB
  0
TABLE
  2
STYLE
  5
3
100
AcDbSymbolTable
 70
     5
  0
STYLE
  5
17
100
AcDbSymbolTableRecord
100
AcDbTextStyleTableRecord
  2
Standard
 70
     0
 40
0.0
 41
1.0
 50
0.0
 71
     0
 42
0.0
  3
txt
  4

  0
STYLE
  5
24
100
AcDbSymbolTableRecord
100
AcDbTextStyleTableRecord
  2
STD
 70
     0
 40
0.0
 41
1.0
 50
0.0
 71
     0
 42
0.0
  3
txt
  4

  0
STYLE
  5
25
100
AcDbSymbolTableRecord
100
AcDbTextStyleTableRecord
  2
TATESTD
 70
     4
 40
0.0
 41
1.0
 50
0.0
 71
     0
 42
0.0
  3
txt
  4

  0
STYLE
  5
26
100
AcDbSymbolTableRecord
100
AcDbTextStyleTableRecord
  2
KANJISTD
 70
     0
 40
0.0
 41
1.0
 50
0.0
 71
     0
 42
0.0
  3
txt
  4
extfont
  0
STYLE
  5
27
100
AcDbSymbolTableRecord
100
AcDbTextStyleTableRecord
  2
KANJITATE
 70
     4
 40
0.0
 41
1.0
 50
0.0
 71
     0
 42
0.0
  3
txt
  4
extfont
  0
ENDTAB
  0
TABLE
  2
VIEW
  5
5
100
AcDbSymbolTable
 70
     0
  0
ENDTAB
  0
TABLE
  2
UCS
  5
6
100
AcDbSymbolTable
 70
     0
  0
ENDTAB
  0
TABLE
  2
APPID
  5
8
100
AcDbSymbolTable
 70
     1
  0
APPID
  5
16
100
AcDbSymbolTableRecord
100
AcDbRegAppTableRecord
  2
ACAD
 70
     0
  0
ENDTAB
  0
TABLE
  2
DIMSTYLE
  5
9
100
AcDbSymbolTable
 70
     1
100
AcDbDimStyleTable
 71
     0
  0
DIMSTYLE
105
18
100
AcDbSymbolTableRecord
100
AcDbDimStyleTableRecord
  2
Standard
 70
     0
  3

  4

 40
1.0
 41
0.18
 42
0.0625
 43
0.38
 44
0.18
 45
0.0
 46
0.0
 47
0.0
 48
0.0
 71
     0
 72
     0
 73
     1
 74
     1
 75
     0
 76
     0
 77
     0
 78
     0
 79
     0
140
0.18
141
0.09
142
0.0
143
25.4
144
1.0
145
0.0
146
1.0
147
0.09
148
0.0
170
     0
171
     2
172
     0
173
     0
174
     0
175
     0
176
     0
177
     0
178
     0
179
     0
271
     4
272
     4
273
     2
274
     2
275
     0
276
     0
277
     2
278
    46
279
     0
280
     0
281
     0
282
     0
283
     1
284
     0
285
     0
286
     0
288
     0
340
17
341
0
342
0
343
0
344
0
371
    -2
372
    -2
  0
ENDTAB
  0
TABLE
  2
BLOCK_RECORD
  5
1
100
AcDbSymbolTable
 70
     0
  0
BLOCK_RECORD
  5
A
100
AcDbSymbolTableRecord
100
AcDbBlockTableRecord
  2
*MODEL_SPACE
340
20
  0
BLOCK_RECORD
  5
B
100
AcDbSymbolTableRecord
100
AcDbBlockTableRecord
  2
*PAPER_SPACE
340
21
  0
ENDTAB
  0
ENDSEC
  0
SECTION
  2
BLOCKS
  0
BLOCK
  5
D
100
AcDbEntity
  8
0
100
AcDbBlockBegin
  2
*MODEL_SPACE
 70
     0
 10
0.0
 20
0.0
 30
0.0
  3
*MODEL_SPACE
  1

  0
ENDBLK
  5
E
100
AcDbEntity
  8
0
100
AcDbBlockEnd
  0
BLOCK
  5
F
100
AcDbEntity
 67
     1
  8
0
100
AcDbBlockBegin
  2
*PAPER_SPACE
 70
     0
 10
0.0
 20
0.0
 30
0.0
  3
*PAPER_SPACE
  1

  0
ENDBLK
  5
10
100
AcDbEntity
 67
     1
  8
0
100
AcDbBlockEnd
  0
ENDSEC
  0
SECTION
  2
ENTITIES
  0
HATCH
  5
1C5
100
AcDbEntity
  8
BITUMEN
 62
     7
100
AcDbHatch
 10
0.0
 20
0.0
 30
0.0
210
0.0
220
0.0
230
1.0
  2
SOLID
 70
     1
 71
     0
 91
        1
 92
        3
 72
     0
 73
     1
 93
        4
 10
146.2084743923611
 20
86.239008246527774
 10
143.70836859809026
 20
86.239008246527774
 10
143.70836859809026
 20
81.886130099826374
 10
146.2084743923611
 20
81.886130099826374
 97
        0
 75
     0
 76
     1
 98
        1
 10
0.0
 20
0.0
  0
HATCH
  5
1C4
100
AcDbEntity
  8
BITUMEN
 62
     7
100
AcDbHatch
 10
0.0
 20
0.0
 30
0.0
210
0.0
220
0.0
230
1.0
  2
SOLID
 70
     1
 71
     0
 91
        1
 92
        3
 72
     0
 73
     1
 93
        4
 10
146.2084743923611
 20
77.444023980034714
 10
143.70836859809026
 20
77.444023980034714
 10
143.70836859809026
 20
73.091145833333329
 10
146.2084743923611
 20
73.091145833333329
 97
        0
 75
     0
 76
     1
 98
        1
 10
0.0
 20
0.0
  0
HATCH
  5
1C3
100
AcDbEntity
  8
BITUMEN
 62
     7
100
AcDbHatch
 10
0.0
 20
0.0
 30
0.0
210
0.0
220
0.0
230
1.0
  2
SOLID
 70
     1
 71
     0
 91
        1
 92
        3
 72
     0
 73
     1
 93
        4
 10
146.2084743923611
 20
68.738267686631943
 10
143.70836859809026
 20
68.738267686631943
 10
143.70836859809026
 20
64.385389539930543
 10
146.2084743923611
 20
64.385389539930543
 97
        0
 75
     0
 76
     1
 98
        1
 10
0.0
 20
0.0
  0
HATCH
  5
1C2
100
AcDbEntity
  8
BITUMEN
 62
     7
100
AcDbHatch
 10
0.0
 20
0.0
 30
0.0
210
0.0
220
0.0
230
1.0
  2
SOLID
 70
     1
 71
     0
 91
        1
 92
        3
 72
     0
 73
     1
 93
        4
 10
146.2084743923611
 20
60.032166883680553
 10
143.70836859809026
 20
60.032166883680553
 10
143.70836859809026
 20
55.67928873697916
 10
146.2084743923611
 20
55.67928873697916
 97
        0
 75
     0
 76
     1
 98
        1
 10
0.0
 20
0.0
  0
HATCH
  5
1C1
100
AcDbEntity
  8
BITUMEN
 62
     7
100
AcDbHatch
 10
0.0
 20
0.0
 30
0.0
210
0.0
220
0.0
230
1.0
  2
SOLID
 70
     1
 71
     0
 91
        1
 92
        3
 72
     0
 73
     1
 93
        4
 10
146.2084743923611
 20
51.326410590277774
 10
143.70836859809026
 20
51.326410590277774
 10
143.70836859809026
 20
48.794954427083326
 10
146.2084743923611
 20
48.794954427083326
 97
        0
 75
     0
 76
     1
 98
        1
 10
0.0
 20
0.0
  0
HATCH
  5
1C0
100
AcDbEntity
  8
BITUMEN
 62
     7
100
AcDbHatch
 10
0.0
 20
0.0
 30
0.0
210
0.0
220
0.0
230
1.0
  2
SOLID
 70
     1
 71
     0
 91
        1
 92
        3
 72
     0
 73
     1
 93
        4
 10
146.2084743923611
 20
163.65150960286456
 10
143.70836859809026
 20
163.65150960286456
 10
143.70836859809026
 20
166.182965766059
 10
146.2084743923611
 20
166.182965766059
 97
        0
 75
     0
 76
     1
 98
        1
 10
0.0
 20
0.0
  0
HATCH
  5
1BF
100
AcDbEntity
  8
BITUMEN
 62
     7
100
AcDbHatch
 10
0.0
 20
0.0
 30
0.0
210
0.0
220
0.0
230
1.0
  2
SOLID
 70
     1
 71
     0
 91
        1
 92
        3
 72
     0
 73
     1
 93
        4
 10
146.2084743923611
 20
137.53389621310762
 10
143.70836859809026
 20
137.53389621310762
 10
143.70836859809026
 20
141.88677435980901
 10
146.2084743923611
 20
141.88677435980901
 97
        0
 75
     0
 76
     1
 98
        1
 10
0.0
 20
0.0
  0
HATCH
  5
1BE
100
AcDbEntity
  8
BITUMEN
 62
     7
100
AcDbHatch
 10
0.0
 20
0.0
 30
0.0
210
0.0
220
0.0
230
1.0
  2
SOLID
 70
     1
 71
     0
 91
        1
 92
        3
 72
     0
 73
     1
 93
        4
 10
143.70836859809026
 20
154.94558105468749
 10
146.2084743923611
 20
154.94558105468749
 10
146.2084743923611
 20
159.29845920138888
 10
143.70836859809026
 20
159.29845920138888
 97
        0
 75
     0
 76
     1
 98
        1
 10
0.0
 20
0.0
  0
HATCH
  5
1BD
100
AcDbEntity
  8
BITUMEN
 62
     7
100
AcDbHatch
 10
0.0
 20
0.0
 30
0.0
210
0.0
220
0.0
230
1.0
  2
SOLID
 70
     1
 71
     0
 91
        1
 92
        3
 72
     0
 73
     1
 93
        4
 10
146.2084743923611
 20
146.23982476128472
 10
143.70836859809026
 20
146.23982476128472
 10
143.70836859809026
 20
150.59270290798611
 10
146.2084743923611
 20
150.59270290798611
 97
        0
 75
     0
 76
     1
 98
        1
 10
0.0
 20
0.0
  0
HATCH
  5
1BC
100
AcDbEntity
  8
BITUMEN
 62
     7
100
AcDbHatch
 10
0.0
 20
0.0
 30
0.0
210
0.0
220
0.0
230
1.0
  2
SOLID
 70
     1
 71
     0
 91
        1
 92
        3
 72
     0
 73
     1
 93
        4
 10
146.2084743923611
 20
128.73891194661456
 10
143.70836859809026
 20
128.73891194661456
 10
143.70836859809026
 20
133.09196234809028
 10
146.2084743923611
 20
133.09196234809028
 97
        0
 75
     0
 76
     1
 98
        1
 10
0.0
 20
0.0
  0
POLYLINE
  5
1B5
100
AcDbEntity
  8
RAHMEN
 62
     7
100
AcDb2dPolyline
 66
     1
 10
0.0
 20
0.0
 30
0.0
 70
     1
  0
VERTEX
  5
1B6
100
AcDbEntity
  8
RAHMEN
 62
     7
100
AcDbVertex
100
AcDb2dVertex
 10
67.949513
 20
178.059932
 30
0.0
  0
VERTEX
  5
1B7
100
AcDbEntity
  8
RAHMEN
 62
     7
100
AcDbVertex
100
AcDb2dVertex
 10
67.949513
 20
33.800176
 30
0.0
  0
VERTEX
  5
1B8
100
AcDbEntity
  8
RAHMEN
 62
     7
100
AcDbVertex
100
AcDb2dVertex
 10
229.617337
 20
33.800176
 30
0.0
  0
VERTEX
  5
1B9
100
AcDbEntity
  8
RAHMEN
 62
     7
100
AcDbVertex
100
AcDb2dVertex
 10
229.617337
 20
178.059932
 30
0.0
  0
SEQEND
  5
1BA
100
AcDbEntity
  8
RAHMEN
 62
     7
  0
POLYLINE
  5
1AF
100
AcDbEntity
  8
RAHMEN
 62
     7
100
AcDb2dPolyline
 66
     1
 10
0.0
 20
0.0
 30
0.0
 70
     1
  0
VERTEX
  5
1B0
100
AcDbEntity
  8
RAHMEN
 62
     7
100
AcDbVertex
100
AcDb2dVertex
 10
210.456749
 20
50.405881
 30
0.0
  0
VERTEX
  5
1B1
100
AcDbEntity
  8
RAHMEN
 62
     7
100
AcDbVertex
100
AcDb2dVertex
 10
229.506749
 20
50.405881
 30
0.0
  0
VERTEX
  5
1B2
100
AcDbEntity
  8
RAHMEN
 62
     7
100
AcDbVertex
100
AcDb2dVertex
 10
229.506749
 20
33.648248
 30
0.0
  0
VERTEX
  5
1B3
100
AcDbEntity
  8
RAHMEN
 62
     7
100
AcDbVertex
100
AcDb2dVertex
 10
210.456749
 20
33.648248
 30
0.0
  0
SEQEND
  5
1B4
100
AcDbEntity
  8
RAHMEN
 62
     7
  0
MTEXT
  5
1AE
100
AcDbEntity
  8
RAHMEN
 62
     7
100
AcDbMText
 10
211.602932
 20
47.94938
 30
0.0
 40
9.449404
 41
0.0
 71
     1
 72
     2
  1
\fMyriad Roman|b0|i0;\H9.4494;\C7;\U+0032\U+002E\U+0034
  7
STD
210
0.0
220
0.0
230
1.0
 73
     1
 44
1.0
  0
HATCH
  5
1AC
100
AcDbEntity
  8
WASSER
 62
     5
100
AcDbHatch
 10
0.0
 20
0.0
 30
0.0
210
0.0
220
0.0
230
1.0
  2
SOLID
 70
     1
 71
     0
 91
        1
 92
        1
 93
        1
 72
     4
 94
        3
 73
     0
 74
     0
 95
       23
 96
       19
 40
0.0
 40
0.0
 40
0.0
 40
0.0
 40
1.0
 40
1.0
 40
1.0
 40
2.0
 40
2.0
 40
2.0
 40
3.0
 40
3.0
 40
3.0
 40
4.0
 40
4.0
 40
4.0
 40
5.0
 40
5.0
 40
5.0
 40
6.0
 40
6.0
 40
6.0
 40
6.0
 10
140.21607530381942
 20
68.338292100694431
 10
140.21607530381942
 20
68.338292100694431
 10
139.77338053385415
 20
68.61114366319444
 10
139.17117784288195
 20
68.899153645833323
 10
134.20610622829861
 20
71.274202473958326
 10
135.41705729166665
 20
66.461748589409723
 10
130.50228407118055
 20
69.486197916666654
 10
129.80947536892359
 20
69.912700737847217
 10
129.16972113715278
 20
68.873659939236106
 10
129.86287434895831
 20
68.447157118055543
 10
129.86287434895831
 20
68.447157118055543
 10
130.30556911892359
 20
68.174305555555549
 10
130.90742730034722
 20
67.886295572916666
 10
135.86629774305555
 20
65.512624782986109
 10
134.66120334201386
 20
70.315776909722217
 10
139.57666558159721
 20
67.298562282986111
 10
140.26981879340278
 20
66.87240397135416
 10
140.90922851562499
 20
67.912133789062494
 10
140.21607530381942
 20
68.338292100694431
 97
        0
 75
     0
 76
     1
 98
        1
 10
0.0
 20
0.0
  0
HATCH
  5
1AB
100
AcDbEntity
  8
WASSER
 62
     5
100
AcDbHatch
 10
0.0
 20
0.0
 30
0.0
210
0.0
220
0.0
230
1.0
  2
SOLID
 70
     1
 71
     0
 91
        1
 92
        1
 93
        1
 72
     4
 94
        3
 73
     0
 74
     0
 95
       23
 96
       19
 40
0.0
 40
0.0
 40
0.0
 40
0.0
 40
1.0
 40
1.0
 40
1.0
 40
2.0
 40
2.0
 40
2.0
 40
3.0
 40
3.0
 40
3.0
 40
4.0
 40
4.0
 40
4.0
 40
5.0
 40
5.0
 40
5.0
 40
6.0
 40
6.0
 40
6.0
 40
6.0
 10
140.21607530381942
 20
65.467838541666666
 10
140.21607530381942
 20
65.467838541666666
 10
139.77338053385415
 20
65.741034613715271
 10
139.17117784288195
 20
66.028700086805543
 10
134.20610622829861
 20
68.403748914930546
 10
135.41705729166665
 20
63.591639539930547
 10
130.50228407118055
 20
66.6160888671875
 10
129.80947536892359
 20
67.042591688368049
 10
129.16972113715278
 20
66.003206380208326
 10
129.86287434895831
 20
65.576703559027777
 10
129.86287434895831
 20
65.576703559027777
 10
130.30556911892359
 20
65.303851996527769
 10
130.90742730034722
 20
65.015842013888886
 10
135.86629774305555
 20
62.64251573350694
 10
134.66120334201386
 20
67.445667860243049
 10
139.57666558159721
 20
64.428108723958331
 10
140.26981879340278
 20
64.002294921874991
 10
140.90922851562499
 20
65.042024739583326
 10
140.21607530381942
 20
65.467838541666666
 97
        0
 75
     0
 76
     1
 98
        1
 10
0.0
 20
0.0
  0
HATCH
  5
1AA
100
AcDbEntity
  8
WASSER
 62
     5
100
AcDbHatch
 10
0.0
 20
0.0
 30
0.0
210
0.0
220
0.0
230
1.0
  2
SOLID
 70
     1
 71
     0
 91
        1
 92
        1
 93
        1
 72
     4
 94
        3
 73
     0
 74
     0
 95
       23
 96
       19
 40
0.0
 40
0.0
 40
0.0
 40
0.0
 40
1.0
 40
1.0
 40
1.0
 40
2.0
 40
2.0
 40
2.0
 40
3.0
 40
3.0
 40
3.0
 40
4.0
 40
4.0
 40
4.0
 40
5.0
 40
5.0
 40
5.0
 40
6.0
 40
6.0
 40
6.0
 40
6.0
 10
140.21607530381942
 20
62.597729492187497
 10
140.21607530381942
 20
62.597729492187497
 10
139.77338053385415
 20
62.870581054687491
 10
139.17117784288195
 20
63.15824652777777
 10
134.20610622829861
 20
65.533295355902766
 10
135.41705729166665
 20
60.721185980902774
 10
130.50228407118055
 20
63.745979817708324
 10
129.80947536892359
 20
64.17248263888888
 10
129.16972113715278
 20
63.132752821180553
 10
129.86287434895831
 20
62.706249999999997
 10
129.86287434895831
 20
62.706249999999997
 10
130.30556911892359
 20
62.433398437499996
 10
130.90742730034722
 20
62.145388454861106
 10
135.86629774305555
 20
59.771717664930549
 10
134.66120334201386
 20
64.575214301215269
 10
139.57666558159721
 20
61.557999674479163
 10
140.26981879340278
 20
61.131841362847219
 10
140.90922851562499
 20
62.171571180555553
 10
140.21607530381942
 20
62.597729492187497
 97
        0
 75
     0
 76
     1
 98
        1
 10
0.0
 20
0.0
  0
HATCH
  5
1A9
100
AcDbEntity
  8
WASSER
 62
     5
100
AcDbHatch
 10
0.0
 20
0.0
 30
0.0
210
0.0
220
0.0
230
1.0
  2
SOLID
 70
     1
 71
     0
 91
        1
 92
        1
 93
        1
 72
     4
 94
        3
 73
     0
 74
     0
 95
       23
 96
       19
 40
0.0
 40
0.0
 40
0.0
 40
0.0
 40
1.0
 40
1.0
 40
1.0
 40
2.0
 40
2.0
 40
2.0
 40
3.0
 40
3.0
 40
3.0
 40
4.0
 40
4.0
 40
4.0
 40
5.0
 40
5.0
 40
5.0
 40
6.0
 40
6.0
 40
6.0
 40
6.0
 10
140.21607530381942
 20
71.203578016493054
 10
140.21607530381942
 20
71.203578016493054
 10
139.77338053385415
 20
71.47677408854166
 10
139.17117784288195
 20
71.764784071180543
 10
134.20610622829861
 20
74.139143880208323
 10
135.41705729166665
 20
69.327034505208331
 10
130.50228407118055
 20
72.351828342013889
 10
129.80947536892359
 20
72.778331163194437
 10
129.16972113715278
 20
71.738601345486103
 10
129.86287434895831
 20
71.312098524305554
 10
129.86287434895831
 20
71.312098524305554
 10
130.30556911892359
 20
71.039246961805546
 10
130.90742730034722
 20
70.751236979166663
 10
135.86629774305555
 20
68.378255208333329
 10
134.66120334201386
 20
73.181407335069437
 10
139.57666558159721
 20
70.164192708333331
 10
140.26981879340278
 20
69.737689887152769
 10
140.90922851562499
 20
70.777419704861103
 10
140.21607530381942
 20
71.203578016493054
 97
        0
 75
     0
 76
     1
 98
        1
 10
0.0
 20
0.0
  0
HATCH
  5
1A7
100
AcDbEntity
  8
MOERTEL
 62
   254
100
AcDbHatch
 10
0.0
 20
0.0
 30
0.0
210
0.0
220
0.0
230
1.0
  2
SOLID
 70
     1
 71
     0
 91
        1
 92
        3
 72
     0
 73
     1
 93
        5
 10
206.20825737847221
 20
128.48897026909722
 10
206.20825737847221
 20
128.73891194661456
 10
146.2084743923611
 20
128.73891194661456
 10
146.2084743923611
 20
121.23893907335068
 10
206.20825737847221
 20
121.23893907335068
 97
        0
 75
     0
 76
     1
 98
        1
 10
0.0
 20
0.0
  0
HATCH
  5
1A6
100
AcDbEntity
  8
MOERTEL
 62
   254
100
AcDbHatch
 10
0.0
 20
0.0
 30
0.0
210
0.0
220
0.0
230
1.0
  2
SOLID
 70
     1
 71
     0
 91
        1
 92
        3
 72
     0
 73
     1
 93
        4
 10
206.20825737847221
 20
93.73898111979166
 10
146.2084743923611
 20
93.73898111979166
 10
146.2084743923611
 20
86.239008246527774
 10
206.20825737847221
 20
86.239008246527774
 97
        0
 75
     0
 76
     1
 98
        1
 10
0.0
 20
0.0
  0
LINE
  5
1A4
100
AcDbEntity
  8
OBJEKT
 62
     7
100
AcDbLine
 10
146.208474
 20
121.238939
 30
0.0
 11
146.208474
 21
154.113935
 31
0.0
  0
LINE
  5
1A3
100
AcDbEntity
  8
OBJEKT
 62
     7
100
AcDbLine
 10
146.208474
 20
93.738981
 30
0.0
 11
146.208474
 21
60.614044
 31
0.0
  0
LINE
  5
1A2
100
AcDbEntity
  8
OBJEKT
 62
     7
100
AcDbLine
 10
206.208257
 20
165.989007
 30
0.0
 11
206.208257
 21
128.48897
 31
0.0
  0
LINE
  5
1A1
100
AcDbEntity
  8
OBJEKT
 62
     7
100
AcDbLine
 10
206.208257
 20
132.238957
 30
0.0
 11
149.958461
 21
132.238957
 31
0.0
  0
LINE
  5
1A0
100
AcDbEntity
  8
OBJEKT
 62
     7
100
AcDbLine
 10
206.208257
 20
86.239008
 30
0.0
 11
143.708369
 21
86.239008
 31
0.0
  0
LINE
  5
19F
100
AcDbEntity
  8
OBJEKT
 62
     7
100
AcDbLine
 10
206.208257
 20
82.489022
 30
0.0
 11
149.958461
 21
82.489022
 31
0.0
  0
LINE
  5
19E
100
AcDbEntity
  8
OBJEKT
 62
     7
100
AcDbLine
 10
206.208257
 20
128.48897
 30
0.0
 11
206.208257
 21
121.238939
 31
0.0
  0
LINE
  5
19D
100
AcDbEntity
  8
OBJEKT
 62
     7
100
AcDbLine
 10
206.208257
 20
93.738981
 30
0.0
 11
206.208257
 21
86.239008
 31
0.0
  0
LINE
  5
19C
100
AcDbEntity
  8
OBJEKT
 62
     7
100
AcDbLine
 10
146.208474
 20
93.738981
 30
0.0
 11
146.208474
 21
60.614044
 31
0.0
  0
LINE
  5
19B
100
AcDbEntity
  8
OBJEKT
 62
     7
100
AcDbLine
 10
149.958461
 20
60.614044
 30
0.0
 11
149.958461
 21
86.239008
 31
0.0
  0
LINE
  5
19A
100
AcDbEntity
  8
OBJEKT
 62
     7
100
AcDbLine
 10
149.958461
 20
128.738912
 30
0.0
 11
149.958461
 21
154.113935
 31
0.0
  0
LINE
  5
199
100
AcDbEntity
  8
OBJEKT
 62
     7
100
AcDbLine
 10
206.208257
 20
128.738912
 30
0.0
 11
146.208474
 21
128.738912
 31
0.0
  0
LINE
  5
198
100
AcDbEntity
  8
OBJEKT
 62
     7
100
AcDbLine
 10
143.708369
 20
121.238939
 30
0.0
 11
143.708369
 21
166.195196
 31
0.0
  0
LINE
  5
197
100
AcDbEntity
  8
OBJEKT
 62
     7
100
AcDbLine
 10
212.57066
 20
121.238939
 30
0.0
 11
136.974413
 21
121.238939
 31
0.0
  0
LINE
  5
196
100
AcDbEntity
  8
OBJEKT
 62
     7
100
AcDbLine
 10
212.57066
 20
93.738981
 30
0.0
 11
136.974413
 21
93.738981
 31
0.0
  0
SPLINE
  5
195
100
AcDbEntity
  8
OBJEKT
 62
     7
100
AcDbSpline
210
0.0
220
0.0
230
1.0
 70
     8
 71
     3
 72
     8
 73
     4
 74
     0
 42
0.00000001
 43
0.00000001
 40
0.0
 40
0.0
 40
0.0
 40
0.0
 40
1.0
 40
1.0
 40
1.0
 40
1.0
 10
212.65678710937499
 20
104.43686387803818
 30
0.0
 10
213.24176432291665
 20
101.80670572916665
 30
0.0
 10
213.90666775173608
 20
99.194634331597214
 30
0.0
 10
214.65046386718748
 20
96.604956054687491
 30
0.0
  0
SPLINE
  5
194
100
AcDbEntity
  8
OBJEKT
 62
     7
100
AcDbSpline
210
0.0
220
0.0
230
1.0
 70
     8
 71
     3
 72
     8
 73
     4
 74
     0
 42
0.00000001
 43
0.00000001
 40
0.0
 40
0.0
 40
0.0
 40
0.0
 40
1.0
 40
1.0
 40
1.0
 40
1.0
 10
136.88828531901041
 20
110.54088406032984
 30
0.0
 10
136.30330810546874
 20
113.17121446397569
 30
0.0
 10
135.63857693142359
 20
115.78311360677083
 30
0.0
 10
134.89478081597221
 20
118.37296413845485
 30
0.0
  0
SPLINE
  5
193
100
AcDbEntity
  8
OBJEKT
 62
     7
100
AcDbSpline
210
0.0
220
0.0
230
1.0
 70
     8
 71
     3
 72
     8
 73
     4
 74
     0
 42
0.00000001
 43
0.00000001
 40
0.0
 40
0.0
 40
0.0
 40
0.0
 40
1.0
 40
1.0
 40
1.0
 40
1.0
 10
213.82949761284721
 20
94.1372341579861
 30
0.0
 10
214.49061143663192
 20
94.818329535590266
 30
0.0
 10
214.78482259114583
 20
95.77572157118054
 30
0.0
 10
214.62014702690971
 20
96.7107204861111
 30
0.0
  0
SPLINE
  5
192
100
AcDbEntity
  8
OBJEKT
 62
     7
100
AcDbSpline
210
0.0
220
0.0
230
1.0
 70
     8
 71
     3
 72
     8
 73
     4
 74
     0
 42
0.00000001
 43
0.00000001
 40
0.0
 40
0.0
 40
0.0
 40
0.0
 40
1.0
 40
1.0
 40
1.0
 40
1.0
 10
212.57065972222219
 20
93.73898111979166
 30
0.0
 10
213.02127821180554
 20
93.73898111979166
 30
0.0
 10
213.46087239583332
 20
93.878162977430549
 30
0.0
 10
213.82949761284721
 20
94.1372341579861
 30
0.0
  0
SPLINE
  5
191
100
AcDbEntity
  8
OBJEKT
 62
     7
100
AcDbSpline
210
0.0
220
0.0
230
1.0
 70
     8
 71
     3
 72
     8
 73
     4
 74
     0
 42
0.00000001
 43
0.00000001
 40
0.0
 40
0.0
 40
0.0
 40
0.0
 40
1.0
 40
1.0
 40
1.0
 40
1.0
 10
136.97441270616318
 20
121.23893907335068
 30
0.0
 10
136.52379421657986
 20
121.23893907335068
 30
0.0
 10
136.08420003255208
 20
121.09975721571179
 30
0.0
 10
135.71574707031249
 20
120.84051378038194
 30
0.0
  0
SPLINE
  5
190
100
AcDbEntity
  8
OBJEKT
 62
     7
100
AcDbSpline
210
0.0
220
0.0
230
1.0
 70
     8
 71
     3
 72
     8
 73
     4
 74
     0
 42
0.00000001
 43
0.00000001
 40
0.0
 40
0.0
 40
0.0
 40
0.0
 40
1.0
 40
1.0
 40
1.0
 40
1.0
 10
135.71574707031249
 20
120.84051378038194
 30
0.0
 10
135.05446099175347
 20
120.15941840277776
 30
0.0
 10
134.76024983723957
 20
119.20202636718749
 30
0.0
 10
134.92509765624999
 20
118.26702745225694
 30
0.0
  0
LINE
  5
18F
100
AcDbEntity
  8
OBJEKT
 62
     7
100
AcDbLine
 10
143.708369
 20
93.738981
 30
0.0
 11
143.708369
 21
48.794954
 31
0.0
  0
LINE
  5
18E
100
AcDbEntity
  8
OBJEKT
  6
AI9-LType3
 62
     7
100
AcDbLine
 10
206.208257
 20
121.599641
 30
0.0
 11
146.146635
 21
121.599641
 31
0.0
  0
LINE
  5
18D
100
AcDbEntity
  8
OBJEKT
  6
AI9-LType3
 62
     7
100
AcDbLine
 10
206.340549
 20
93.495068
 30
0.0
 11
146.278927
 21
93.495068
 31
0.0
  0
LINE
  5
18A
100
AcDbEntity
  8
GETRENNT
  6
AI9-LType2
 62
     7
100
AcDbLine
 10
143.708369
 20
48.794954
 30
0.0
 11
206.560002
 21
48.794954
 31
0.0
  0
LINE
  5
189
100
AcDbEntity
  8
GETRENNT
  6
AI9-LType2
 62
     7
100
AcDbLine
 10
206.208257
 20
165.989007
 30
0.0
 11
143.442063
 21
165.989007
 31
0.0
  0
MTEXT
  5
186
100
AcDbEntity
  8
TEXT
 62
     7
100
AcDbMText
 10
72.534074
 20
108.68725
 30
0.0
 40
5.512152
 41
0.0
 71
     1
 72
     2
  1
\fArial|b0|i0;\H5.5122;\C7;\U+0045\U+0078\U+0070\U+0061\U+006E\U+0073\U+0069\U+006F\U+006E\U+0073\U+0068\U+0061\U+0072\U+007A
  7
STD
210
0.0
220
0.0
230
1.0
 73
     1
 44
1.0
  0
MTEXT
  5
185
100
AcDbEntity
  8
TEXT
 62
     7
100
AcDbMText
 10
72.534074
 20
116.095756
 30
0.0
 40
5.512152
 41
0.0
 71
     1
 72
     2
  1
\fArial|b0|i0;\H5.5122;\C7;\U+0056\U+0065\U+0072\U+0067\U+0075\U+0073\U+0073\U+006D\U+00F6\U+0072\U+0074\U+0065\U+006C\U+002F
  7
STD
210
0.0
220
0.0
230
1.0
 73
     1
 44
1.0
  0
MTEXT
  5
184
100
AcDbEntity
  8
TEXT
 62
     7
100
AcDbMText
 10
74.469184
 20
72.712874
 30
0.0
 40
5.512152
 41
0.0
 71
     1
 72
     2
  1
\fArial|b0|i0;\H5.5122;\C7;\U+0061\U+0062\U+0064\U+0069\U+0063\U+0068\U+0074\U+0075\U+006E\U+0067
  7
STD
210
0.0
220
0.0
230
1.0
 73
     1
 44
1.0
  0
MTEXT
  5
183
100
AcDbEntity
  8
TEXT
 62
     7
100
AcDbMText
 10
74.469184
 20
80.121207
 30
0.0
 40
5.512152
 41
0.0
 71
     1
 72
     2
  1
\fArial|b0|i0;\H5.5122;\C7;\U+0041\U+0075\U+00DF\U+0065\U+006E\U+002D\U+006E\U+002D
  7
STD
210
0.0
220
0.0
230
1.0
 73
     1
 44
1.0
  0
MTEXT
  5
182
100
AcDbEntity
  8
TEXT
 62
     7
100
AcDbMText
 10
73.063241
 20
141.104221
 30
0.0
 40
5.512152
 41
0.0
 71
     1
 72
     2
  1
\fArial|b0|i0;\H5.5122;\C7;\U+0041\U+006E\U+0073\U+0063\U+0068\U+0077\U+0065\U+0069\U+00DF\U+0066\U+006C\U+0061\U+006E\U+0073\U+0063\U+0068
  7
STD
210
0.0
220
0.0
230
1.0
 73
     1
 44
1.0
  0
MTEXT
  5
181
100
AcDbEntity
  8
TEXT
 62
     7
100
AcDbMText
 10
73.063241
 20
148.512554
 30
0.0
 40
5.512152
 41
0.0
 71
     1
 72
     2
  1
\fArial|b0|i0;\H5.5122;\C7;\U+0075\U+006E\U+0064\U+0020\U+004B\U+006C\U+0065\U+0062\U+0065\U+002D\U+002F
  7
STD
210
0.0
220
0.0
230
1.0
 73
     1
 44
1.0
  0
MTEXT
  5
180
100
AcDbEntity
  8
TEXT
 62
     7
100
AcDbMText
 10
73.063241
 20
155.920887
 30
0.0
 40
5.512152
 41
0.0
 71
     1
 72
     2
  1
\fArial|b0|i0;\H5.5122;\C7;\U+0049\U+006E\U+006E\U+0065\U+006E\U+006F\U+0062\U+0065\U+0072\U+0066\U+006C\U+00E4\U+0063\U+0068\U+0065\U+0020
  7
STD
210
0.0
220
0.0
230
1.0
 73
     1
 44
1.0
  0
MTEXT
  5
17F
100
AcDbEntity
  8
TEXT
 62
     7
100
AcDbMText
 10
73.063241
 20
163.329221
 30
0.0
 40
5.512152
 41
0.0
 71
     1
 72
     2
  1
\fArial|b0|i0;\H5.5122;\C7;\U+0061\U+0075\U+0066\U+0067\U+0065\U+0072\U+0061\U+0075\U+0074\U+0065\U+0072\U+0020
  7
STD
210
0.0
220
0.0
230
1.0
 73
     1
 44
1.0
  0
MTEXT
  5
17E
100
AcDbEntity
  8
TEXT
 62
     7
100
AcDbMText
 10
73.063241
 20
170.737554
 30
0.0
 40
5.512152
 41
0.0
 71
     1
 72
     2
  1
\fArial|b0|i0;\H5.5122;\C7;\U+0046\U+0075\U+0074\U+0074\U+0065\U+0072\U+0072\U+006F\U+0068\U+0072\U+0020\U+006D\U+0069\U+0074\U+0020
  7
STD
210
0.0
220
0.0
230
1.0
 73
     1
 44
1.0
  0
POLYLINE
  5
177
100
AcDbEntity
  8
SCHRAFFUR
 62
     7
100
AcDb2dPolyline
 66
     1
 10
0.0
 20
0.0
 30
0.0
 70
     1
  0
VERTEX
  5
178
100
AcDbEntity
  8
SCHRAFFUR
 62
     7
100
AcDbVertex
100
AcDb2dVertex
 10
146.208474
 20
86.239008
 30
0.0
  0
VERTEX
  5
179
100
AcDbEntity
  8
SCHRAFFUR
 62
     7
100
AcDbVertex
100
AcDb2dVertex
 10
143.708369
 20
86.239008
 30
0.0
  0
VERTEX
  5
17A
100
AcDbEntity
  8
SCHRAFFUR
 62
     7
100
AcDbVertex
100
AcDb2dVertex
 10
143.708369
 20
81.88613
 30
0.0
  0
VERTEX
  5
17B
100
AcDbEntity
  8
SCHRAFFUR
 62
     7
100
AcDbVertex
100
AcDb2dVertex
 10
146.208474
 20
81.88613
 30
0.0
  0
SEQEND
  5
17C
100
AcDbEntity
  8
SCHRAFFUR
 62
     7
  0
POLYLINE
  5
171
100
AcDbEntity
  8
SCHRAFFUR
 62
     7
100
AcDb2dPolyline
 66
     1
 10
0.0
 20
0.0
 30
0.0
 70
     1
  0
VERTEX
  5
172
100
AcDbEntity
  8
SCHRAFFUR
 62
     7
100
AcDbVertex
100
AcDb2dVertex
 10
146.208474
 20
81.796902
 30
0.0
  0
VERTEX
  5
173
100
AcDbEntity
  8
SCHRAFFUR
 62
     7
100
AcDbVertex
100
AcDb2dVertex
 10
143.708369
 20
81.796902
 30
0.0
  0
VERTEX
  5
174
100
AcDbEntity
  8
SCHRAFFUR
 62
     7
100
AcDbVertex
100
AcDb2dVertex
 10
143.708369
 20
77.444024
 30
0.0
  0
VERTEX
  5
175
100
AcDbEntity
  8
SCHRAFFUR
 62
     7
100
AcDbVertex
100
AcDb2dVertex
 10
146.208474
 20
77.444024
 30
0.0
  0
SEQEND
  5
176
100
AcDbEntity
  8
SCHRAFFUR
 62
     7
  0
POLYLINE
  5
16B
100
AcDbEntity
  8
SCHRAFFUR
 62
     7
100
AcDb2dPolyline
 66
     1
 10
0.0
 20
0.0
 30
0.0
 70
     1
  0
VERTEX
  5
16C
100
AcDbEntity
  8
SCHRAFFUR
 62
     7
100
AcDbVertex
100
AcDb2dVertex
 10
146.208474
 20
77.444024
 30
0.0
  0
VERTEX
  5
16D
100
AcDbEntity
  8
SCHRAFFUR
 62
     7
100
AcDbVertex
100
AcDb2dVertex
 10
143.708369
 20
77.444024
 30
0.0
  0
VERTEX
  5
16E
100
AcDbEntity
  8
SCHRAFFUR
 62
     7
100
AcDbVertex
100
AcDb2dVertex
 10
143.708369
 20
73.091146
 30
0.0
  0
VERTEX
  5
16F
100
AcDbEntity
  8
SCHRAFFUR
 62
     7
100
AcDbVertex
100
AcDb2dVertex
 10
146.208474
 20
73.091146
 30
0.0
  0
SEQEND
  5
170
100
AcDbEntity
  8
SCHRAFFUR
 62
     7
  0
POLYLINE
  5
165
100
AcDbEntity
  8
SCHRAFFUR
 62
     7
100
AcDb2dPolyline
 66
     1
 10
0.0
 20
0.0
 30
0.0
 70
     1
  0
VERTEX
  5
166
100
AcDbEntity
  8
SCHRAFFUR
 62
     7
100
AcDbVertex
100
AcDb2dVertex
 10
146.208474
 20
73.091146
 30
0.0
  0
VERTEX
  5
167
100
AcDbEntity
  8
SCHRAFFUR
 62
     7
100
AcDbVertex
100
AcDb2dVertex
 10
143.708369
 20
73.091146
 30
0.0
  0
VERTEX
  5
168
100
AcDbEntity
  8
SCHRAFFUR
 62
     7
100
AcDbVertex
100
AcDb2dVertex
 10
143.708369
 20
68.738268
 30
0.0
  0
VERTEX
  5
169
100
AcDbEntity
  8
SCHRAFFUR
 62
     7
100
AcDbVertex
100
AcDb2dVertex
 10
146.208474
 20
68.738268
 30
0.0
  0
SEQEND
  5
16A
100
AcDbEntity
  8
SCHRAFFUR
 62
     7
  0
POLYLINE
  5
15F
100
AcDbEntity
  8
SCHRAFFUR
 62
     7
100
AcDb2dPolyline
 66
     1
 10
0.0
 20
0.0
 30
0.0
 70
     1
  0
VERTEX
  5
160
100
AcDbEntity
  8
SCHRAFFUR
 62
     7
100
AcDbVertex
100
AcDb2dVertex
 10
146.208474
 20
68.738268
 30
0.0
  0
VERTEX
  5
161
100
AcDbEntity
  8
SCHRAFFUR
 62
     7
100
AcDbVertex
100
AcDb2dVertex
 10
143.708369
 20
68.738268
 30
0.0
  0
VERTEX
  5
162
100
AcDbEntity
  8
SCHRAFFUR
 62
     7
100
AcDbVertex
100
AcDb2dVertex
 10
143.708369
 20
64.38539
 30
0.0
  0
VERTEX
  5
163
100
AcDbEntity
  8
SCHRAFFUR
 62
     7
100
AcDbVertex
100
AcDb2dVertex
 10
146.208474
 20
64.38539
 30
0.0
  0
SEQEND
  5
164
100
AcDbEntity
  8
SCHRAFFUR
 62
     7
  0
POLYLINE
  5
159
100
AcDbEntity
  8
SCHRAFFUR
 62
     7
100
AcDb2dPolyline
 66
     1
 10
0.0
 20
0.0
 30
0.0
 70
     1
  0
VERTEX
  5
15A
100
AcDbEntity
  8
SCHRAFFUR
 62
     7
100
AcDbVertex
100
AcDb2dVertex
 10
146.208474
 20
64.38539
 30
0.0
  0
VERTEX
  5
15B
100
AcDbEntity
  8
SCHRAFFUR
 62
     7
100
AcDbVertex
100
AcDb2dVertex
 10
143.708369
 20
64.38539
 30
0.0
  0
VERTEX
  5
15C
100
AcDbEntity
  8
SCHRAFFUR
 62
     7
100
AcDbVertex
100
AcDb2dVertex
 10
143.708369
 20
60.032167
 30
0.0
  0
VERTEX
  5
15D
100
AcDbEntity
  8
SCHRAFFUR
 62
     7
100
AcDbVertex
100
AcDb2dVertex
 10
146.208474
 20
60.032167
 30
0.0
  0
SEQEND
  5
15E
100
AcDbEntity
  8
SCHRAFFUR
 62
     7
  0
POLYLINE
  5
153
100
AcDbEntity
  8
SCHRAFFUR
 62
     7
100
AcDb2dPolyline
 66
     1
 10
0.0
 20
0.0
 30
0.0
 70
     1
  0
VERTEX
  5
154
100
AcDbEntity
  8
SCHRAFFUR
 62
     7
100
AcDbVertex
100
AcDb2dVertex
 10
146.208474
 20
60.032167
 30
0.0
  0
VERTEX
  5
155
100
AcDbEntity
  8
SCHRAFFUR
 62
     7
100
AcDbVertex
100
AcDb2dVertex
 10
143.708369
 20
60.032167
 30
0.0
  0
VERTEX
  5
156
100
AcDbEntity
  8
SCHRAFFUR
 62
     7
100
AcDbVertex
100
AcDb2dVertex
 10
143.708369
 20
55.679289
 30
0.0
  0
VERTEX
  5
157
100
AcDbEntity
  8
SCHRAFFUR
 62
     7
100
AcDbVertex
100
AcDb2dVertex
 10
146.208474
 20
55.679289
 30
0.0
  0
SEQEND
  5
158
100
AcDbEntity
  8
SCHRAFFUR
 62
     7
  0
POLYLINE
  5
14D
100
AcDbEntity
  8
SCHRAFFUR
 62
     7
100
AcDb2dPolyline
 66
     1
 10
0.0
 20
0.0
 30
0.0
 70
     1
  0
VERTEX
  5
14E
100
AcDbEntity
  8
SCHRAFFUR
 62
     7
100
AcDbVertex
100
AcDb2dVertex
 10
146.208474
 20
55.679289
 30
0.0
  0
VERTEX
  5
14F
100
AcDbEntity
  8
SCHRAFFUR
 62
     7
100
AcDbVertex
100
AcDb2dVertex
 10
143.708369
 20
55.679289
 30
0.0
  0
VERTEX
  5
150
100
AcDbEntity
  8
SCHRAFFUR
 62
     7
100
AcDbVertex
100
AcDb2dVertex
 10
143.708369
 20
51.326411
 30
0.0
  0
VERTEX
  5
151
100
AcDbEntity
  8
SCHRAFFUR
 62
     7
100
AcDbVertex
100
AcDb2dVertex
 10
146.208474
 20
51.326411
 30
0.0
  0
SEQEND
  5
152
100
AcDbEntity
  8
SCHRAFFUR
 62
     7
  0
LINE
  5
14C
100
AcDbEntity
  8
SCHRAFFUR
 62
     7
100
AcDbLine
 10
204.052661
 20
132.238957
 30
0.0
 11
206.208257
 21
130.083188
 31
0.0
  0
LINE
  5
14B
100
AcDbEntity
  8
SCHRAFFUR
 62
     7
100
AcDbLine
 10
201.224238
 20
132.238957
 30
0.0
 11
204.72411
 21
128.738912
 31
0.0
  0
LINE
  5
14A
100
AcDbEntity
  8
SCHRAFFUR
 62
     7
100
AcDbLine
 10
198.395814
 20
132.238957
 30
0.0
 11
201.895687
 21
128.738912
 31
0.0
  0
LINE
  5
149
100
AcDbEntity
  8
SCHRAFFUR
 62
     7
100
AcDbLine
 10
195.567391
 20
132.238957
 30
0.0
 11
199.067263
 21
128.738912
 31
0.0
  0
LINE
  5
148
100
AcDbEntity
  8
SCHRAFFUR
 62
     7
100
AcDbLine
 10
192.738968
 20
132.238957
 30
0.0
 11
196.23884
 21
128.738912
 31
0.0
  0
LINE
  5
147
100
AcDbEntity
  8
SCHRAFFUR
 62
     7
100
AcDbLine
 10
189.910544
 20
132.238957
 30
0.0
 11
193.410417
 21
128.738912
 31
0.0
  0
LINE
  5
146
100
AcDbEntity
  8
SCHRAFFUR
 62
     7
100
AcDbLine
 10
187.082121
 20
132.238957
 30
0.0
 11
190.581993
 21
128.738912
 31
0.0
  0
LINE
  5
145
100
AcDbEntity
  8
SCHRAFFUR
 62
     7
100
AcDbLine
 10
184.253697
 20
132.238957
 30
0.0
 11
187.75357
 21
128.738912
 31
0.0
  0
LINE
  5
144
100
AcDbEntity
  8
SCHRAFFUR
 62
     7
100
AcDbLine
 10
181.425274
 20
132.238957
 30
0.0
 11
184.925146
 21
128.738912
 31
0.0
  0
LINE
  5
143
100
AcDbEntity
  8
SCHRAFFUR
 62
     7
100
AcDbLine
 10
178.596851
 20
132.238957
 30
0.0
 11
182.096723
 21
128.738912
 31
0.0
  0
LINE
  5
142
100
AcDbEntity
  8
SCHRAFFUR
 62
     7
100
AcDbLine
 10
175.768427
 20
132.238957
 30
0.0
 11
179.2683
 21
128.738912
 31
0.0
  0
LINE
  5
141
100
AcDbEntity
  8
SCHRAFFUR
 62
     7
100
AcDbLine
 10
172.940004
 20
132.238957
 30
0.0
 11
176.439876
 21
128.738912
 31
0.0
  0
LINE
  5
140
100
AcDbEntity
  8
SCHRAFFUR
 62
     7
100
AcDbLine
 10
170.11158
 20
132.238957
 30
0.0
 11
173.611453
 21
128.738912
 31
0.0
  0
LINE
  5
13F
100
AcDbEntity
  8
SCHRAFFUR
 62
     7
100
AcDbLine
 10
167.283157
 20
132.238957
 30
0.0
 11
170.78303
 21
128.738912
 31
0.0
  0
LINE
  5
13E
100
AcDbEntity
  8
SCHRAFFUR
 62
     7
100
AcDbLine
 10
164.454734
 20
132.238957
 30
0.0
 11
167.954606
 21
128.738912
 31
0.0
  0
LINE
  5
13D
100
AcDbEntity
  8
SCHRAFFUR
 62
     7
100
AcDbLine
 10
161.62631
 20
132.238957
 30
0.0
 11
165.126183
 21
128.738912
 31
0.0
  0
LINE
  5
13C
100
AcDbEntity
  8
SCHRAFFUR
 62
     7
100
AcDbLine
 10
158.797887
 20
132.238957
 30
0.0
 11
162.297759
 21
128.738912
 31
0.0
  0
LINE
  5
13B
100
AcDbEntity
  8
SCHRAFFUR
 62
     7
100
AcDbLine
 10
155.969463
 20
132.238957
 30
0.0
 11
159.469336
 21
128.738912
 31
0.0
  0
LINE
  5
13A
100
AcDbEntity
  8
SCHRAFFUR
 62
     7
100
AcDbLine
 10
204.062652
 20
86.239008
 30
0.0
 11
206.208257
 21
84.093058
 31
0.0
  0
LINE
  5
139
100
AcDbEntity
  8
SCHRAFFUR
 62
     7
100
AcDbLine
 10
201.234229
 20
86.239008
 30
0.0
 11
204.984215
 21
82.489022
 31
0.0
  0
LINE
  5
138
100
AcDbEntity
  8
SCHRAFFUR
 62
     7
100
AcDbLine
 10
198.405805
 20
86.239008
 30
0.0
 11
202.155792
 21
82.489022
 31
0.0
  0
LINE
  5
137
100
AcDbEntity
  8
SCHRAFFUR
 62
     7
100
AcDbLine
 10
195.577382
 20
86.239008
 30
0.0
 11
199.327368
 21
82.489022
 31
0.0
  0
LINE
  5
136
100
AcDbEntity
  8
SCHRAFFUR
 62
     7
100
AcDbLine
 10
192.748958
 20
86.239008
 30
0.0
 11
196.498945
 21
82.489022
 31
0.0
  0
LINE
  5
135
100
AcDbEntity
  8
SCHRAFFUR
 62
     7
100
AcDbLine
 10
189.920535
 20
86.239008
 30
0.0
 11
193.670521
 21
82.489022
 31
0.0
  0
LINE
  5
134
100
AcDbEntity
  8
SCHRAFFUR
 62
     7
100
AcDbLine
 10
187.092112
 20
86.239008
 30
0.0
 11
190.842098
 21
82.489022
 31
0.0
  0
LINE
  5
133
100
AcDbEntity
  8
SCHRAFFUR
 62
     7
100
AcDbLine
 10
184.263688
 20
86.239008
 30
0.0
 11
188.013675
 21
82.489022
 31
0.0
  0
LINE
  5
132
100
AcDbEntity
  8
SCHRAFFUR
 62
     7
100
AcDbLine
 10
181.435265
 20
86.239008
 30
0.0
 11
185.185251
 21
82.489022
 31
0.0
  0
LINE
  5
131
100
AcDbEntity
  8
SCHRAFFUR
 62
     7
100
AcDbLine
 10
178.606841
 20
86.239008
 30
0.0
 11
182.356828
 21
82.489022
 31
0.0
  0
LINE
  5
130
100
AcDbEntity
  8
SCHRAFFUR
 62
     7
100
AcDbLine
 10
175.778418
 20
86.239008
 30
0.0
 11
179.528404
 21
82.489022
 31
0.0
  0
LINE
  5
12F
100
AcDbEntity
  8
SCHRAFFUR
 62
     7
100
AcDbLine
 10
172.949995
 20
86.239008
 30
0.0
 11
176.699981
 21
82.489022
 31
0.0
  0
LINE
  5
12E
100
AcDbEntity
  8
SCHRAFFUR
 62
     7
100
AcDbLine
 10
170.121571
 20
86.239008
 30
0.0
 11
173.871558
 21
82.489022
 31
0.0
  0
LINE
  5
12D
100
AcDbEntity
  8
SCHRAFFUR
 62
     7
100
AcDbLine
 10
167.293148
 20
86.239008
 30
0.0
 11
171.043134
 21
82.489022
 31
0.0
  0
LINE
  5
12C
100
AcDbEntity
  8
SCHRAFFUR
 62
     7
100
AcDbLine
 10
164.464724
 20
86.239008
 30
0.0
 11
168.214711
 21
82.489022
 31
0.0
  0
LINE
  5
12B
100
AcDbEntity
  8
SCHRAFFUR
 62
     7
100
AcDbLine
 10
161.636301
 20
86.239008
 30
0.0
 11
165.386287
 21
82.489022
 31
0.0
  0
LINE
  5
12A
100
AcDbEntity
  8
SCHRAFFUR
 62
     7
100
AcDbLine
 10
158.807878
 20
86.239008
 30
0.0
 11
162.557864
 21
82.489022
 31
0.0
  0
LINE
  5
129
100
AcDbEntity
  8
SCHRAFFUR
 62
     7
100
AcDbLine
 10
155.979454
 20
86.239008
 30
0.0
 11
159.729441
 21
82.489022
 31
0.0
  0
LINE
  5
128
100
AcDbEntity
  8
SCHRAFFUR
 62
     7
100
AcDbLine
 10
149.958461
 20
129.764689
 30
0.0
 11
150.984066
 21
128.738912
 31
0.0
  0
LINE
  5
127
100
AcDbEntity
  8
SCHRAFFUR
 62
     7
100
AcDbLine
 10
150.312617
 20
132.238957
 30
0.0
 11
153.812489
 21
128.738912
 31
0.0
  0
LINE
  5
126
100
AcDbEntity
  8
SCHRAFFUR
 62
     7
100
AcDbLine
 10
153.14104
 20
132.238957
 30
0.0
 11
156.640913
 21
128.738912
 31
0.0
  0
LINE
  5
125
100
AcDbEntity
  8
SCHRAFFUR
 62
     7
100
AcDbLine
 10
149.958461
 20
83.764741
 30
0.0
 11
151.23418
 21
82.489022
 31
0.0
  0
LINE
  5
124
100
AcDbEntity
  8
SCHRAFFUR
 62
     7
100
AcDbLine
 10
153.14104
 20
86.239008
 30
0.0
 11
156.891026
 21
82.489022
 31
0.0
  0
LINE
  5
123
100
AcDbEntity
  8
SCHRAFFUR
 62
     7
100
AcDbLine
 10
150.312617
 20
86.239008
 30
0.0
 11
154.062603
 21
82.489022
 31
0.0
  0
LINE
  5
122
100
AcDbEntity
  8
SCHRAFFUR
 62
     7
100
AcDbLine
 10
146.208474
 20
163.097021
 30
0.0
 11
149.100288
 21
165.989007
 31
0.0
  0
LINE
  5
121
100
AcDbEntity
  8
SCHRAFFUR
 62
     7
100
AcDbLine
 10
148.450715
 20
154.113935
 30
0.0
 11
160.325787
 21
165.989007
 31
0.0
  0
LINE
  5
120
100
AcDbEntity
  8
SCHRAFFUR
 62
     7
100
AcDbLine
 10
149.958461
 20
144.396354
 30
0.0
 11
171.550941
 21
165.989007
 31
0.0
  0
LINE
  5
11F
100
AcDbEntity
  8
SCHRAFFUR
 62
     7
100
AcDbLine
 10
149.958461
 20
133.171027
 30
0.0
 11
182.77644
 21
165.989007
 31
0.0
  0
LINE
  5
11E
100
AcDbEntity
  8
SCHRAFFUR
 62
     7
100
AcDbLine
 10
160.251717
 20
132.238957
 30
0.0
 11
194.001595
 21
165.989007
 31
0.0
  0
LINE
  5
11D
100
AcDbEntity
  8
SCHRAFFUR
 62
     7
100
AcDbLine
 10
171.476872
 20
132.238957
 30
0.0
 11
205.22675
 21
165.989007
 31
0.0
  0
LINE
  5
11C
100
AcDbEntity
  8
SCHRAFFUR
 62
     7
100
AcDbLine
 10
182.702371
 20
132.238957
 30
0.0
 11
206.208257
 21
155.745188
 31
0.0
  0
LINE
  5
11B
100
AcDbEntity
  8
SCHRAFFUR
 62
     7
100
AcDbLine
 10
193.927525
 20
132.238957
 30
0.0
 11
206.208257
 21
144.519861
 31
0.0
  0
LINE
  5
11A
100
AcDbEntity
  8
SCHRAFFUR
 62
     7
100
AcDbLine
 10
205.153025
 20
132.238957
 30
0.0
 11
206.208257
 21
133.294534
 31
0.0
  0
LINE
  5
119
100
AcDbEntity
  8
SCHRAFFUR
 62
     7
100
AcDbLine
 10
149.958461
 20
73.569325
 30
0.0
 11
158.878158
 21
82.489022
 31
0.0
  0
LINE
  5
118
100
AcDbEntity
  8
SCHRAFFUR
 62
     7
100
AcDbLine
 10
146.208474
 20
58.59384
 30
0.0
 11
148.228506
 21
60.614044
 31
0.0
  0
LINE
  5
117
100
AcDbEntity
  8
SCHRAFFUR
 62
     7
100
AcDbLine
 10
149.958461
 20
62.343826
 30
0.0
 11
170.103657
 21
82.489022
 31
0.0
  0
LINE
  5
116
100
AcDbEntity
  8
SCHRAFFUR
 62
     7
100
AcDbLine
 10
147.634916
 20
48.794954
 30
0.0
 11
181.328811
 21
82.489022
 31
0.0
  0
LINE
  5
115
100
AcDbEntity
  8
SCHRAFFUR
 62
     7
100
AcDbLine
 10
158.860243
 20
48.794954
 30
0.0
 11
192.55431
 21
82.489022
 31
0.0
  0
LINE
  5
114
100
AcDbEntity
  8
SCHRAFFUR
 62
     7
100
AcDbLine
 10
170.085398
 20
48.794954
 30
0.0
 11
203.779465
 21
82.489022
 31
0.0
  0
LINE
  5
113
100
AcDbEntity
  8
SCHRAFFUR
 62
     7
100
AcDbLine
 10
181.310897
 20
48.794954
 30
0.0
 11
206.208257
 21
73.69266
 31
0.0
  0
LINE
  5
112
100
AcDbEntity
  8
SCHRAFFUR
 62
     7
100
AcDbLine
 10
192.536051
 20
48.794954
 30
0.0
 11
206.208257
 21
62.46716
 31
0.0
  0
LINE
  5
111
100
AcDbEntity
  8
SCHRAFFUR
 62
     7
100
AcDbLine
 10
203.761551
 20
48.794954
 30
0.0
 11
206.208257
 21
51.242006
 31
0.0
  0
LINE
  5
110
100
AcDbEntity
  8
SCHRAFFUR
 62
     7
100
AcDbLine
 10
146.208474
 20
153.109173
 30
0.0
 11
147.213236
 21
154.113935
 31
0.0
  0
LINE
  5
10F
100
AcDbEntity
  8
SCHRAFFUR
 62
     7
100
AcDbLine
 10
146.208474
 20
149.573644
 30
0.0
 11
149.958461
 21
153.32363
 31
0.0
  0
LINE
  5
10E
100
AcDbEntity
  8
SCHRAFFUR
 62
     7
100
AcDbLine
 10
146.208474
 20
146.038114
 30
0.0
 11
149.958461
 21
149.788101
 31
0.0
  0
LINE
  5
10D
100
AcDbEntity
  8
SCHRAFFUR
 62
     7
100
AcDbLine
 10
146.208474
 20
142.502585
 30
0.0
 11
149.958461
 21
146.252572
 31
0.0
  0
LINE
  5
10C
100
AcDbEntity
  8
SCHRAFFUR
 62
     7
100
AcDbLine
 10
146.208474
 20
138.967056
 30
0.0
 11
149.958461
 21
142.717042
 31
0.0
  0
LINE
  5
10B
100
AcDbEntity
  8
SCHRAFFUR
 62
     7
100
AcDbLine
 10
146.208474
 20
135.431527
 30
0.0
 11
149.958461
 21
139.181513
 31
0.0
  0
LINE
  5
10A
100
AcDbEntity
  8
SCHRAFFUR
 62
     7
100
AcDbLine
 10
146.208474
 20
131.895997
 30
0.0
 11
149.958461
 21
135.645984
 31
0.0
  0
LINE
  5
109
100
AcDbEntity
  8
SCHRAFFUR
 62
     7
100
AcDbLine
 10
146.586918
 20
128.738912
 30
0.0
 11
149.958461
 21
132.110455
 31
0.0
  0
LINE
  5
108
100
AcDbEntity
  8
SCHRAFFUR
 62
     7
100
AcDbLine
 10
146.208474
 20
84.845123
 30
0.0
 11
147.602188
 21
86.239008
 31
0.0
  0
LINE
  5
107
100
AcDbEntity
  8
SCHRAFFUR
 62
     7
100
AcDbLine
 10
146.208474
 20
81.309766
 30
0.0
 11
149.958461
 21
85.059752
 31
0.0
  0
LINE
  5
106
100
AcDbEntity
  8
SCHRAFFUR
 62
     7
100
AcDbLine
 10
146.208474
 20
77.774064
 30
0.0
 11
149.958461
 21
81.524051
 31
0.0
  0
LINE
  5
105
100
AcDbEntity
  8
SCHRAFFUR
 62
     7
100
AcDbLine
 10
146.208474
 20
74.238707
 30
0.0
 11
149.958461
 21
77.988694
 31
0.0
  0
LINE
  5
104
100
AcDbEntity
  8
SCHRAFFUR
 62
     7
100
AcDbLine
 10
146.208474
 20
70.703006
 30
0.0
 11
149.958461
 21
74.452992
 31
0.0
  0
LINE
  5
103
100
AcDbEntity
  8
SCHRAFFUR
 62
     7
100
AcDbLine
 10
146.208474
 20
67.167649
 30
0.0
 11
149.958461
 21
70.917635
 31
0.0
  0
LINE
  5
102
100
AcDbEntity
  8
SCHRAFFUR
 62
     7
100
AcDbLine
 10
146.208474
 20
63.631947
 30
0.0
 11
149.958461
 21
67.381934
 31
0.0
  0
LINE
  5
101
100
AcDbEntity
  8
SCHRAFFUR
 62
     7
100
AcDbLine
 10
146.725928
 20
60.614044
 30
0.0
 11
149.958461
 21
63.846577
 31
0.0
  0
LINE
  5
100
100
AcDbEntity
  8
SCHRAFFUR
 62
     7
100
AcDbLine
 10
213.535631
 20
110.525209
 30
0.0
 11
214.35832
 21
111.347725
 31
0.0
  0
LINE
  5
FF
100
AcDbEntity
  8
SCHRAFFUR
 62
     7
100
AcDbLine
 10
211.089269
 20
110.840952
 30
0.0
 11
211.659776
 21
111.411287
 31
0.0
  0
LINE
  5
FE
100
AcDbEntity
  8
SCHRAFFUR
 62
     7
100
AcDbLine
 10
210.997285
 20
111.292776
 30
0.0
 11
211.623258
 21
111.91875
 31
0.0
  0
LINE
  5
FD
100
AcDbEntity
  8
SCHRAFFUR
 62
     7
100
AcDbLine
 10
213.581795
 20
111.123794
 30
0.0
 11
214.451337
 21
111.993336
 31
0.0
  0
LINE
  5
FC
100
AcDbEntity
  8
SCHRAFFUR
 62
     7
100
AcDbLine
 10
211.184698
 20
110.384132
 30
0.0
 11
211.701118
 21
110.900552
 31
0.0
  0
LINE
  5
FB
100
AcDbEntity
  8
SCHRAFFUR
 62
     7
100
AcDbLine
 10
212.492112
 20
105.062321
 30
0.0
 11
212.529319
 21
105.099528
 31
0.0
  0
LINE
  5
FA
100
AcDbEntity
  8
SCHRAFFUR
 62
     7
100
AcDbLine
 10
212.707775
 20
104.725563
 30
0.0
 11
212.758762
 21
104.776378
 31
0.0
  0
LINE
  5
F9
100
AcDbEntity
  8
SCHRAFFUR
 62
     7
100
AcDbLine
 10
212.613723
 20
104.631512
 30
0.0
 11
212.62337
 21
104.640986
 31
0.0
  0
LINE
  5
F8
100
AcDbEntity
  8
SCHRAFFUR
 62
     7
100
AcDbLine
 10
213.418842
 20
109.303578
 30
0.0
 11
214.130599
 21
110.015335
 31
0.0
  0
LINE
  5
F7
100
AcDbEntity
  8
SCHRAFFUR
 62
     7
100
AcDbLine
 10
213.481543
 20
109.918528
 30
0.0
 11
214.251522
 21
110.688679
 31
0.0
  0
LINE
  5
F6
100
AcDbEntity
  8
SCHRAFFUR
 62
     7
100
AcDbLine
 10
211.694227
 20
108.131384
 30
0.0
 11
211.975692
 21
108.412849
 31
0.0
  0
LINE
  5
F5
100
AcDbEntity
  8
SCHRAFFUR
 62
     7
100
AcDbLine
 10
213.266914
 20
108.046807
 30
0.0
 11
213.841211
 21
108.620932
 31
0.0
  0
LINE
  5
F4
100
AcDbEntity
  8
SCHRAFFUR
 62
     7
100
AcDbLine
 10
212.372222
 20
105.494853
 30
0.0
 11
212.439057
 21
105.561688
 31
0.0
  0
LINE
  5
F3
100
AcDbEntity
  8
SCHRAFFUR
 62
     7
100
AcDbLine
 10
212.2544
 20
105.929451
 30
0.0
 11
212.352585
 21
106.027464
 31
0.0
  0
LINE
  5
F2
100
AcDbEntity
  8
SCHRAFFUR
 62
     7
100
AcDbLine
 10
212.024612
 20
106.804333
 30
0.0
 11
212.190321
 21
106.970043
 31
0.0
  0
LINE
  5
F1
100
AcDbEntity
  8
SCHRAFFUR
 62
     7
100
AcDbLine
 10
211.912302
 20
107.244789
 30
0.0
 11
212.114874
 21
107.447016
 31
0.0
  0
LINE
  5
F0
100
AcDbEntity
  8
SCHRAFFUR
 62
     7
100
AcDbLine
 10
211.802403
 20
107.687139
 30
0.0
 11
212.043216
 21
107.927951
 31
0.0
  0
LINE
  5
EF
100
AcDbEntity
  8
SCHRAFFUR
 62
     7
100
AcDbLine
 10
212.138645
 20
106.365945
 30
0.0
 11
212.269558
 21
106.496859
 31
0.0
  0
LINE
  5
EE
100
AcDbEntity
  8
SCHRAFFUR
 62
     7
100
AcDbLine
 10
212.842478
 20
105.412687
 30
0.0
 11
213.025412
 21
105.595449
 31
0.0
  0
LINE
  5
ED
100
AcDbEntity
  8
SCHRAFFUR
 62
     7
100
AcDbLine
 10
213.176652
 20
107.404125
 30
0.0
 11
213.669645
 21
107.896946
 31
0.0
  0
LINE
  5
EC
100
AcDbEntity
  8
SCHRAFFUR
 62
     7
100
AcDbLine
 10
213.0764
 20
106.751279
 30
0.0
 11
213.478098
 21
107.152977
 31
0.0
  0
LINE
  5
EB
100
AcDbEntity
  8
SCHRAFFUR
 62
     7
100
AcDbLine
 10
212.965123
 20
106.087754
 30
0.0
 11
213.264157
 21
106.386616
 31
0.0
  0
LINE
  5
EA
100
AcDbEntity
  8
SCHRAFFUR
 62
     7
100
AcDbLine
 10
211.588463
 20
108.577869
 30
0.0
 11
211.912302
 21
108.90188
 31
0.0
  0
LINE
  5
E9
100
AcDbEntity
  8
SCHRAFFUR
 62
     7
100
AcDbLine
 10
211.484421
 20
109.026248
 30
0.0
 11
211.853046
 21
109.395045
 31
0.0
  0
LINE
  5
E8
100
AcDbEntity
  8
SCHRAFFUR
 62
     7
100
AcDbLine
 10
211.382446
 20
109.476866
 30
0.0
 11
211.797925
 21
109.892517
 31
0.0
  0
LINE
  5
E7
100
AcDbEntity
  8
SCHRAFFUR
 62
     7
100
AcDbLine
 10
211.282539
 20
109.92938
 30
0.0
 11
211.747282
 21
110.394295
 31
0.0
  0
LINE
  5
E6
100
AcDbEntity
  8
SCHRAFFUR
 62
     7
100
AcDbLine
 10
213.347529
 20
108.679843
 30
0.0
 11
213.994173
 21
109.326488
 31
0.0
  0
LINE
  5
E5
100
AcDbEntity
  8
SCHRAFFUR
 62
     7
100
AcDbLine
 10
210.449514
 20
115.173159
 30
0.0
 11
211.512326
 21
116.235627
 31
0.0
  0
LINE
  5
E4
100
AcDbEntity
  8
SCHRAFFUR
 62
     7
100
AcDbLine
 10
210.493612
 20
114.664836
 30
0.0
 11
211.50647
 21
115.677694
 31
0.0
  0
LINE
  5
E3
100
AcDbEntity
  8
SCHRAFFUR
 62
     7
100
AcDbLine
 10
210.545288
 20
114.163919
 30
0.0
 11
211.506814
 21
115.125617
 31
0.0
  0
LINE
  5
E2
100
AcDbEntity
  8
SCHRAFFUR
 62
     7
100
AcDbLine
 10
210.603855
 20
113.670064
 30
0.0
 11
211.513015
 21
114.579053
 31
0.0
  0
LINE
  5
E1
100
AcDbEntity
  8
SCHRAFFUR
 62
     7
100
AcDbLine
 10
210.669312
 20
113.1831
 30
0.0
 11
211.524384
 21
114.038173
 31
0.0
  0
LINE
  5
E0
100
AcDbEntity
  8
SCHRAFFUR
 62
     7
100
AcDbLine
 10
210.741314
 20
112.702854
 30
0.0
 11
211.541265
 21
113.502633
 31
0.0
  0
LINE
  5
DF
100
AcDbEntity
  8
SCHRAFFUR
 62
     7
100
AcDbLine
 10
210.819862
 20
112.228981
 30
0.0
 11
211.563314
 21
112.972432
 31
0.0
  0
LINE
  5
DE
100
AcDbEntity
  8
SCHRAFFUR
 62
     7
100
AcDbLine
 10
210.904612
 20
111.761309
 30
0.0
 11
211.59053
 21
112.447055
 31
0.0
  0
LINE
  5
DD
100
AcDbEntity
  8
SCHRAFFUR
 62
     7
100
AcDbLine
 10
210.43849
 20
119.581504
 30
0.0
 11
212.084212
 21
121.227226
 31
0.0
  0
LINE
  5
DC
100
AcDbEntity
  8
SCHRAFFUR
 62
     7
100
AcDbLine
 10
210.378545
 20
118.969138
 30
0.0
 11
212.688482
 21
121.278902
 31
0.0
  0
LINE
  5
DB
100
AcDbEntity
  8
SCHRAFFUR
 62
     7
100
AcDbLine
 10
210.360286
 20
118.398286
 30
0.0
 11
213.162527
 21
121.200526
 31
0.0
  0
LINE
  5
DA
100
AcDbEntity
  8
SCHRAFFUR
 62
     7
100
AcDbLine
 10
210.352363
 20
117.837941
 30
0.0
 11
211.633938
 21
119.119689
 31
0.0
  0
LINE
  5
D9
100
AcDbEntity
  8
SCHRAFFUR
 62
     7
100
AcDbLine
 10
210.354085
 20
117.287242
 30
0.0
 11
211.59742
 21
118.530577
 31
0.0
  0
LINE
  5
D8
100
AcDbEntity
  8
SCHRAFFUR
 62
     7
100
AcDbLine
 10
210.36511
 20
116.745846
 30
0.0
 11
211.56607
 21
117.946978
 31
0.0
  0
LINE
  5
D7
100
AcDbEntity
  8
SCHRAFFUR
 62
     7
100
AcDbLine
 10
210.385091
 20
116.213406
 30
0.0
 11
211.54161
 21
117.370097
 31
0.0
  0
LINE
  5
D6
100
AcDbEntity
  8
SCHRAFFUR
 62
     7
100
AcDbLine
 10
210.413341
 20
115.689235
 30
0.0
 11
211.523695
 21
116.799761
 31
0.0
  0
LINE
  5
D5
100
AcDbEntity
  8
SCHRAFFUR
 62
     7
100
AcDbLine
 10
213.638984
 20
117.257442
 30
0.0
 11
214.787234
 21
118.406037
 31
0.0
  0
LINE
  5
D4
100
AcDbEntity
  8
SCHRAFFUR
 62
     7
100
AcDbLine
 10
213.663789
 20
116.729826
 30
0.0
 11
214.799981
 21
117.866191
 31
0.0
  0
LINE
  5
D3
100
AcDbEntity
  8
SCHRAFFUR
 62
     7
100
AcDbLine
 10
213.704785
 20
115.113732
 30
0.0
 11
214.791713
 21
116.200487
 31
0.0
  0
LINE
  5
D2
100
AcDbEntity
  8
SCHRAFFUR
 62
     7
100
AcDbLine
 10
213.706852
 20
114.563378
 30
0.0
 11
214.77242
 21
115.628773
 31
0.0
  0
LINE
  5
D1
100
AcDbEntity
  8
SCHRAFFUR
 62
     7
100
AcDbLine
 10
213.702718
 20
114.006822
 30
0.0
 11
214.74417
 21
115.048102
 31
0.0
  0
LINE
  5
D0
100
AcDbEntity
  8
SCHRAFFUR
 62
     7
100
AcDbLine
 10
213.620036
 20
111.714628
 30
0.0
 11
214.531953
 21
112.626373
 31
0.0
  0
LINE
  5
CF
100
AcDbEntity
  8
SCHRAFFUR
 62
     7
100
AcDbLine
 10
213.651386
 20
112.298055
 30
0.0
 11
214.600854
 21
113.247868
 31
0.0
  0
LINE
  5
CE
100
AcDbEntity
  8
SCHRAFFUR
 62
     7
100
AcDbLine
 10
213.675157
 20
112.874419
 30
0.0
 11
214.659077
 21
113.858167
 31
0.0
  0
LINE
  5
CD
100
AcDbEntity
  8
SCHRAFFUR
 62
     7
100
AcDbLine
 10
213.692383
 20
113.443894
 30
0.0
 11
214.706274
 21
114.45813
 31
0.0
  0
LINE
  5
CC
100
AcDbEntity
  8
SCHRAFFUR
 62
     7
100
AcDbLine
 10
213.683081
 20
116.19687
 30
0.0
 11
214.805149
 21
117.318937
 31
0.0
  0
LINE
  5
CB
100
AcDbEntity
  8
SCHRAFFUR
 62
     7
100
AcDbLine
 10
213.696861
 20
115.658229
 30
0.0
 11
214.802393
 21
116.76376
 31
0.0
  0
LINE
  5
CA
100
AcDbEntity
  8
SCHRAFFUR
 62
     7
100
AcDbLine
 10
213.301364
 20
119.682273
 30
0.0
 11
214.187443
 21
120.568351
 31
0.0
  0
LINE
  5
C9
100
AcDbEntity
  8
SCHRAFFUR
 62
     7
100
AcDbLine
 10
213.483266
 20
119.31158
 30
0.0
 11
214.425844
 21
120.254331
 31
0.0
  0
LINE
  5
C8
100
AcDbEntity
  8
SCHRAFFUR
 62
     7
100
AcDbLine
 10
213.533219
 20
118.809285
 30
0.0
 11
214.610501
 21
119.886222
 31
0.0
  0
LINE
  5
C7
100
AcDbEntity
  8
SCHRAFFUR
 62
     7
100
AcDbLine
 10
213.573527
 20
118.297
 30
0.0
 11
214.729012
 21
119.452657
 31
0.0
  0
LINE
  5
C6
100
AcDbEntity
  8
SCHRAFFUR
 62
     7
100
AcDbLine
 10
213.608667
 20
117.779891
 30
0.0
 11
214.767597
 21
118.938649
 31
0.0
  0
LINE
  5
C5
100
AcDbEntity
  8
SCHRAFFUR
 62
     7
100
AcDbLine
 10
212.5462
 20
120.031778
 30
0.0
 11
213.560091
 21
121.045669
 31
0.0
  0
LINE
  5
C4
100
AcDbEntity
  8
SCHRAFFUR
 62
     7
100
AcDbLine
 10
212.996818
 20
119.929975
 30
0.0
 11
213.899433
 21
120.83259
 31
0.0
  0
LINE
  5
C3
100
AcDbEntity
  8
SCHRAFFUR
 62
     7
100
AcDbLine
 10
139.095041
 20
99.224607
 30
0.0
 11
137.984515
 21
98.114252
 31
0.0
  0
LINE
  5
C2
100
AcDbEntity
  8
SCHRAFFUR
 62
     7
100
AcDbLine
 10
139.058695
 20
99.740682
 30
0.0
 11
137.996056
 21
98.678215
 31
0.0
  0
LINE
  5
C1
100
AcDbEntity
  8
SCHRAFFUR
 62
     7
100
AcDbLine
 10
135.811521
 20
99.255613
 30
0.0
 11
134.705817
 21
98.150081
 31
0.0
  0
LINE
  5
C0
100
AcDbEntity
  8
SCHRAFFUR
 62
     7
100
AcDbLine
 10
135.803425
 20
99.800282
 30
0.0
 11
134.716669
 21
98.713354
 31
0.0
  0
LINE
  5
BF
100
AcDbEntity
  8
SCHRAFFUR
 62
     7
100
AcDbLine
 10
139.06972
 20
95.332338
 30
0.0
 11
137.423998
 21
93.686616
 31
0.0
  0
LINE
  5
BE
100
AcDbEntity
  8
SCHRAFFUR
 62
     7
100
AcDbLine
 10
139.129664
 20
95.944876
 30
0.0
 11
136.8199
 21
93.634939
 31
0.0
  0
LINE
  5
BD
100
AcDbEntity
  8
SCHRAFFUR
 62
     7
100
AcDbLine
 10
139.1431
 20
98.167996
 30
0.0
 11
137.94214
 21
96.967036
 31
0.0
  0
LINE
  5
BC
100
AcDbEntity
  8
SCHRAFFUR
 62
     7
100
AcDbLine
 10
139.123291
 20
98.700608
 30
0.0
 11
137.9666
 21
97.543745
 31
0.0
  0
LINE
  5
BB
100
AcDbEntity
  8
SCHRAFFUR
 62
     7
100
AcDbLine
 10
139.154297
 20
97.626427
 30
0.0
 11
137.910962
 21
96.383436
 31
0.0
  0
LINE
  5
BA
100
AcDbEntity
  8
SCHRAFFUR
 62
     7
100
AcDbLine
 10
139.148096
 20
96.515384
 30
0.0
 11
136.345855
 21
93.713143
 31
0.0
  0
LINE
  5
B9
100
AcDbEntity
  8
SCHRAFFUR
 62
     7
100
AcDbLine
 10
139.156019
 20
97.075901
 30
0.0
 11
137.874272
 21
95.794325
 31
0.0
  0
LINE
  5
B8
100
AcDbEntity
  8
SCHRAFFUR
 62
     7
100
AcDbLine
 10
136.206845
 20
95.231396
 30
0.0
 11
135.320767
 21
94.345318
 31
0.0
  0
LINE
  5
B7
100
AcDbEntity
  8
SCHRAFFUR
 62
     7
100
AcDbLine
 10
136.511564
 20
94.984039
 30
0.0
 11
135.608949
 21
94.081424
 31
0.0
  0
LINE
  5
B6
100
AcDbEntity
  8
SCHRAFFUR
 62
     7
100
AcDbLine
 10
135.899543
 20
97.134123
 30
0.0
 11
134.740785
 21
95.975193
 31
0.0
  0
LINE
  5
B5
100
AcDbEntity
  8
SCHRAFFUR
 62
     7
100
AcDbLine
 10
136.025117
 20
95.602433
 30
0.0
 11
135.082366
 21
94.659511
 31
0.0
  0
LINE
  5
B4
100
AcDbEntity
  8
SCHRAFFUR
 62
     7
100
AcDbLine
 10
135.844594
 20
98.183843
 30
0.0
 11
134.708401
 21
97.047651
 31
0.0
  0
LINE
  5
B3
100
AcDbEntity
  8
SCHRAFFUR
 62
     7
100
AcDbLine
 10
135.825301
 20
98.717144
 30
0.0
 11
134.703234
 21
97.595076
 31
0.0
  0
LINE
  5
B2
100
AcDbEntity
  8
SCHRAFFUR
 62
     7
100
AcDbLine
 10
135.974991
 20
96.104728
 30
0.0
 11
134.897881
 21
95.027447
 31
0.0
  0
LINE
  5
B1
100
AcDbEntity
  8
SCHRAFFUR
 62
     7
100
AcDbLine
 10
135.934683
 20
96.616669
 30
0.0
 11
134.779198
 21
95.461184
 31
0.0
  0
LINE
  5
B0
100
AcDbEntity
  8
SCHRAFFUR
 62
     7
100
AcDbLine
 10
135.869398
 20
97.656399
 30
0.0
 11
134.720976
 21
96.507804
 31
0.0
  0
LINE
  5
AF
100
AcDbEntity
  8
SCHRAFFUR
 62
     7
100
AcDbLine
 10
136.962183
 20
94.882064
 30
0.0
 11
135.948119
 21
93.868172
 31
0.0
  0
LINE
  5
AE
100
AcDbEntity
  8
SCHRAFFUR
 62
     7
100
AcDbLine
 10
138.963094
 20
100.750095
 30
0.0
 11
138.001396
 21
99.788224
 31
0.0
  0
LINE
  5
AD
100
AcDbEntity
  8
SCHRAFFUR
 62
     7
100
AcDbLine
 10
138.511098
 20
103.621238
 30
0.0
 11
137.885124
 21
102.995264
 31
0.0
  0
LINE
  5
AC
100
AcDbEntity
  8
SCHRAFFUR
 62
     7
100
AcDbLine
 10
138.766896
 20
102.21116
 30
0.0
 11
137.966945
 21
101.411209
 31
0.0
  0
LINE
  5
AB
100
AcDbEntity
  8
SCHRAFFUR
 62
     7
100
AcDbLine
 10
138.688348
 20
102.684861
 30
0.0
 11
137.944896
 21
101.941409
 31
0.0
  0
LINE
  5
AA
100
AcDbEntity
  8
SCHRAFFUR
 62
     7
100
AcDbLine
 10
138.603598
 20
103.152705
 30
0.0
 11
137.91768
 21
102.466786
 31
0.0
  0
LINE
  5
A9
100
AcDbEntity
  8
SCHRAFFUR
 62
     7
100
AcDbLine
 10
139.014598
 20
100.249178
 30
0.0
 11
138.00174
 21
99.23632
 31
0.0
  0
LINE
  5
A8
100
AcDbEntity
  8
SCHRAFFUR
 62
     7
100
AcDbLine
 10
138.419113
 20
104.07289
 30
0.0
 11
137.848606
 21
103.502726
 31
0.0
  0
LINE
  5
A7
100
AcDbEntity
  8
SCHRAFFUR
 62
     7
100
AcDbLine
 10
138.838898
 20
101.730914
 30
0.0
 11
137.983826
 21
100.875496
 31
0.0
  0
LINE
  5
A6
100
AcDbEntity
  8
SCHRAFFUR
 62
     7
100
AcDbLine
 10
138.904527
 20
101.243777
 30
0.0
 11
137.995367
 21
100.334616
 31
0.0
  0
LINE
  5
A5
100
AcDbEntity
  8
SCHRAFFUR
 62
     7
100
AcDbLine
 10
136.089368
 20
105.610263
 30
0.0
 11
135.377611
 21
104.898507
 31
0.0
  0
LINE
  5
A4
100
AcDbEntity
  8
SCHRAFFUR
 62
     7
100
AcDbLine
 10
138.125936
 20
105.437147
 30
0.0
 11
137.710285
 21
105.021497
 31
0.0
  0
LINE
  5
A3
100
AcDbEntity
  8
SCHRAFFUR
 62
     7
100
AcDbLine
 10
135.801358
 20
100.350464
 30
0.0
 11
134.735962
 21
99.28524
 31
0.0
  0
LINE
  5
A2
100
AcDbEntity
  8
SCHRAFFUR
 62
     7
100
AcDbLine
 10
135.805492
 20
100.907191
 30
0.0
 11
134.764212
 21
99.865739
 31
0.0
  0
LINE
  5
A1
100
AcDbEntity
  8
SCHRAFFUR
 62
     7
100
AcDbLine
 10
136.026839
 20
104.995314
 30
0.0
 11
135.256688
 21
104.225163
 31
0.0
  0
LINE
  5
A0
100
AcDbEntity
  8
SCHRAFFUR
 62
     7
100
AcDbLine
 10
135.972751
 20
104.388805
 30
0.0
 11
135.150062
 21
103.566116
 31
0.0
  0
LINE
  5
9F
100
AcDbEntity
  8
SCHRAFFUR
 62
     7
100
AcDbLine
 10
135.926587
 20
103.790047
 30
0.0
 11
135.056873
 21
102.920505
 31
0.0
  0
LINE
  5
9E
100
AcDbEntity
  8
SCHRAFFUR
 62
     7
100
AcDbLine
 10
135.888174
 20
103.199213
 30
0.0
 11
134.976257
 21
102.287297
 31
0.0
  0
LINE
  5
9D
100
AcDbEntity
  8
SCHRAFFUR
 62
     7
100
AcDbLine
 10
135.856996
 20
102.615959
 30
0.0
 11
134.907355
 21
101.666146
 31
0.0
  0
LINE
  5
9C
100
AcDbEntity
  8
SCHRAFFUR
 62
     7
100
AcDbLine
 10
135.833053
 20
102.039594
 30
0.0
 11
134.849306
 21
101.055675
 31
0.0
  0
LINE
  5
9B
100
AcDbEntity
  8
SCHRAFFUR
 62
     7
100
AcDbLine
 10
135.815999
 20
101.47012
 30
0.0
 11
134.801935
 21
100.455884
 31
0.0
  0
LINE
  5
9A
100
AcDbEntity
  8
SCHRAFFUR
 62
     7
100
AcDbLine
 10
138.225671
 20
104.984462
 30
0.0
 11
137.760928
 21
104.519718
 31
0.0
  0
LINE
  5
99
100
AcDbEntity
  8
SCHRAFFUR
 62
     7
100
AcDbLine
 10
138.323512
 20
104.529881
 30
0.0
 11
137.807092
 21
104.013289
 31
0.0
  0
LINE
  5
98
100
AcDbEntity
  8
SCHRAFFUR
 62
     7
100
AcDbLine
 10
136.160681
 20
106.23417
 30
0.0
 11
135.514037
 21
105.587354
 31
0.0
  0
LINE
  5
97
100
AcDbEntity
  8
SCHRAFFUR
 62
     7
100
AcDbLine
 10
136.431982
 20
108.162562
 30
0.0
 11
136.030284
 21
107.761037
 31
0.0
  0
LINE
  5
96
100
AcDbEntity
  8
SCHRAFFUR
 62
     7
100
AcDbLine
 10
136.331558
 20
107.509717
 30
0.0
 11
135.838737
 21
107.016896
 31
0.0
  0
LINE
  5
95
100
AcDbEntity
  8
SCHRAFFUR
 62
     7
100
AcDbLine
 10
136.241296
 20
106.867034
 30
0.0
 11
135.667171
 21
106.292909
 31
0.0
  0
LINE
  5
94
100
AcDbEntity
  8
SCHRAFFUR
 62
     7
100
AcDbLine
 10
138.023961
 20
105.887594
 30
0.0
 11
137.655164
 21
105.518796
 31
0.0
  0
LINE
  5
93
100
AcDbEntity
  8
SCHRAFFUR
 62
     7
100
AcDbLine
 10
137.595736
 20
107.669225
 30
0.0
 11
137.393509
 21
107.466825
 31
0.0
  0
LINE
  5
92
100
AcDbEntity
  8
SCHRAFFUR
 62
     7
100
AcDbLine
 10
137.48377
 20
108.109508
 30
0.0
 11
137.318061
 21
107.943799
 31
0.0
  0
LINE
  5
91
100
AcDbEntity
  8
SCHRAFFUR
 62
     7
100
AcDbLine
 10
137.813982
 20
106.782457
 30
0.0
 11
137.532518
 21
106.500993
 31
0.0
  0
LINE
  5
90
100
AcDbEntity
  8
SCHRAFFUR
 62
     7
100
AcDbLine
 10
137.919919
 20
106.335973
 30
0.0
 11
137.595908
 21
106.011962
 31
0.0
  0
LINE
  5
8F
100
AcDbEntity
  8
SCHRAFFUR
 62
     7
100
AcDbLine
 10
137.705806
 20
107.226874
 30
0.0
 11
137.464994
 21
106.98589
 31
0.0
  0
LINE
  5
8E
100
AcDbEntity
  8
SCHRAFFUR
 62
     7
100
AcDbLine
 10
137.016098
 20
109.85152
 30
0.0
 11
136.978891
 21
109.814313
 31
0.0
  0
LINE
  5
8D
100
AcDbEntity
  8
SCHRAFFUR
 62
     7
100
AcDbLine
 10
136.800435
 20
110.188279
 30
0.0
 11
136.749448
 21
110.137463
 31
0.0
  0
LINE
  5
8C
100
AcDbEntity
  8
SCHRAFFUR
 62
     7
100
AcDbLine
 10
136.665732
 20
109.501154
 30
0.0
 11
136.48297
 21
109.318392
 31
0.0
  0
LINE
  5
8B
100
AcDbEntity
  8
SCHRAFFUR
 62
     7
100
AcDbLine
 10
136.894486
 20
110.28233
 30
0.0
 11
136.885012
 21
110.272856
 31
0.0
  0
LINE
  5
8A
100
AcDbEntity
  8
SCHRAFFUR
 62
     7
100
AcDbLine
 10
136.543087
 20
108.82626
 30
0.0
 11
136.244225
 21
108.527226
 31
0.0
  0
LINE
  5
89
100
AcDbEntity
  8
SCHRAFFUR
 62
     7
100
AcDbLine
 10
137.135988
 20
109.418989
 30
0.0
 11
137.069153
 21
109.352154
 31
0.0
  0
LINE
  5
88
100
AcDbEntity
  8
SCHRAFFUR
 62
     7
100
AcDbLine
 10
137.369737
 20
108.547896
 30
0.0
 11
137.238824
 21
108.416983
 31
0.0
  0
LINE
  5
87
100
AcDbEntity
  8
SCHRAFFUR
 62
     7
100
AcDbLine
 10
137.25381
 20
108.98439
 30
0.0
 11
137.155797
 21
108.886549
 31
0.0
  0
POLYLINE
  5
80
100
AcDbEntity
  8
SCHRAFFUR
 62
     7
100
AcDb2dPolyline
 66
     1
 10
0.0
 20
0.0
 30
0.0
 70
     1
  0
VERTEX
  5
81
100
AcDbEntity
  8
SCHRAFFUR
 62
     7
100
AcDbVertex
100
AcDb2dVertex
 10
206.208257
 20
128.48897
 30
0.0
  0
VERTEX
  5
82
100
AcDbEntity
  8
SCHRAFFUR
 62
     7
100
AcDbVertex
100
AcDb2dVertex
 10
206.208257
 20
128.738912
 30
0.0
  0
VERTEX
  5
83
100
AcDbEntity
  8
SCHRAFFUR
 62
     7
100
AcDbVertex
100
AcDb2dVertex
 10
146.208474
 20
128.738912
 30
0.0
  0
VERTEX
  5
84
100
AcDbEntity
  8
SCHRAFFUR
 62
     7
100
AcDbVertex
100
AcDb2dVertex
 10
146.208474
 20
121.238939
 30
0.0
  0
VERTEX
  5
85
100
AcDbEntity
  8
SCHRAFFUR
 62
     7
100
AcDbVertex
100
AcDb2dVertex
 10
206.208257
 20
121.238939
 30
0.0
  0
SEQEND
  5
86
100
AcDbEntity
  8
SCHRAFFUR
 62
     7
  0
HATCH
  5
7F
100
AcDbEntity
  8
SCHRAFFUR
 62
     7
100
AcDbHatch
 10
0.0
 20
0.0
 30
0.0
210
0.0
220
0.0
230
1.0
  2
_U
 70
     0
 71
     0
 91
        1
 92
        3
 72
     0
 73
     1
 93
        5
 10
206.20825737847221
 20
128.48897026909722
 10
206.20825737847221
 20
128.73891194661456
 10
146.2084743923611
 20
128.73891194661456
 10
146.2084743923611
 20
121.23893907335068
 10
206.20825737847221
 20
121.23893907335068
 97
        0
 75
     0
 76
     0
 52
45.0
 41
2.0
 77
     0
 78
     1
 53
45.0
 43
0.0
 44
0.0
 45
-1.4142135623730949
 46
1.4142135623730951
 79
     0
 98
        1
 10
0.0
 20
0.0
  0
POLYLINE
  5
79
100
AcDbEntity
  8
SCHRAFFUR
 62
     7
100
AcDb2dPolyline
 66
     1
 10
0.0
 20
0.0
 30
0.0
 70
     1
  0
VERTEX
  5
7A
100
AcDbEntity
  8
SCHRAFFUR
 62
     7
100
AcDbVertex
100
AcDb2dVertex
 10
206.208257
 20
93.738981
 30
0.0
  0
VERTEX
  5
7B
100
AcDbEntity
  8
SCHRAFFUR
 62
     7
100
AcDbVertex
100
AcDb2dVertex
 10
146.208474
 20
93.738981
 30
0.0
  0
VERTEX
  5
7C
100
AcDbEntity
  8
SCHRAFFUR
 62
     7
100
AcDbVertex
100
AcDb2dVertex
 10
146.208474
 20
86.239008
 30
0.0
  0
VERTEX
  5
7D
100
AcDbEntity
  8
SCHRAFFUR
 62
     7
100
AcDbVertex
100
AcDb2dVertex
 10
206.208257
 20
86.239008
 30
0.0
  0
SEQEND
  5
7E
100
AcDbEntity
  8
SCHRAFFUR
 62
     7
  0
HATCH
  5
78
100
AcDbEntity
  8
SCHRAFFUR
 62
     7
100
AcDbHatch
 10
0.0
 20
0.0
 30
0.0
210
0.0
220
0.0
230
1.0
  2
_U
 70
     0
 71
     0
 91
        1
 92
        3
 72
     0
 73
     1
 93
        4
 10
206.20825737847221
 20
93.73898111979166
 10
146.2084743923611
 20
93.73898111979166
 10
146.2084743923611
 20
86.239008246527774
 10
206.20825737847221
 20
86.239008246527774
 97
        0
 75
     0
 76
     0
 52
45.0
 41
2.0
 77
     0
 78
     1
 53
45.0
 43
0.0
 44
0.0
 45
-1.4142135623730949
 46
1.4142135623730951
 79
     0
 98
        1
 10
0.0
 20
0.0
  0
POLYLINE
  5
72
100
AcDbEntity
  8
SCHRAFFUR
 62
     7
100
AcDb2dPolyline
 66
     1
 10
0.0
 20
0.0
 30
0.0
 70
     1
  0
VERTEX
  5
73
100
AcDbEntity
  8
SCHRAFFUR
 62
     7
100
AcDbVertex
100
AcDb2dVertex
 10
146.208474
 20
137.533896
 30
0.0
  0
VERTEX
  5
74
100
AcDbEntity
  8
SCHRAFFUR
 62
     7
100
AcDbVertex
100
AcDb2dVertex
 10
143.708369
 20
137.533896
 30
0.0
  0
VERTEX
  5
75
100
AcDbEntity
  8
SCHRAFFUR
 62
     7
100
AcDbVertex
100
AcDb2dVertex
 10
143.708369
 20
141.886774
 30
0.0
  0
VERTEX
  5
76
100
AcDbEntity
  8
SCHRAFFUR
 62
     7
100
AcDbVertex
100
AcDb2dVertex
 10
146.208474
 20
141.886774
 30
0.0
  0
SEQEND
  5
77
100
AcDbEntity
  8
SCHRAFFUR
 62
     7
  0
POLYLINE
  5
6C
100
AcDbEntity
  8
SCHRAFFUR
 62
     7
100
AcDb2dPolyline
 66
     1
 10
0.0
 20
0.0
 30
0.0
 70
     1
  0
VERTEX
  5
6D
100
AcDbEntity
  8
SCHRAFFUR
 62
     7
100
AcDbVertex
100
AcDb2dVertex
 10
146.208474
 20
150.592703
 30
0.0
  0
VERTEX
  5
6E
100
AcDbEntity
  8
SCHRAFFUR
 62
     7
100
AcDbVertex
100
AcDb2dVertex
 10
143.708369
 20
150.592703
 30
0.0
  0
VERTEX
  5
6F
100
AcDbEntity
  8
SCHRAFFUR
 62
     7
100
AcDbVertex
100
AcDb2dVertex
 10
143.708369
 20
154.945581
 30
0.0
  0
VERTEX
  5
70
100
AcDbEntity
  8
SCHRAFFUR
 62
     7
100
AcDbVertex
100
AcDb2dVertex
 10
146.208474
 20
154.945581
 30
0.0
  0
SEQEND
  5
71
100
AcDbEntity
  8
SCHRAFFUR
 62
     7
  0
POLYLINE
  5
66
100
AcDbEntity
  8
SCHRAFFUR
 62
     7
100
AcDb2dPolyline
 66
     1
 10
0.0
 20
0.0
 30
0.0
 70
     1
  0
VERTEX
  5
67
100
AcDbEntity
  8
SCHRAFFUR
 62
     7
100
AcDbVertex
100
AcDb2dVertex
 10
146.208474
 20
159.298459
 30
0.0
  0
VERTEX
  5
68
100
AcDbEntity
  8
SCHRAFFUR
 62
     7
100
AcDbVertex
100
AcDb2dVertex
 10
143.708369
 20
159.298459
 30
0.0
  0
VERTEX
  5
69
100
AcDbEntity
  8
SCHRAFFUR
 62
     7
100
AcDbVertex
100
AcDb2dVertex
 10
143.708369
 20
163.65151
 30
0.0
  0
VERTEX
  5
6A
100
AcDbEntity
  8
SCHRAFFUR
 62
     7
100
AcDbVertex
100
AcDb2dVertex
 10
146.208474
 20
163.65151
 30
0.0
  0
SEQEND
  5
6B
100
AcDbEntity
  8
SCHRAFFUR
 62
     7
  0
POLYLINE
  5
60
100
AcDbEntity
  8
SCHRAFFUR
 62
     7
100
AcDb2dPolyline
 66
     1
 10
0.0
 20
0.0
 30
0.0
 70
     1
  0
VERTEX
  5
61
100
AcDbEntity
  8
SCHRAFFUR
 62
     7
100
AcDbVertex
100
AcDb2dVertex
 10
146.208474
 20
154.945581
 30
0.0
  0
VERTEX
  5
62
100
AcDbEntity
  8
SCHRAFFUR
 62
     7
100
AcDbVertex
100
AcDb2dVertex
 10
143.708369
 20
154.945581
 30
0.0
  0
VERTEX
  5
63
100
AcDbEntity
  8
SCHRAFFUR
 62
     7
100
AcDbVertex
100
AcDb2dVertex
 10
143.708369
 20
159.298459
 30
0.0
  0
VERTEX
  5
64
100
AcDbEntity
  8
SCHRAFFUR
 62
     7
100
AcDbVertex
100
AcDb2dVertex
 10
146.208474
 20
159.298459
 30
0.0
  0
SEQEND
  5
65
100
AcDbEntity
  8
SCHRAFFUR
 62
     7
  0
POLYLINE
  5
5A
100
AcDbEntity
  8
SCHRAFFUR
 62
     7
100
AcDb2dPolyline
 66
     1
 10
0.0
 20
0.0
 30
0.0
 70
     1
  0
VERTEX
  5
5B
100
AcDbEntity
  8
SCHRAFFUR
 62
     7
100
AcDbVertex
100
AcDb2dVertex
 10
146.208474
 20
141.886774
 30
0.0
  0
VERTEX
  5
5C
100
AcDbEntity
  8
SCHRAFFUR
 62
     7
100
AcDbVertex
100
AcDb2dVertex
 10
143.708369
 20
141.886774
 30
0.0
  0
VERTEX
  5
5D
100
AcDbEntity
  8
SCHRAFFUR
 62
     7
100
AcDbVertex
100
AcDb2dVertex
 10
143.708369
 20
146.239825
 30
0.0
  0
VERTEX
  5
5E
100
AcDbEntity
  8
SCHRAFFUR
 62
     7
100
AcDbVertex
100
AcDb2dVertex
 10
146.208474
 20
146.239825
 30
0.0
  0
SEQEND
  5
5F
100
AcDbEntity
  8
SCHRAFFUR
 62
     7
  0
POLYLINE
  5
54
100
AcDbEntity
  8
SCHRAFFUR
 62
     7
100
AcDb2dPolyline
 66
     1
 10
0.0
 20
0.0
 30
0.0
 70
     1
  0
VERTEX
  5
55
100
AcDbEntity
  8
SCHRAFFUR
 62
     7
100
AcDbVertex
100
AcDb2dVertex
 10
146.208474
 20
146.239825
 30
0.0
  0
VERTEX
  5
56
100
AcDbEntity
  8
SCHRAFFUR
 62
     7
100
AcDbVertex
100
AcDb2dVertex
 10
143.708369
 20
146.239825
 30
0.0
  0
VERTEX
  5
57
100
AcDbEntity
  8
SCHRAFFUR
 62
     7
100
AcDbVertex
100
AcDb2dVertex
 10
143.708369
 20
150.592703
 30
0.0
  0
VERTEX
  5
58
100
AcDbEntity
  8
SCHRAFFUR
 62
     7
100
AcDbVertex
100
AcDb2dVertex
 10
146.208474
 20
150.592703
 30
0.0
  0
SEQEND
  5
59
100
AcDbEntity
  8
SCHRAFFUR
 62
     7
  0
POLYLINE
  5
4E
100
AcDbEntity
  8
SCHRAFFUR
 62
     7
100
AcDb2dPolyline
 66
     1
 10
0.0
 20
0.0
 30
0.0
 70
     1
  0
VERTEX
  5
4F
100
AcDbEntity
  8
SCHRAFFUR
 62
     7
100
AcDbVertex
100
AcDb2dVertex
 10
146.208474
 20
133.181018
 30
0.0
  0
VERTEX
  5
50
100
AcDbEntity
  8
SCHRAFFUR
 62
     7
100
AcDbVertex
100
AcDb2dVertex
 10
143.708369
 20
133.181018
 30
0.0
  0
VERTEX
  5
51
100
AcDbEntity
  8
SCHRAFFUR
 62
     7
100
AcDbVertex
100
AcDb2dVertex
 10
143.708369
 20
137.533896
 30
0.0
  0
VERTEX
  5
52
100
AcDbEntity
  8
SCHRAFFUR
 62
     7
100
AcDbVertex
100
AcDb2dVertex
 10
146.208474
 20
137.533896
 30
0.0
  0
SEQEND
  5
53
100
AcDbEntity
  8
SCHRAFFUR
 62
     7
  0
POLYLINE
  5
48
100
AcDbEntity
  8
SCHRAFFUR
 62
     7
100
AcDb2dPolyline
 66
     1
 10
0.0
 20
0.0
 30
0.0
 70
     1
  0
VERTEX
  5
49
100
AcDbEntity
  8
SCHRAFFUR
 62
     7
100
AcDbVertex
100
AcDb2dVertex
 10
146.208474
 20
128.738912
 30
0.0
  0
VERTEX
  5
4A
100
AcDbEntity
  8
SCHRAFFUR
 62
     7
100
AcDbVertex
100
AcDb2dVertex
 10
143.708369
 20
128.738912
 30
0.0
  0
VERTEX
  5
4B
100
AcDbEntity
  8
SCHRAFFUR
 62
     7
100
AcDbVertex
100
AcDb2dVertex
 10
143.708369
 20
133.091962
 30
0.0
  0
VERTEX
  5
4C
100
AcDbEntity
  8
SCHRAFFUR
 62
     7
100
AcDbVertex
100
AcDb2dVertex
 10
146.208474
 20
133.091962
 30
0.0
  0
SEQEND
  5
4D
100
AcDbEntity
  8
SCHRAFFUR
 62
     7
  0
LINE
  5
46
100
AcDbEntity
  8
MITTELLINIE
  6
AI9-LType1
 62
     7
100
AcDbLine
 10
218.245421
 20
107.488874
 30
0.0
 11
132.287877
 21
107.488874
 31
0.0
  0
LINE
  5
43
100
AcDbEntity
  8
AM_8
 62
     7
100
AcDbLine
 10
147.795802
 20
151.615207
 30
0.0
 11
127.755165
 21
154.664978
 31
0.0
  0
LINE
  5
42
100
AcDbEntity
  8
AM_8
 62
     7
100
AcDbLine
 10
142.831247
 20
81.718009
 30
0.0
 11
119.008067
 21
73.725043
 31
0.0
  0
LINE
  5
41
100
AcDbEntity
  8
AM_8
 62
     7
100
AcDbLine
 10
151.963506
 20
124.618405
 30
0.0
 11
104.434108
 21
117.119811
 31
0.0
  0
LINE
  5
3F
100
AcDbEntity
  8
AM_0
 62
     7
100
AcDbLine
 10
206.208257
 20
86.239008
 30
0.0
 11
206.208257
 21
48.738799
 31
0.0
  0
LINE
  5
3E
100
AcDbEntity
  8
AM_0
 62
     7
100
AcDbLine
 10
146.208474
 20
86.239008
 30
0.0
 11
146.208474
 21
48.606163
 31
0.0
  0
LINE
  5
3D
100
AcDbEntity
  8
AM_0
 62
     7
100
AcDbLine
 10
146.208474
 20
128.738912
 30
0.0
 11
146.208474
 21
165.907703
 31
0.0
  0
LINE
  5
3C
100
AcDbEntity
  8
AM_0
 62
     7
100
AcDbLine
 10
146.208474
 20
60.614044
 30
0.0
 11
149.958461
 21
60.614044
 31
0.0
  0
LINE
  5
3B
100
AcDbEntity
  8
AM_0
 62
     7
100
AcDbLine
 10
149.958461
 20
154.113935
 30
0.0
 11
146.208474
 21
154.113935
 31
0.0
  0
LINE
  5
3A
100
AcDbEntity
  8
AM_0
 62
     7
100
AcDbLine
 10
149.958461
 20
128.738912
 30
0.0
 11
146.208474
 21
128.738912
 31
0.0
  0
SPLINE
  5
39
100
AcDbEntity
  8
AM_0
 62
     7
100
AcDbSpline
210
0.0
220
0.0
230
1.0
 70
     8
 71
     3
 72
     8
 73
     4
 74
     0
 42
0.00000001
 43
0.00000001
 40
0.0
 40
0.0
 40
0.0
 40
0.0
 40
1.0
 40
1.0
 40
1.0
 40
1.0
 10
212.65678710937499
 20
104.43686387803818
 30
0.0
 10
214.3038872612847
 20
109.18541124131943
 30
0.0
 10
215.01495496961803
 20
114.20818820529513
 30
0.0
 10
214.75106065538193
 20
119.2273478190104
 30
0.0
  0
SPLINE
  5
38
100
AcDbEntity
  8
AM_0
 62
     7
100
AcDbSpline
210
0.0
220
0.0
230
1.0
 70
     8
 71
     3
 72
     8
 73
     4
 74
     0
 42
0.00000001
 43
0.00000001
 40
0.0
 40
0.0
 40
0.0
 40
0.0
 40
1.0
 40
1.0
 40
1.0
 40
1.0
 10
210.91494683159721
 20
111.66277940538194
 30
0.0
 10
211.39105902777777
 20
109.23019748263889
 30
0.0
 10
211.97224663628469
 20
106.81931966145832
 30
0.0
 10
212.65678710937499
 20
104.43686387803818
 30
0.0
  0
SPLINE
  5
37
100
AcDbEntity
  8
AM_0
 62
     7
100
AcDbSpline
210
0.0
220
0.0
230
1.0
 70
     8
 71
     3
 72
     8
 73
     4
 74
     0
 42
0.00000001
 43
0.00000001
 40
0.0
 40
0.0
 40
0.0
 40
0.0
 40
1.0
 40
1.0
 40
1.0
 40
1.0
 10
210.39404839409721
 20
119.26903347439234
 30
0.0
 10
210.25383300781249
 20
116.56118842230902
 30
0.0
 10
210.46019422743055
 20
113.84662543402777
 30
0.0
 10
211.00865342881943
 20
111.19114583333332
 30
0.0
  0
SPLINE
  5
36
100
AcDbEntity
  8
AM_0
 62
     7
100
AcDbSpline
210
0.0
220
0.0
230
1.0
 70
     8
 71
     3
 72
     8
 73
     4
 74
     0
 42
0.00000001
 43
0.00000001
 40
0.0
 40
0.0
 40
0.0
 40
0.0
 40
1.0
 40
1.0
 40
1.0
 40
1.0
 10
212.65678710937499
 20
104.43686387803818
 30
0.0
 10
213.65862087673608
 20
109.23984374999999
 30
0.0
 10
213.94559733072916
 20
114.16460774739582
 30
0.0
 10
213.50841471354164
 20
119.05147569444443
 30
0.0
  0
SPLINE
  5
35
100
AcDbEntity
  8
AM_0
 62
     7
100
AcDbSpline
210
0.0
220
0.0
230
1.0
 70
     8
 71
     3
 72
     8
 73
     4
 74
     0
 42
0.00000001
 43
0.00000001
 40
0.0
 40
0.0
 40
0.0
 40
0.0
 40
1.0
 40
1.0
 40
1.0
 40
1.0
 10
211.63324924045136
 20
119.05147569444443
 30
0.0
 10
211.29184027777777
 20
114.15599500868055
 30
0.0
 10
211.63634982638888
 20
109.2369154188368
 30
0.0
 10
212.65678710937499
 20
104.43686387803818
 30
0.0
  0
SPLINE
  5
34
100
AcDbEntity
  8
AM_0
 62
     7
100
AcDbSpline
210
0.0
220
0.0
230
1.0
 70
     8
 71
     3
 72
    11
 73
     7
 74
     0
 42
0.00000001
 43
0.00000001
 40
0.0
 40
0.0
 40
0.0
 40
0.0
 40
1.0
 40
1.0
 40
1.0
 40
2.0
 40
2.0
 40
2.0
 40
2.0
 10
213.50841471354164
 20
119.05147569444443
 30
0.0
 10
213.50841471354164
 20
119.56910129123263
 30
0.0
 10
213.08845757378469
 20
119.98888617621526
 30
0.0
 10
212.57065972222219
 20
119.98888617621526
 30
0.0
 10
212.05320638020831
 20
119.98888617621526
 30
0.0
 10
211.63324924045136
 20
119.56910129123263
 30
0.0
 10
211.63324924045136
 20
119.05147569444443
 30
0.0
  0
SPLINE
  5
33
100
AcDbEntity
  8
AM_0
 62
     7
100
AcDbSpline
210
0.0
220
0.0
230
1.0
 70
     8
 71
     3
 72
    11
 73
     7
 74
     0
 42
0.00000001
 43
0.00000001
 40
0.0
 40
0.0
 40
0.0
 40
0.0
 40
1.0
 40
1.0
 40
1.0
 40
2.0
 40
2.0
 40
2.0
 40
2.0
 10
214.75795084635413
 20
119.09763997395832
 30
0.0
 10
214.73211263020832
 20
120.30549045138888
 30
0.0
 10
213.73234592013887
 20
121.26391601562499
 30
0.0
 10
212.52449544270831
 20
121.23842230902777
 30
0.0
 10
211.33214789496526
 20
121.21310085720485
 30
0.0
 10
210.37957899305553
 20
120.23727756076387
 30
0.0
 10
210.38336859809027
 20
119.04458550347221
 30
0.0
  0
SPLINE
  5
32
100
AcDbEntity
  8
AM_0
 62
     7
100
AcDbSpline
210
0.0
220
0.0
230
1.0
 70
     8
 71
     3
 72
     8
 73
     4
 74
     0
 42
0.00000001
 43
0.00000001
 40
0.0
 40
0.0
 40
0.0
 40
0.0
 40
1.0
 40
1.0
 40
1.0
 40
1.0
 10
136.88828531901041
 20
110.54088406032984
 30
0.0
 10
135.24135742187499
 20
105.7923366970486
 30
0.0
 10
134.53011745876734
 20
100.76973198784721
 30
0.0
 10
134.79401177300346
 20
95.750572374131934
 30
0.0
  0
SPLINE
  5
31
100
AcDbEntity
  8
AM_0
 62
     7
100
AcDbSpline
210
0.0
220
0.0
230
1.0
 70
     8
 71
     3
 72
     8
 73
     4
 74
     0
 42
0.00000001
 43
0.00000001
 40
0.0
 40
0.0
 40
0.0
 40
0.0
 40
1.0
 40
1.0
 40
1.0
 40
1.0
 10
137.911823187934
 20
95.926272243923606
 30
0.0
 10
138.25340440538193
 20
100.82175292968749
 30
0.0
 10
137.90872260199652
 20
105.74100477430555
 30
0.0
 10
136.88828531901041
 20
110.54088406032984
 30
0.0
  0
SPLINE
  5
30
100
AcDbEntity
  8
AM_0
 62
     7
100
AcDbSpline
210
0.0
220
0.0
230
1.0
 70
     8
 71
     3
 72
     8
 73
     4
 74
     0
 42
0.00000001
 43
0.00000001
 40
0.0
 40
0.0
 40
0.0
 40
0.0
 40
1.0
 40
1.0
 40
1.0
 40
1.0
 10
139.15102403428818
 20
95.708542209201383
 30
0.0
 10
139.29141167534721
 20
98.416387261284711
 30
0.0
 10
139.08487820095485
 20
101.13112250434027
 30
0.0
 10
138.53659125434027
 20
103.78660210503472
 30
0.0
  0
SPLINE
  5
2F
100
AcDbEntity
  8
AM_0
 62
     7
100
AcDbSpline
210
0.0
220
0.0
230
1.0
 70
     8
 71
     3
 72
     8
 73
     4
 74
     0
 42
0.00000001
 43
0.00000001
 40
0.0
 40
0.0
 40
0.0
 40
0.0
 40
1.0
 40
1.0
 40
1.0
 40
1.0
 10
136.88828531901041
 20
110.54088406032984
 30
0.0
 10
135.88645155164929
 20
105.73790418836805
 30
0.0
 10
135.59964735243054
 20
100.81314019097222
 30
0.0
 10
136.03682996961805
 20
95.926272243923606
 30
0.0
  0
SPLINE
  5
2E
100
AcDbEntity
  8
AM_0
 62
     7
100
AcDbSpline
210
0.0
220
0.0
230
1.0
 70
     8
 71
     3
 72
     8
 73
     4
 74
     0
 42
0.00000001
 43
0.00000001
 40
0.0
 40
0.0
 40
0.0
 40
0.0
 40
1.0
 40
1.0
 40
1.0
 40
1.0
 10
138.63029785156249
 20
103.3149685329861
 30
0.0
 10
138.15401340060762
 20
105.74755045572915
 30
0.0
 10
137.57282579210067
 20
108.15860053168402
 30
0.0
 10
136.88828531901041
 20
110.54088406032984
 30
0.0
  0
SPLINE
  5
2D
100
AcDbEntity
  8
AM_0
 62
     7
100
AcDbSpline
210
0.0
220
0.0
230
1.0
 70
     8
 71
     3
 72
    11
 73
     7
 74
     0
 42
0.00000001
 43
0.00000001
 40
0.0
 40
0.0
 40
0.0
 40
0.0
 40
1.0
 40
1.0
 40
1.0
 40
2.0
 40
2.0
 40
2.0
 40
2.0
 10
136.03682996961805
 20
95.926272243923606
 30
0.0
 10
136.03682996961805
 20
95.4084743923611
 30
0.0
 10
136.45661485460067
 20
94.988861762152766
 30
0.0
 10
136.97441270616318
 20
94.988861762152766
 30
0.0
 10
137.49203830295139
 20
94.988861762152766
 30
0.0
 10
137.911823187934
 20
95.4084743923611
 30
0.0
 10
137.911823187934
 20
95.926272243923606
 30
0.0
  0
SPLINE
  5
2C
100
AcDbEntity
  8
AM_0
 62
     7
100
AcDbSpline
210
0.0
220
0.0
230
1.0
 70
     8
 71
     3
 72
    11
 73
     7
 74
     0
 42
0.00000001
 43
0.00000001
 40
0.0
 40
0.0
 40
0.0
 40
0.0
 40
1.0
 40
1.0
 40
1.0
 40
2.0
 40
2.0
 40
2.0
 40
2.0
 10
134.78729383680553
 20
95.880107964409717
 30
0.0
 10
134.81295979817708
 20
94.672257486979163
 30
0.0
 10
135.81272650824653
 20
93.71383192274304
 30
0.0
 10
137.02057698567708
 20
93.739325629340271
 30
0.0
 10
138.21309678819443
 20
93.764474826388877
 30
0.0
 10
139.16549343532984
 20
94.740470377604154
 30
0.0
 10
139.16187608506942
 20
95.93316243489582
 30
0.0
  0
LINE
  5
2B
100
AcDbEntity
  8
AM_0
 62
     7
100
AcDbLine
 10
146.208474
 20
85.988894
 30
0.0
 11
146.208474
 21
48.820104
 31
0.0
  0
LINE
  5
2A
100
AcDbEntity
  8
AM_0
 62
     7
100
AcDbLine
 10
146.208474
 20
128.738912
 30
0.0
 11
146.208474
 21
166.371757
 31
0.0
  0
LINE
  5
29
100
AcDbEntity
  8
AM_0
 62
     7
100
AcDbLine
 10
146.208474
 20
128.989026
 30
0.0
 11
146.208474
 21
166.157644
 31
0.0
  0
ENDSEC
  0
SECTION
  2
OBJECTS
  0
DICTIONARY
  5
19
100
AcDbDictionary
280
     0
281
     1
  3
ACAD_GROUP
350
1A
  3
ACAD_MLINESTYLE
350
1B
  3
ACAD_LAYOUT
350
1E
  3
ACAD_PLOTSETTINGS
350
22
  3
ACAD_PLOTSTYLENAME
350
1F
  3
ACAD_WIPEOUT_VARS
350
23
  0
DICTIONARY
  5
1A
102
{ACAD_REACTORS
330
19
102
}
100
AcDbDictionary
280
     0
281
     1
  0
DICTIONARY
  5
1B
102
{ACAD_REACTORS
330
19
102
}
100
AcDbDictionary
280
     0
281
     1
  3
Standard
350
1C
  0
MLINESTYLE
  5
1C
102
{ACAD_REACTORS
330
1B
102
}
100
AcDbMlineStyle
  2
Standard
 70
     0
  3

 62
     0
 51
90.0
 52
90.0
 71
     2
 49
0.5
 62
   256
  6
ByLayer
 49
-0.5
 62
   256
  6
ByLayer
  0
ACDBDICTIONARYWDFLT
  5
1F
102
{ACAD_REACTORS
330
19
102
}
100
AcDbDictionary
281
     1
  3
Normal
350
1D
100
AcDbDictionaryWithDefault
340
1D
  0
ACDBPLACEHOLDER
  5
1D
102
{ACAD_REACTORS
330
1F
102
}
  0
LAYOUT
  5
20
102
{ACAD_REACTORS
330
1E
102
}
100
AcDbPlotSettings
  1

  2

  4

  6

 40
0.0
 41
0.0
 42
0.0
 43
0.0
 44
0.0
 45
0.0
 46
0.0
 47
0.0
 48
0.0
 49
0.0
140
0.0
141
0.0
142
1.0
143
1.0
 70
  1024
 72
     0
 73
     0
 74
     0
  7

 75
     0
147
1.0
148
0.0
149
0.0
100
AcDbLayout
  1
Model
 70
     0
 71
     0
 10
0.0
 20
0.0
 11
0.0
 21
0.0
 12
0.0
 22
0.0
 32
0.0
 14
0.0
 24
0.0
 34
0.0
 15
0.0
 25
0.0
 35
0.0
146
0.0
 13
0.0
 23
0.0
 33
0.0
 16
0.0
 26
0.0
 36
0.0
 17
0.0
 27
0.0
 37
0.0
 76
     0
330
A
331
0
345
0
346
0
  0
LAYOUT
  5
21
102
{ACAD_REACTORS
330
1E
102
}
100
AcDbPlotSettings
  1

  2

  4

  6

 40
0.0
 41
0.0
 42
0.0
 43
0.0
 44
0.0
 45
0.0
 46
0.0
 47
0.0
 48
0.0
 49
0.0
140
0.0
141
0.0
142
1.0
143
1.0
 70
     0
 72
     0
 73
     0
 74
     0
  7

 75
     0
147
1.0
148
0.0
149
0.0
100
AcDbLayout
  1
Layout1
 70
     0
 71
     0
 10
0.0
 20
0.0
 11
0.0
 21
0.0
 12
0.0
 22
0.0
 32
0.0
 14
0.0
 24
0.0
 34
0.0
 15
0.0
 25
0.0
 35
0.0
146
0.0
 13
0.0
 23
0.0
 33
0.0
 16
0.0
 26
0.0
 36
0.0
 17
0.0
 27
0.0
 37
0.0
 76
     0
330
B
331
0
345
0
346
0
  0
DICTIONARY
  5
1E
102
{ACAD_REACTORS
330
19
102
}
100
AcDbDictionary
280
     0
281
     1
  3
Layout1
350
21
  3
Model
350
20
  0
DICTIONARY
  5
22
102
{ACAD_REACTORS
330
19
102
}
100
AcDbDictionary
280
     0
281
     1
  0
WIPEOUTVARIABLES
  5
23
100
AcDbWipeoutVariables
 70
     1
  0
ENDSEC
  0
EOF
