  0
SECTION
  2
HEADER
  9
$ACADVER
  1
AC1015
  9
$ACADMAINTVER
 70
     6
  9
$DWGCODEPAGE
  3
ANSI_932
  9
$INSBASE
 10
0.0
 20
0.0
 30
0.0
  9
$EXTMIN
 10
25.931061
 20
55.507723
 30
1.000000E+20
  9
$EXTMAX
 10
188.304441
 20
200.863364
 30
-1.000000E+20
  9
$LIMMIN
 10
25.931061
 20
55.507723
  9
$LIMMAX
 10
188.304441
 20
200.863364
  9
$ORTHOMODE
 70
     0
  9
$REGENMODE
 70
     1
  9
$FILLMODE
 70
     1
  9
$QTEXTMODE
 70
     0
  9
$MIRRTEXT
 70
     1
  9
$LTSCALE
 40
1.0
  9
$ATTMODE
 70
     1
  9
$TEXTSIZE
 40
0.2
  9
$TRACEWID
 40
0.05
  9
$TEXTSTYLE
  7
Standard
  9
$CLAYER
  8
0
  9
$CELTYPE
  6
Continuous
  9
$CECOLOR
 62
   256
  9
$CELTSCALE
 40
1.0
  9
$DISPSILH
 70
     0
  9
$DIMSCALE
 40
1.0
  9
$DIMASZ
 40
0.18
  9
$DIMEXO
 40
0.0625
  9
$DIMDLI
 40
0.38
  9
$DIMRND
 40
0.0
  9
$DIMDLE
 40
0.0
  9
$DIMEXE
 40
0.18
  9
$DIMTP
 40
0.0
  9
$DIMTM
 40
0.0
  9
$DIMTXT
 40
0.18
  9
$DIMCEN
 40
0.09
  9
$DIMTSZ
 40
0.0
  9
$DIMTOL
 70
     0
  9
$DIMLIM
 70
     0
  9
$DIMTIH
 70
     1
  9
$DIMTOH
 70
     1
  9
$DIMSE1
 70
     0
  9
$DIMSE2
 70
     0
  9
$DIMTAD
 70
     0
  9
$DIMZIN
 70
     0
  9
$DIMBLK
  1

  9
$DIMASO
 70
     1
  9
$DIMSHO
 70
     1
  9
$DIMPOST
  1

  9
$DIMAPOST
  1

  9
$DIMALT
 70
     0
  9
$DIMALTD
 70
     2
  9
$DIMALTF
 40
25.4
  9
$DIMLFAC
 40
1.0
  9
$DIMTOFL
 70
     0
  9
$DIMTVP
 40
0.0
  9
$DIMTIX
 70
     0
  9
$DIMSOXD
 70
     0
  9
$DIMSAH
 70
     0
  9
$DIMBLK1
  1

  9
$DIMBLK2
  1

  9
$DIMSTYLE
  2
Standard
  9
$DIMCLRD
 70
     0
  9
$DIMCLRE
 70
     0
  9
$DIMCLRT
 70
     0
  9
$DIMTFAC
 40
1.0
  9
$DIMGAP
 40
0.09
  9
$DIMJUST
 70
     0
  9
$DIMSD1
 70
     0
  9
$DIMSD2
 70
     0
  9
$DIMTOLJ
 70
     1
  9
$DIMTZIN
 70
     0
  9
$DIMALTZ
 70
     0
  9
$DIMALTTZ
 70
     0
  9
$DIMUPT
 70
     0
  9
$DIMDEC
 70
     4
  9
$DIMTDEC
 70
     4
  9
$DIMALTU
 70
     2
  9
$DIMALTTD
 70
     2
  9
$DIMTXSTY
  7
Standard
  9
$DIMAUNIT
 70
     0
  9
$DIMADEC
 70
     0
  9
$DIMALTRND
 40
0.0
  9
$DIMAZIN
 70
     0
  9
$DIMDSEP
 70
     0
  9
$DIMATFIT
 70
     3
  9
$DIMFRAC
 70
     0
  9
$DIMLDRBLK
  1

  9
$DIMLUNIT
 70
     2
  9
$DIMLWD
 70
     0
  9
$DIMLWE
 70
     0
  9
$DIMTMOVE
 70
     0
  9
$LUNITS
 70
     2
  9
$LUPREC
 70
     4
  9
$SKETCHINC
 40
0.1
  9
$FILLETRAD
 40
0.0
  9
$AUNITS
 70
     0
  9
$AUPREC
 70
     0
  9
$MENU
  1
acad
  9
$ELEVATION
 40
0.0
  9
$PELEVATION
 40
0.0
  9
$THICKNESS
 40
0.0
  9
$LIMCHECK
 70
     0
  9
$CHAMFERA
 40
0.0
  9
$CHAMFERB
 40
0.0
  9
$CHAMFERC
 40
0.0
  9
$CHAMFERD
 40
0.0
  9
$SKPOLY
 70
     0
  9
$TDCREATE
 40
0.000000000
  9
$TDUCREATE
 40
0.000000000
  9
$TDUPDATE
 40
0.000000000
  9
$TDUUPDATE
 40
0.000000000
  9
$TDINDWG
 40
0.0000000000
  9
$TDUSRTIMER
 40
0.0000000000
  9
$USRTIMER
 70
     1
  9
$ANGBASE
 50
0.0
  9
$ANGDIR
 70
     0
  9
$PDMODE
 70
     0
  9
$PDSIZE
 40
0.0
  9
$PLINEWID
 40
0.0
  9
$SPLFRAME
 70
     0
  9
$SPLINETYPE
 70
     6
  9
$SPLINESEGS
 70
     8
  9
$HANDSEED
  5
2F2
  9
$SURFTAB1
 70
     6
  9
$SURFTAB2
 70
     6
  9
$SURFTYPE
 70
     6
  9
$SURFU
 70
     6
  9
$SURFV
 70
     6
  9
$UCSBASE
  2

  9
$UCSNAME
  2

  9
$UCSORG
 10
0.0
 20
0.0
 30
0.0
  9
$UCSXDIR
 10
1.0
 20
0.0
 30
0.0
  9
$UCSYDIR
 10
0.0
 20
1.0
 30
0.0
  9
$UCSORTHOREF
  2

  9
$UCSORTHOVIEW
 70
     0
  9
$UCSORGTOP
 10
0.0
 20
0.0
 30
0.0
  9
$UCSORGBOTTOM
 10
0.0
 20
0.0
 30
0.0
  9
$UCSORGLEFT
 10
0.0
 20
0.0
 30
0.0
  9
$UCSORGRIGHT
 10
0.0
 20
0.0
 30
0.0
  9
$UCSORGFRONT
 10
0.0
 20
0.0
 30
0.0
  9
$UCSORGBACK
 10
0.0
 20
0.0
 30
0.0
  9
$PUCSBASE
  2

  9
$PUCSNAME
  2

  9
$PUCSORG
 10
0.0
 20
0.0
 30
0.0
  9
$PUCSXDIR
 10
1.0
 20
0.0
 30
0.0
  9
$PUCSYDIR
 10
0.0
 20
1.0
 30
0.0
  9
$PUCSORTHOREF
  2

  9
$PUCSORTHOVIEW
 70
     0
  9
$PUCSORGTOP
 10
0.0
 20
0.0
 30
0.0
  9
$PUCSORGBOTTOM
 10
0.0
 20
0.0
 30
0.0
  9
$PUCSORGLEFT
 10
0.0
 20
0.0
 30
0.0
  9
$PUCSORGRIGHT
 10
0.0
 20
0.0
 30
0.0
  9
$PUCSORGFRONT
 10
0.0
 20
0.0
 30
0.0
  9
$PUCSORGBACK
 10
0.0
 20
0.0
 30
0.0
  9
$USERI1
 70
     0
  9
$USERI2
 70
     0
  9
$USERI3
 70
     0
  9
$USERI4
 70
     0
  9
$USERI5
 70
     0
  9
$USERR1
 40
0.0
  9
$USERR2
 40
0.0
  9
$USERR3
 40
0.0
  9
$USERR4
 40
0.0
  9
$USERR5
 40
0.0
  9
$WORLDVIEW
 70
     1
  9
$SHADEDGE
 70
     3
  9
$SHADEDIF
 70
    70
  9
$TILEMODE
 70
     1
  9
$MAXACTVP
 70
    16
  9
$PINSBASE
 10
0.0
 20
0.0
 30
0.0
  9
$PLIMCHECK
 70
     0
  9
$PEXTMIN
 10
1.000000E+20
 20
1.000000E+20
 30
1.000000E+20
  9
$PEXTMAX
 10
-1.000000E+20
 20
-1.000000E+20
 30
-1.000000E+20
  9
$PLIMMIN
 10
0.0
 20
0.0
  9
$PLIMMAX
 10
12.0
 20
9.0
  9
$UNITMODE
 70
     0
  9
$VISRETAIN
 70
     0
  9
$PLINEGEN
 70
     1
  9
$PSLTSCALE
 70
     0
  9
$TREEDEPTH
 70
  3020
  9
$CMLSTYLE
  2
Standard
  9
$CMLJUST
 70
     0
  9
$CMLSCALE
 40
1.0
  9
$PROXYGRAPHICS
 70
     0
  9
$MEASUREMENT
 70
     1
  9
$CELWEIGHT
370
     0
  9
$ENDCAPS
280
     0
  9
$JOINSTYLE
280
     0
  9
$LWDISPLAY
290
     0
  9
$INSUNITS
 70
     0
  9
$HYPERLINKBASE
  1

  9
$STYLESHEET
  1

  9
$XEDIT
290
     1
  9
$CEPSNTYPE
380
     0
  9
$PSTYLEMODE
290
     1
  9
$FINGERPRINTGUID
  2

  9
$VERSIONGUID
  2

  9
$EXTNAMES
290
     1
  9
$PSVPSCALE
 40
0.0
  0
ENDSEC
  0
SECTION
  2
CLASSES
  0
CLASS
  1
LWPOLYLINE
  2
AcDbPolyline
  3
AutoCAD 2000
 90
    32768
280
     0
281
     1
  0
CLASS
  1
IMAGE
  2
AcDbRasterImage
  3
ISM
 90
    32895
280
     0
281
     1
  0
CLASS
  1
OLE2FRAME
  2
AcDbOle2Frame
  3
AutoCAD 2000
 90
    32768
280
     0
281
     1
  0
CLASS
  1
HATCH
  2
AcDbHatch
  3
AutoCAD 2000
 90
        0
280
     0
281
     1
  0
CLASS
  1
DICTIONARYVAR
  2
AcDbDictionaryVar
  3
AutoCAD 2000
 90
    32768
280
     0
281
     0
  0
CLASS
  1
RASTERVARIABLES
  2
AcDbRasterVariables
  3
ISM
 90
    32768
280
     0
281
     0
  0
CLASS
  1
IMAGEDEF
  2
AcDbRasterImageDef
  3
ISM
 90
    32768
280
     0
281
     0
  0
CLASS
  1
IMAGEDEF_REACTOR
  2
AcDbRasterImageDefReactor
  3
ISM
 90
    32769
280
     0
281
     0
  0
CLASS
  1
IDBUFFER
  2
AcDbIdBuffer
  3
AutoCAD 2000
 90
    32768
280
     0
281
     0
  0
CLASS
  1
SPATIAL_FILTER
  2
AcDbSpatialFilter
  3
AutoCAD 2000
 90
    32768
280
     0
281
     0
  0
CLASS
  1
XRECORD
  2
AcDbXrecord
  3
AutoCAD 2000
 90
    32768
280
     0
281
     0
  0
CLASS
  1
SORTENTSTABLE
  2
AcDbSortentsTable
  3
AutoCAD 2000
 90
    32768
280
     0
281
     0
  0
CLASS
  1
LAYER_INDEX
  2
AcDbLayerIndex
  3
AutoCAD 2000
 90
    32768
280
     0
281
     0
  0
CLASS
  1
SPATIAL_INDEX
  2
AcDbSpatialIndex
  3
AutoCAD 2000
 90
    32768
280
     0
281
     0
  0
CLASS
  1
OBJECT_PTR
  2
CAseDLPNTableRecord
  3
"ASE-LPNTableRecord"
 90
    32769
280
     0
281
     0
  0
CLASS
  1
LAYOUT
  2
AcDbLayout
  3
AutoCAD 2000
 90
        0
280
     0
281
     0
  0
CLASS
  1
PLOTSETTINGS
  2
AcDbPlotSettings
  3
AutoCAD 2000
 90
    32768
280
     0
281
     0
  0
CLASS
  1
ACDBDICTIONARYWDFLT
  2
AcDbDictionaryWithDefault
  3
AutoCAD 2000
 90
        0
280
     0
281
     0
  0
CLASS
  1
ACDBPLACEHOLDER
  2
AcDbPlaceHolder
  3
AutoCAD 2000
 90
        0
280
     0
281
     0
  0
CLASS
  1
VBA_PROJECT
  2
AcDbVbaProject
  3
acadvba
 90
    32768
280
     0
281
     0
  0
CLASS
  1
WIPEOUT
  2
AcDbWipeout
  3
WipeOut|AutoCAD Express Tool|expresstools@autodesk.com
 90
    32895
280
     0
281
     1
  0
CLASS
  1
WIPEOUTVARIABLES
  2
AcDbWipeoutVariables
  3
WipeOut|AutoCAD Express Tool|expresstools@autodesk.com
 90
        0
280
     0
281
     0
  0
CLASS
  1
RTEXT
  2
RText
  3
RText|AutoCAD Express Tool|expresstools@autodesk.com
 90
    32768
280
     0
281
     1
  0
CLASS
  1
ARCALIGNEDTEXT
  2
AcDbArcAlignedText
  3
ATEXT|AutoCAD Express Tool|expresstools@autodesk.com
 90
    32768
280
     0
281
     1
  0
ENDSEC
  0
SECTION
  2
TABLES
  0
TABLE
  2
VPORT
  5
7
100
AcDbSymbolTable
 70
     1
  0
VPORT
  5
15
100
AcDbSymbolTableRecord
100
AcDbViewportTableRecord
  2
*ACTIVE
 70
     0
 10
0.0
 20
0.0
 11
1.0
 21
1.0
 12
6.591288
 22
4.579184
 13
0.0
 23
0.0
 14
1.0
 24
1.0
 15
0.0
 25
0.0
 16
0.0
 26
0.0
 36
1.0
 17
0.0
 27
0.0
 37
0.0
 40
9.158369
 41
0.688564
 42
50.0
 43
0.0
 44
0.0
 50
0.0
 51
0.0
 71
     0
 72
   100
 73
     1
 74
     1
 75
     0
 76
     0
 77
     0
 78
     0
281
     0
 65
     0
110
0.0
120
0.0
130
0.0
111
1.0
121
0.0
131
0.0
112
0.0
122
1.0
132
0.0
345
0
346
0
 79
     0
146
0.0
  0
ENDTAB
  0
TABLE
  2
LTYPE
  5
4
100
AcDbSymbolTable
 70
     8
  0
LTYPE
  5
11
100
AcDbSymbolTableRecord
100
AcDbLinetypeTableRecord
  2
ByBlock
 70
    64
  3

 72
    65
 73
     0
 40
0.0
  0
LTYPE
  5
12
100
AcDbSymbolTableRecord
100
AcDbLinetypeTableRecord
  2
ByLayer
 70
    64
  3

 72
    65
 73
     0
 40
0.0
  0
LTYPE
  5
13
100
AcDbSymbolTableRecord
100
AcDbLinetypeTableRecord
  2
Continuous
 70
    64
  3
Solid line
 72
    65
 73
     0
 40
0.0
  0
LTYPE
  5
12C
100
AcDbSymbolTableRecord
100
AcDbLinetypeTableRecord
  2
AI9-LType1
 70
    64
  3
Illustrator Dash Style No.1
 72
    65
 73
     5
 40
4.233333
 49
2.116667
 74
     0
 49
-0.705556
 74
     0
 49
0.352778
 74
     0
 49
-0.705556
 74
     0
 49
0.352778
 74
     0
  0
LTYPE
  5
12F
100
AcDbSymbolTableRecord
100
AcDbLinetypeTableRecord
  2
AI9-LType2
 70
    64
  3
Illustrator Dash Style No.2
 72
    65
 73
     4
 40
8.819444
 49
5.644444
 74
     0
 49
-1.411111
 74
     0
 49
0.352778
 74
     0
 49
-1.411111
 74
     0
  0
LTYPE
  5
287
100
AcDbSymbolTableRecord
100
AcDbLinetypeTableRecord
  2
AI9-LType3
 70
    64
  3
Illustrator Dash Style No.3
 72
    65
 73
     5
 40
9.172222
 49
5.644444
 74
     0
 49
-1.411111
 74
     0
 49
0.352778
 74
     0
 49
-1.411111
 74
     0
 49
0.352778
 74
     0
  0
LTYPE
  5
2B1
100
AcDbSymbolTableRecord
100
AcDbLinetypeTableRecord
  2
AI9-LType4
 70
    64
  3
Illustrator Dash Style No.4
 72
    65
 73
     5
 40
4.233333
 49
2.116667
 74
     0
 49
-0.705556
 74
     0
 49
0.352778
 74
     0
 49
-0.705556
 74
     0
 49
0.352778
 74
     0
  0
LTYPE
  5
2EC
100
AcDbSymbolTableRecord
100
AcDbLinetypeTableRecord
  2
AI9-LType5
 70
    64
  3
Illustrator Dash Style No.5
 72
    65
 73
     4
 40
3.880556
 49
2.116667
 74
     0
 49
-0.705556
 74
     0
 49
0.352778
 74
     0
 49
-0.705556
 74
     0
  0
ENDTAB
  0
TABLE
  2
LAYER
  5
2
100
AcDbSymbolTable
 70
     3
  0
LAYER
  5
14
100
AcDbSymbolTableRecord
100
AcDbLayerTableRecord
  2
0
 70
     0
 62
     7
  6
Continuous
290
     1
370
    -3
390
1D
  0
LAYER
  5
28
100
AcDbSymbolTableRecord
100
AcDbLayerTableRecord
  2
RAHMEN
 70
     0
 62
     1
  6
Continuous
290
     1
370
    -3
390
1D
  0
LAYER
  5
36
100
AcDbSymbolTableRecord
100
AcDbLayerTableRecord
  2
BODEN-2_4
 70
     0
 62
     5
  6
Continuous
290
     1
370
    -3
390
1D
  0
ENDTAB
  0
TABLE
  2
STYLE
  5
3
100
AcDbSymbolTable
 70
     5
  0
STYLE
  5
17
100
AcDbSymbolTableRecord
100
AcDbTextStyleTableRecord
  2
Standard
 70
     0
 40
0.0
 41
1.0
 50
0.0
 71
     0
 42
0.0
  3
txt
  4

  0
STYLE
  5
24
100
AcDbSymbolTableRecord
100
AcDbTextStyleTableRecord
  2
STD
 70
     0
 40
0.0
 41
1.0
 50
0.0
 71
     0
 42
0.0
  3
txt
  4

  0
STYLE
  5
25
100
AcDbSymbolTableRecord
100
AcDbTextStyleTableRecord
  2
TATESTD
 70
     4
 40
0.0
 41
1.0
 50
0.0
 71
     0
 42
0.0
  3
txt
  4

  0
STYLE
  5
26
100
AcDbSymbolTableRecord
100
AcDbTextStyleTableRecord
  2
KANJISTD
 70
     0
 40
0.0
 41
1.0
 50
0.0
 71
     0
 42
0.0
  3
txt
  4
extfont
  0
STYLE
  5
27
100
AcDbSymbolTableRecord
100
AcDbTextStyleTableRecord
  2
KANJITATE
 70
     4
 40
0.0
 41
1.0
 50
0.0
 71
     0
 42
0.0
  3
txt
  4
extfont
  0
ENDTAB
  0
TABLE
  2
VIEW
  5
5
100
AcDbSymbolTable
 70
     0
  0
ENDTAB
  0
TABLE
  2
UCS
  5
6
100
AcDbSymbolTable
 70
     0
  0
ENDTAB
  0
TABLE
  2
APPID
  5
8
100
AcDbSymbolTable
 70
     1
  0
APPID
  5
16
100
AcDbSymbolTableRecord
100
AcDbRegAppTableRecord
  2
ACAD
 70
     0
  0
ENDTAB
  0
TABLE
  2
DIMSTYLE
  5
9
100
AcDbSymbolTable
 70
     1
100
AcDbDimStyleTable
 71
     0
  0
DIMSTYLE
105
18
100
AcDbSymbolTableRecord
100
AcDbDimStyleTableRecord
  2
Standard
 70
     0
  3

  4

 40
1.0
 41
0.18
 42
0.0625
 43
0.38
 44
0.18
 45
0.0
 46
0.0
 47
0.0
 48
0.0
 71
     0
 72
     0
 73
     1
 74
     1
 75
     0
 76
     0
 77
     0
 78
     0
 79
     0
140
0.18
141
0.09
142
0.0
143
25.4
144
1.0
145
0.0
146
1.0
147
0.09
148
0.0
170
     0
171
     2
172
     0
173
     0
174
     0
175
     0
176
     0
177
     0
178
     0
179
     0
271
     4
272
     4
273
     2
274
     2
275
     0
276
     0
277
     2
278
    46
279
     0
280
     0
281
     0
282
     0
283
     1
284
     0
285
     0
286
     0
288
     0
340
17
341
0
342
0
343
0
344
0
371
    -2
372
    -2
  0
ENDTAB
  0
TABLE
  2
BLOCK_RECORD
  5
1
100
AcDbSymbolTable
 70
     2
  0
BLOCK_RECORD
  5
A
100
AcDbSymbolTableRecord
100
AcDbBlockTableRecord
  2
*MODEL_SPACE
340
20
  0
BLOCK_RECORD
  5
B
100
AcDbSymbolTableRecord
100
AcDbBlockTableRecord
  2
*PAPER_SPACE
340
21
  0
BLOCK_RECORD
  5
11C
100
AcDbSymbolTableRecord
100
AcDbBlockTableRecord
  2
AI9-BLK1
340
0
102
{BLKREFS
331
11D
102
}
  0
BLOCK_RECORD
  5
125
100
AcDbSymbolTableRecord
100
AcDbBlockTableRecord
  2
AI9-BLK2
340
0
102
{BLKREFS
331
126
102
}
  0
ENDTAB
  0
ENDSEC
  0
SECTION
  2
BLOCKS
  0
BLOCK
  5
D
100
AcDbEntity
  8
0
100
AcDbBlockBegin
  2
*MODEL_SPACE
 70
     0
 10
0.0
 20
0.0
 30
0.0
  3
*MODEL_SPACE
  1

  0
ENDBLK
  5
E
100
AcDbEntity
  8
0
100
AcDbBlockEnd
  0
BLOCK
  5
F
100
AcDbEntity
 67
     1
  8
0
100
AcDbBlockBegin
  2
*PAPER_SPACE
 70
     0
 10
0.0
 20
0.0
 30
0.0
  3
*PAPER_SPACE
  1

  0
ENDBLK
  5
10
100
AcDbEntity
 67
     1
  8
0
100
AcDbBlockEnd
  0
BLOCK
  5
11E
100
AcDbEntity
  8
BODEN-2_4
 62
     7
100
AcDbBlockBegin
  2
AI9-BLK1
 70
     0
 10
0.0
 20
0.0
 30
0.0
  3
AI9-BLK1
  1

  0
MTEXT
  5
120
100
AcDbEntity
  8
BODEN-2_4
 62
     7
100
AcDbMText
 10
-18.118791
 20
-0.168121
 30
0.0
 40
5.512152
 41
0.0
 71
     1
 72
     2
  1
\fArial|b0|i0;\H5.5122;\C7;\U+0061\U+0062\U+0064\U+0069\U+0063\U+0068\U+0074\U+0075\U+006E\U+0067
  7
STD
210
0.0
220
0.0
230
1.0
 73
     1
 44
1.0
  0
MTEXT
  5
11F
100
AcDbEntity
  8
BODEN-2_4
 62
     7
100
AcDbMText
 10
-18.118791
 20
7.240212
 30
0.0
 40
5.512152
 41
0.0
 71
     1
 72
     2
  1
\fArial|b0|i0;\H5.5122;\C7;\U+0041\U+0075\U+00DF\U+0065\U+006E\U+002D
  7
STD
210
0.0
220
0.0
230
1.0
 73
     1
 44
1.0
  0
ENDBLK
  5
121
100
AcDbEntity
  8
BODEN-2_4
100
AcDbBlockEnd
  0
BLOCK
  5
127
100
AcDbEntity
  8
BODEN-2_4
 62
     7
100
AcDbBlockBegin
  2
AI9-BLK2
 70
     0
 10
0.0
 20
0.0
 30
0.0
  3
AI9-BLK2
  1

  0
MTEXT
  5
12A
100
AcDbEntity
  8
BODEN-2_4
 62
     7
100
AcDbMText
 10
-22.244809
 20
-0.070453
 30
0.0
 40
5.512152
 41
0.0
 71
     1
 72
     2
  1
\fArial|b0|i0;\H5.5122;\C7;\U+0033\U+0030
  7
STD
210
0.0
220
0.0
230
1.0
 73
     1
 44
1.0
  0
MTEXT
  5
129
100
AcDbEntity
  8
BODEN-2_4
 62
     7
100
AcDbMText
 10
-22.244809
 20
7.337881
 30
0.0
 40
5.512152
 41
0.0
 71
     1
 72
     2
  1
\fArial|b0|i0;\H5.5122;\C7;\U+0053\U+0074\U+0061\U+006E\U+0064\U+0061\U+0072\U+0064
  7
STD
210
0.0
220
0.0
230
1.0
 73
     1
 44
1.0
  0
MTEXT
  5
128
100
AcDbEntity
  8
BODEN-2_4
 62
     7
100
AcDbMText
 10
-22.244809
 20
14.746214
 30
0.0
 40
5.512152
 41
0.0
 71
     1
 72
     2
  1
\fArial|b0|i0;\H5.5122;\C7;\U+0046\U+0048\U+0052\U+004B\U+002D
  7
STD
210
0.0
220
0.0
230
1.0
 73
     1
 44
1.0
  0
ENDBLK
  5
12B
100
AcDbEntity
  8
BODEN-2_4
100
AcDbBlockEnd
  0
ENDSEC
  0
SECTION
  2
ENTITIES
  0
LINE
  5
2F1
100
AcDbEntity
  8
BODEN-2_4
 62
     7
100
AcDbLine
 10
132.40191
 20
119.493826
 30
0.0
 11
132.40191
 21
137.102743
 31
0.0
  0
LINE
  5
2F0
100
AcDbEntity
  8
BODEN-2_4
 62
     7
100
AcDbLine
 10
106.436225
 20
118.897135
 30
0.0
 11
106.436225
 21
114.91805
 31
0.0
  0
LINE
  5
2EF
100
AcDbEntity
  8
BODEN-2_4
 62
     7
100
AcDbLine
 10
132.40191
 20
119.493826
 30
0.0
 11
132.40191
 21
119.593389
 31
0.0
  0
LINE
  5
2EE
100
AcDbEntity
  8
BODEN-2_4
 62
     7
100
AcDbLine
 10
139.365137
 20
119.493826
 30
0.0
 11
136.977686
 21
119.493826
 31
0.0
  0
LINE
  5
2ED
100
AcDbEntity
  8
BODEN-2_4
  6
AI9-LType5
 62
     7
100
AcDbLine
 10
61.171632
 20
127.234956
 30
0.0
 11
61.171632
 21
149.33886
 31
0.0
  0
LINE
  5
2EB
100
AcDbEntity
  8
BODEN-2_4
 62
     7
100
AcDbLine
 10
75.795374
 20
139.68932
 30
0.0
 11
42.368818
 21
139.68932
 31
0.0
  0
LINE
  5
2EA
100
AcDbEntity
  8
BODEN-2_4
 62
     7
100
AcDbLine
 10
45.055131
 20
139.68932
 30
0.0
 11
75.795374
 21
139.68932
 31
0.0
  0
LINE
  5
2E9
100
AcDbEntity
  8
BODEN-2_4
 62
     7
100
AcDbLine
 10
75.795374
 20
139.68932
 30
0.0
 11
42.368818
 21
139.68932
 31
0.0
  0
LINE
  5
2E8
100
AcDbEntity
  8
BODEN-2_4
 62
     7
100
AcDbLine
 10
56.396041
 20
143.171278
 30
0.0
 11
65.946707
 21
143.171278
 31
0.0
  0
LINE
  5
2E7
100
AcDbEntity
  8
BODEN-2_4
 62
     7
100
AcDbLine
 10
56.396041
 20
143.967095
 30
0.0
 11
65.946707
 21
143.967095
 31
0.0
  0
LINE
  5
2E6
100
AcDbEntity
  8
BODEN-2_4
 62
     7
100
AcDbLine
 10
64.652901
 20
143.967095
 30
0.0
 11
57.789237
 21
143.967095
 31
0.0
  0
POLYLINE
  5
2DD
100
AcDbEntity
  8
BODEN-2_4
 62
     7
100
AcDb2dPolyline
 66
     1
 10
0.0
 20
0.0
 30
0.0
  0
VERTEX
  5
2DE
100
AcDbEntity
  8
BODEN-2_4
 62
     7
100
AcDbVertex
100
AcDb2dVertex
 10
56.595167
 20
144.364659
 30
0.0
  0
VERTEX
  5
2DF
100
AcDbEntity
  8
BODEN-2_4
 62
     7
100
AcDbVertex
100
AcDb2dVertex
 10
57.390984
 20
143.967095
 30
0.0
  0
VERTEX
  5
2E0
100
AcDbEntity
  8
BODEN-2_4
 62
     7
100
AcDbVertex
100
AcDb2dVertex
 10
58.186801
 20
143.967095
 30
0.0
  0
VERTEX
  5
2E1
100
AcDbEntity
  8
BODEN-2_4
 62
     7
100
AcDbVertex
100
AcDb2dVertex
 10
58.883055
 20
144.364659
 30
0.0
  0
VERTEX
  5
2E2
100
AcDbEntity
  8
BODEN-2_4
 62
     7
100
AcDbVertex
100
AcDb2dVertex
 10
60.375126
 20
143.967095
 30
0.0
  0
VERTEX
  5
2E3
100
AcDbEntity
  8
BODEN-2_4
 62
     7
100
AcDbVertex
100
AcDb2dVertex
 10
61.967449
 20
143.967095
 30
0.0
  0
VERTEX
  5
2E4
100
AcDbEntity
  8
BODEN-2_4
 62
     7
100
AcDbVertex
100
AcDb2dVertex
 10
63.459692
 20
144.364659
 30
0.0
  0
SEQEND
  5
2E5
100
AcDbEntity
  8
BODEN-2_4
 62
     7
  0
LINE
  5
2DC
100
AcDbEntity
  8
BODEN-2_4
 62
     7
100
AcDbLine
 10
57.789237
 20
148.145479
 30
0.0
 11
64.652901
 21
148.145479
 31
0.0
  0
POLYLINE
  5
2D6
100
AcDbEntity
  8
BODEN-2_4
 62
     7
100
AcDb2dPolyline
 66
     1
 10
0.0
 20
0.0
 30
0.0
  0
VERTEX
  5
2D7
100
AcDbEntity
  8
BODEN-2_4
 62
     7
100
AcDbVertex
100
AcDb2dVertex
 10
63.459692
 20
147.747054
 30
0.0
  0
VERTEX
  5
2D8
100
AcDbEntity
  8
BODEN-2_4
 62
     7
100
AcDbVertex
100
AcDb2dVertex
 10
61.967449
 20
148.045916
 30
0.0
  0
VERTEX
  5
2D9
100
AcDbEntity
  8
BODEN-2_4
 62
     7
100
AcDbVertex
100
AcDb2dVertex
 10
60.375126
 20
148.045916
 30
0.0
  0
VERTEX
  5
2DA
100
AcDbEntity
  8
BODEN-2_4
 62
     7
100
AcDbVertex
100
AcDb2dVertex
 10
58.883055
 20
147.747054
 30
0.0
  0
SEQEND
  5
2DB
100
AcDbEntity
  8
BODEN-2_4
 62
     7
  0
LINE
  5
2D5
100
AcDbEntity
  8
BODEN-2_4
 62
     7
100
AcDbLine
 10
56.396041
 20
143.171278
 30
0.0
 11
56.396041
 21
143.967095
 31
0.0
  0
POLYLINE
  5
2CF
100
AcDbEntity
  8
BODEN-2_4
 62
     7
100
AcDb2dPolyline
 66
     1
 10
0.0
 20
0.0
 30
0.0
  0
VERTEX
  5
2D0
100
AcDbEntity
  8
BODEN-2_4
 62
     7
100
AcDbVertex
100
AcDb2dVertex
 10
58.883055
 20
147.747054
 30
0.0
  0
VERTEX
  5
2D1
100
AcDbEntity
  8
BODEN-2_4
 62
     7
100
AcDbVertex
100
AcDb2dVertex
 10
58.186801
 20
148.045916
 30
0.0
  0
VERTEX
  5
2D2
100
AcDbEntity
  8
BODEN-2_4
 62
     7
100
AcDbVertex
100
AcDb2dVertex
 10
57.390984
 20
148.045916
 30
0.0
  0
VERTEX
  5
2D3
100
AcDbEntity
  8
BODEN-2_4
 62
     7
100
AcDbVertex
100
AcDb2dVertex
 10
56.595167
 20
147.747054
 30
0.0
  0
SEQEND
  5
2D4
100
AcDbEntity
  8
BODEN-2_4
 62
     7
  0
LINE
  5
2CE
100
AcDbEntity
  8
BODEN-2_4
 62
     7
100
AcDbLine
 10
58.883055
 20
147.747054
 30
0.0
 11
58.883055
 21
144.364659
 31
0.0
  0
LINE
  5
2CD
100
AcDbEntity
  8
BODEN-2_4
 62
     7
100
AcDbLine
 10
56.595167
 20
147.747054
 30
0.0
 11
56.595167
 21
144.364659
 31
0.0
  0
POLYLINE
  5
2C7
100
AcDbEntity
  8
BODEN-2_4
 62
     7
100
AcDb2dPolyline
 66
     1
 10
0.0
 20
0.0
 30
0.0
  0
VERTEX
  5
2C8
100
AcDbEntity
  8
BODEN-2_4
 62
     7
100
AcDbVertex
100
AcDb2dVertex
 10
63.459692
 20
144.364659
 30
0.0
  0
VERTEX
  5
2C9
100
AcDbEntity
  8
BODEN-2_4
 62
     7
100
AcDbVertex
100
AcDb2dVertex
 10
64.255509
 20
143.967095
 30
0.0
  0
VERTEX
  5
2CA
100
AcDbEntity
  8
BODEN-2_4
 62
     7
100
AcDbVertex
100
AcDb2dVertex
 10
65.051326
 20
143.967095
 30
0.0
  0
VERTEX
  5
2CB
100
AcDbEntity
  8
BODEN-2_4
 62
     7
100
AcDbVertex
100
AcDb2dVertex
 10
65.74758
 20
144.364659
 30
0.0
  0
SEQEND
  5
2CC
100
AcDbEntity
  8
BODEN-2_4
 62
     7
  0
LINE
  5
2C6
100
AcDbEntity
  8
BODEN-2_4
 62
     7
100
AcDbLine
 10
65.946707
 20
143.171278
 30
0.0
 11
65.946707
 21
143.967095
 31
0.0
  0
POLYLINE
  5
2BF
100
AcDbEntity
  8
BODEN-2_4
 62
     7
100
AcDb2dPolyline
 66
     1
 10
0.0
 20
0.0
 30
0.0
  0
VERTEX
  5
2C0
100
AcDbEntity
  8
BODEN-2_4
 62
     7
100
AcDbVertex
100
AcDb2dVertex
 10
65.74758
 20
147.747054
 30
0.0
  0
VERTEX
  5
2C1
100
AcDbEntity
  8
BODEN-2_4
 62
     7
100
AcDbVertex
100
AcDb2dVertex
 10
65.051326
 20
148.045916
 30
0.0
  0
VERTEX
  5
2C2
100
AcDbEntity
  8
BODEN-2_4
 62
     7
100
AcDbVertex
100
AcDb2dVertex
 10
64.255509
 20
148.045916
 30
0.0
  0
VERTEX
  5
2C3
100
AcDbEntity
  8
BODEN-2_4
 62
     7
100
AcDbVertex
100
AcDb2dVertex
 10
63.459692
 20
147.747054
 30
0.0
  0
VERTEX
  5
2C4
100
AcDbEntity
  8
BODEN-2_4
 62
     7
100
AcDbVertex
100
AcDb2dVertex
 10
63.459692
 20
144.364659
 30
0.0
  0
SEQEND
  5
2C5
100
AcDbEntity
  8
BODEN-2_4
 62
     7
  0
LINE
  5
2BE
100
AcDbEntity
  8
BODEN-2_4
 62
     7
100
AcDbLine
 10
65.74758
 20
147.747054
 30
0.0
 11
65.74758
 21
144.364659
 31
0.0
  0
LINE
  5
2BD
100
AcDbEntity
  8
BODEN-2_4
 62
     7
100
AcDbLine
 10
137.076904
 20
137.102743
 30
0.0
 11
136.977686
 21
137.102743
 31
0.0
  0
LINE
  5
2BC
100
AcDbEntity
  8
BODEN-2_4
 62
     7
100
AcDbLine
 10
147.04012
 20
147.747054
 30
0.0
 11
147.04012
 21
144.364659
 31
0.0
  0
POLYLINE
  5
2B5
100
AcDbEntity
  8
BODEN-2_4
 62
     7
100
AcDb2dPolyline
 66
     1
 10
0.0
 20
0.0
 30
0.0
  0
VERTEX
  5
2B6
100
AcDbEntity
  8
BODEN-2_4
 62
     7
100
AcDbVertex
100
AcDb2dVertex
 10
147.04012
 20
147.747054
 30
0.0
  0
VERTEX
  5
2B7
100
AcDbEntity
  8
BODEN-2_4
 62
     7
100
AcDbVertex
100
AcDb2dVertex
 10
147.736719
 20
148.045916
 30
0.0
  0
VERTEX
  5
2B8
100
AcDbEntity
  8
BODEN-2_4
 62
     7
100
AcDbVertex
100
AcDb2dVertex
 10
148.532536
 20
148.045916
 30
0.0
  0
VERTEX
  5
2B9
100
AcDbEntity
  8
BODEN-2_4
 62
     7
100
AcDbVertex
100
AcDb2dVertex
 10
149.328353
 20
147.747054
 30
0.0
  0
VERTEX
  5
2BA
100
AcDbEntity
  8
BODEN-2_4
 62
     7
100
AcDbVertex
100
AcDb2dVertex
 10
149.328353
 20
144.364659
 30
0.0
  0
SEQEND
  5
2BB
100
AcDbEntity
  8
BODEN-2_4
 62
     7
  0
LINE
  5
2B4
100
AcDbEntity
  8
BODEN-2_4
 62
     7
100
AcDbLine
 10
156.19305
 20
147.747054
 30
0.0
 11
156.19305
 21
144.364659
 31
0.0
  0
LINE
  5
2B3
100
AcDbEntity
  8
BODEN-2_4
 62
     7
100
AcDbLine
 10
153.904818
 20
147.747054
 30
0.0
 11
153.904818
 21
144.364659
 31
0.0
  0
LINE
  5
2B2
100
AcDbEntity
  8
BODEN-2_4
  6
AI9-LType4
 62
     7
100
AcDbLine
 10
151.616585
 20
127.202916
 30
0.0
 11
151.616585
 21
149.33886
 31
0.0
  0
POLYLINE
  5
2A8
100
AcDbEntity
  8
BODEN-2_4
 62
     7
100
AcDb2dPolyline
 66
     1
 10
0.0
 20
0.0
 30
0.0
  0
VERTEX
  5
2A9
100
AcDbEntity
  8
BODEN-2_4
 62
     7
100
AcDbVertex
100
AcDb2dVertex
 10
156.19305
 20
144.364659
 30
0.0
  0
VERTEX
  5
2AA
100
AcDbEntity
  8
BODEN-2_4
 62
     7
100
AcDbVertex
100
AcDb2dVertex
 10
155.397233
 20
143.967095
 30
0.0
  0
VERTEX
  5
2AB
100
AcDbEntity
  8
BODEN-2_4
 62
     7
100
AcDbVertex
100
AcDb2dVertex
 10
154.601416
 20
143.967095
 30
0.0
  0
VERTEX
  5
2AC
100
AcDbEntity
  8
BODEN-2_4
 62
     7
100
AcDbVertex
100
AcDb2dVertex
 10
153.904818
 20
144.364659
 30
0.0
  0
VERTEX
  5
2AD
100
AcDbEntity
  8
BODEN-2_4
 62
     7
100
AcDbVertex
100
AcDb2dVertex
 10
152.413091
 20
143.967095
 30
0.0
  0
VERTEX
  5
2AE
100
AcDbEntity
  8
BODEN-2_4
 62
     7
100
AcDbVertex
100
AcDb2dVertex
 10
150.820768
 20
143.967095
 30
0.0
  0
VERTEX
  5
2AF
100
AcDbEntity
  8
BODEN-2_4
 62
     7
100
AcDbVertex
100
AcDb2dVertex
 10
149.328353
 20
144.364659
 30
0.0
  0
SEQEND
  5
2B0
100
AcDbEntity
  8
BODEN-2_4
 62
     7
  0
LINE
  5
2A7
100
AcDbEntity
  8
BODEN-2_4
 62
     7
100
AcDbLine
 10
148.134972
 20
143.967095
 30
0.0
 11
154.99898
 21
143.967095
 31
0.0
  0
LINE
  5
2A6
100
AcDbEntity
  8
BODEN-2_4
 62
     7
100
AcDbLine
 10
156.392177
 20
143.967095
 30
0.0
 11
146.840994
 21
143.967095
 31
0.0
  0
LINE
  5
2A5
100
AcDbEntity
  8
BODEN-2_4
 62
     7
100
AcDbLine
 10
156.392177
 20
143.171278
 30
0.0
 11
146.840994
 21
143.171278
 31
0.0
  0
LINE
  5
2A4
100
AcDbEntity
  8
BODEN-2_4
 62
     7
100
AcDbLine
 10
136.992844
 20
139.68932
 30
0.0
 11
170.419227
 21
139.68932
 31
0.0
  0
LINE
  5
2A3
100
AcDbEntity
  8
BODEN-2_4
 62
     7
100
AcDbLine
 10
167.732742
 20
139.68932
 30
0.0
 11
136.992844
 21
139.68932
 31
0.0
  0
LINE
  5
2A2
100
AcDbEntity
  8
BODEN-2_4
 62
     7
100
AcDbLine
 10
135.999967
 20
139.68932
 30
0.0
 11
170.419227
 21
139.68932
 31
0.0
  0
LINE
  5
2A1
100
AcDbEntity
  8
BODEN-2_4
 62
     7
100
AcDbLine
 10
156.392177
 20
143.171278
 30
0.0
 11
156.392177
 21
143.967095
 31
0.0
  0
LINE
  5
2A0
100
AcDbEntity
  8
BODEN-2_4
 62
     7
100
AcDbLine
 10
146.840994
 20
143.171278
 30
0.0
 11
146.840994
 21
143.967095
 31
0.0
  0
POLYLINE
  5
29A
100
AcDbEntity
  8
BODEN-2_4
 62
     7
100
AcDb2dPolyline
 66
     1
 10
0.0
 20
0.0
 30
0.0
  0
VERTEX
  5
29B
100
AcDbEntity
  8
BODEN-2_4
 62
     7
100
AcDbVertex
100
AcDb2dVertex
 10
149.328353
 20
144.364659
 30
0.0
  0
VERTEX
  5
29C
100
AcDbEntity
  8
BODEN-2_4
 62
     7
100
AcDbVertex
100
AcDb2dVertex
 10
148.532536
 20
143.967095
 30
0.0
  0
VERTEX
  5
29D
100
AcDbEntity
  8
BODEN-2_4
 62
     7
100
AcDbVertex
100
AcDb2dVertex
 10
147.736719
 20
143.967095
 30
0.0
  0
VERTEX
  5
29E
100
AcDbEntity
  8
BODEN-2_4
 62
     7
100
AcDbVertex
100
AcDb2dVertex
 10
147.04012
 20
144.364659
 30
0.0
  0
SEQEND
  5
29F
100
AcDbEntity
  8
BODEN-2_4
 62
     7
  0
POLYLINE
  5
294
100
AcDbEntity
  8
BODEN-2_4
 62
     7
100
AcDb2dPolyline
 66
     1
 10
0.0
 20
0.0
 30
0.0
  0
VERTEX
  5
295
100
AcDbEntity
  8
BODEN-2_4
 62
     7
100
AcDbVertex
100
AcDb2dVertex
 10
149.328353
 20
147.747054
 30
0.0
  0
VERTEX
  5
296
100
AcDbEntity
  8
BODEN-2_4
 62
     7
100
AcDbVertex
100
AcDb2dVertex
 10
150.820768
 20
148.045916
 30
0.0
  0
VERTEX
  5
297
100
AcDbEntity
  8
BODEN-2_4
 62
     7
100
AcDbVertex
100
AcDb2dVertex
 10
152.413091
 20
148.045916
 30
0.0
  0
VERTEX
  5
298
100
AcDbEntity
  8
BODEN-2_4
 62
     7
100
AcDbVertex
100
AcDb2dVertex
 10
153.904818
 20
147.747054
 30
0.0
  0
SEQEND
  5
299
100
AcDbEntity
  8
BODEN-2_4
 62
     7
  0
LINE
  5
293
100
AcDbEntity
  8
BODEN-2_4
 62
     7
100
AcDbLine
 10
154.99898
 20
148.145479
 30
0.0
 11
148.134972
 21
148.145479
 31
0.0
  0
POLYLINE
  5
28D
100
AcDbEntity
  8
BODEN-2_4
 62
     7
100
AcDb2dPolyline
 66
     1
 10
0.0
 20
0.0
 30
0.0
  0
VERTEX
  5
28E
100
AcDbEntity
  8
BODEN-2_4
 62
     7
100
AcDbVertex
100
AcDb2dVertex
 10
153.904818
 20
147.747054
 30
0.0
  0
VERTEX
  5
28F
100
AcDbEntity
  8
BODEN-2_4
 62
     7
100
AcDbVertex
100
AcDb2dVertex
 10
154.601416
 20
148.045916
 30
0.0
  0
VERTEX
  5
290
100
AcDbEntity
  8
BODEN-2_4
 62
     7
100
AcDbVertex
100
AcDb2dVertex
 10
155.397233
 20
148.045916
 30
0.0
  0
VERTEX
  5
291
100
AcDbEntity
  8
BODEN-2_4
 62
     7
100
AcDbVertex
100
AcDb2dVertex
 10
156.19305
 20
147.747054
 30
0.0
  0
SEQEND
  5
292
100
AcDbEntity
  8
BODEN-2_4
 62
     7
  0
HATCH
  5
28C
100
AcDbEntity
  8
BODEN-2_4
 62
     7
100
AcDbHatch
 10
0.0
 20
0.0
 30
0.0
210
0.0
220
0.0
230
1.0
  2
SOLID
 70
     1
 71
     0
 91
        1
 92
        3
 72
     0
 73
     1
 93
        4
 10
80.164099121093741
 20
134.57404242621527
 10
132.4019097222222
 20
134.57404242621527
 10
132.4019097222222
 20
126.87976616753471
 10
80.164099121093741
 20
126.87976616753471
 97
        0
 75
     0
 76
     1
 98
        1
 10
0.0
 20
0.0
  0
HATCH
  5
28B
100
AcDbEntity
  8
BODEN-2_4
 62
     7
100
AcDbHatch
 10
0.0
 20
0.0
 30
0.0
210
0.0
220
0.0
230
1.0
  2
SOLID
 70
     1
 71
     0
 91
        4
 92
        1
 93
        1
 72
     4
 94
        3
 73
     0
 74
     0
 95
       17
 96
       13
 40
0.0
 40
0.0
 40
0.0
 40
0.0
 40
1.0
 40
1.0
 40
1.0
 40
2.0
 40
2.0
 40
2.0
 40
3.0
 40
3.0
 40
3.0
 40
4.0
 40
4.0
 40
4.0
 40
4.0
 10
74.023044162326386
 20
139.69931098090277
 10
74.023044162326386
 20
139.69931098090277
 10
74.023044162326386
 20
137.10274251302081
 10
74.023044162326386
 20
137.10274251302081
 10
74.023044162326386
 20
137.10274251302081
 10
69.501184082031244
 20
137.10274251302081
 10
69.501184082031244
 20
137.10274251302081
 10
69.501184082031244
 20
137.10274251302081
 10
69.501184082031244
 20
139.69931098090277
 10
69.501184082031244
 20
139.69931098090277
 10
69.501184082031244
 20
139.69931098090277
 10
74.023044162326386
 20
139.69931098090277
 10
74.023044162326386
 20
139.69931098090277
 97
        0
 92
        1
 93
        1
 72
     4
 94
        3
 73
     0
 74
     0
 95
       17
 96
       13
 40
0.0
 40
0.0
 40
0.0
 40
0.0
 40
1.0
 40
1.0
 40
1.0
 40
2.0
 40
2.0
 40
2.0
 40
3.0
 40
3.0
 40
3.0
 40
4.0
 40
4.0
 40
4.0
 40
4.0
 10
64.979496256510416
 20
139.69931098090277
 10
64.979496256510416
 20
139.69931098090277
 10
64.979496256510416
 20
137.10274251302081
 10
64.979496256510416
 20
137.10274251302081
 10
64.979496256510416
 20
137.10274251302081
 10
60.457463921440969
 20
137.10274251302081
 10
60.457463921440969
 20
137.10274251302081
 10
60.457463921440969
 20
137.10274251302081
 10
60.457463921440969
 20
139.69931098090277
 10
60.457463921440969
 20
139.69931098090277
 10
60.457463921440969
 20
139.69931098090277
 10
64.979496256510416
 20
139.69931098090277
 10
64.979496256510416
 20
139.69931098090277
 97
        0
 92
        1
 93
        1
 72
     4
 94
        3
 73
     0
 74
     0
 95
       17
 96
       13
 40
0.0
 40
0.0
 40
0.0
 40
0.0
 40
1.0
 40
1.0
 40
1.0
 40
2.0
 40
2.0
 40
2.0
 40
3.0
 40
3.0
 40
3.0
 40
4.0
 40
4.0
 40
4.0
 40
4.0
 10
55.935776095920133
 20
139.69931098090277
 10
55.935776095920133
 20
139.69931098090277
 10
55.935776095920133
 20
137.10274251302081
 10
55.935776095920133
 20
137.10274251302081
 10
55.935776095920133
 20
137.10274251302081
 10
51.413743760850693
 20
137.10274251302081
 10
51.413743760850693
 20
137.10274251302081
 10
51.413743760850693
 20
137.10274251302081
 10
51.413743760850693
 20
139.69931098090277
 10
51.413743760850693
 20
139.69931098090277
 10
51.413743760850693
 20
139.69931098090277
 10
55.935776095920133
 20
139.69931098090277
 10
55.935776095920133
 20
139.69931098090277
 97
        0
 92
        1
 93
        1
 72
     4
 94
        3
 73
     0
 74
     0
 95
       17
 96
       13
 40
0.0
 40
0.0
 40
0.0
 40
0.0
 40
1.0
 40
1.0
 40
1.0
 40
2.0
 40
2.0
 40
2.0
 40
3.0
 40
3.0
 40
3.0
 40
4.0
 40
4.0
 40
4.0
 40
4.0
 10
46.892055935329857
 20
139.69931098090277
 10
46.892055935329857
 20
139.69931098090277
 10
46.892055935329857
 20
137.10274251302081
 10
46.892055935329857
 20
137.10274251302081
 10
46.892055935329857
 20
137.10274251302081
 10
42.370195855034716
 20
137.10274251302081
 10
42.370195855034716
 20
137.10274251302081
 10
42.370195855034716
 20
137.10274251302081
 10
42.370195855034716
 20
139.69931098090277
 10
42.370195855034716
 20
139.69931098090277
 10
42.370195855034716
 20
139.69931098090277
 10
46.892055935329857
 20
139.69931098090277
 10
46.892055935329857
 20
139.69931098090277
 97
        0
 75
     0
 76
     1
 98
        1
 10
0.0
 20
0.0
  0
HATCH
  5
28A
100
AcDbEntity
  8
BODEN-2_4
 62
     7
100
AcDbHatch
 10
0.0
 20
0.0
 30
0.0
210
0.0
220
0.0
230
1.0
  2
SOLID
 70
     1
 71
     0
 91
        4
 92
       16
 93
        1
 72
     4
 94
        3
 73
     0
 74
     0
 95
       17
 96
       13
 40
0.0
 40
0.0
 40
0.0
 40
0.0
 40
1.0
 40
1.0
 40
1.0
 40
2.0
 40
2.0
 40
2.0
 40
3.0
 40
3.0
 40
3.0
 40
4.0
 40
4.0
 40
4.0
 40
4.0
 10
138.76500108506943
 20
139.69931098090277
 10
138.76500108506943
 20
139.69931098090277
 10
138.76500108506943
 20
137.10274251302081
 10
138.76500108506943
 20
137.10274251302081
 10
138.76500108506943
 20
137.10274251302081
 10
143.28703342013887
 20
137.10274251302081
 10
143.28703342013887
 20
137.10274251302081
 10
143.28703342013887
 20
137.10274251302081
 10
143.28703342013887
 20
139.69931098090277
 10
143.28703342013887
 20
139.69931098090277
 10
143.28703342013887
 20
139.69931098090277
 10
138.76500108506943
 20
139.69931098090277
 10
138.76500108506943
 20
139.69931098090277
 97
        0
 92
       16
 93
        1
 72
     4
 94
        3
 73
     0
 74
     0
 95
       17
 96
       13
 40
0.0
 40
0.0
 40
0.0
 40
0.0
 40
1.0
 40
1.0
 40
1.0
 40
2.0
 40
2.0
 40
2.0
 40
3.0
 40
3.0
 40
3.0
 40
4.0
 40
4.0
 40
4.0
 40
4.0
 10
147.80837673611109
 20
139.69931098090277
 10
147.80837673611109
 20
139.69931098090277
 10
147.80837673611109
 20
137.10274251302081
 10
147.80837673611109
 20
137.10274251302081
 10
147.80837673611109
 20
137.10274251302081
 10
152.33040907118055
 20
137.10274251302081
 10
152.33040907118055
 20
137.10274251302081
 10
152.33040907118055
 20
137.10274251302081
 10
152.33040907118055
 20
139.69931098090277
 10
152.33040907118055
 20
139.69931098090277
 10
152.33040907118055
 20
139.69931098090277
 10
147.80837673611109
 20
139.69931098090277
 10
147.80837673611109
 20
139.69931098090277
 97
        0
 92
       16
 93
        1
 72
     4
 94
        3
 73
     0
 74
     0
 95
       17
 96
       13
 40
0.0
 40
0.0
 40
0.0
 40
0.0
 40
1.0
 40
1.0
 40
1.0
 40
2.0
 40
2.0
 40
2.0
 40
3.0
 40
3.0
 40
3.0
 40
4.0
 40
4.0
 40
4.0
 40
4.0
 10
156.85244140624999
 20
139.69931098090277
 10
156.85244140624999
 20
139.69931098090277
 10
156.85244140624999
 20
137.10274251302081
 10
156.85244140624999
 20
137.10274251302081
 10
156.85244140624999
 20
137.10274251302081
 10
161.37447374131943
 20
137.10274251302081
 10
161.37447374131943
 20
137.10274251302081
 10
161.37447374131943
 20
137.10274251302081
 10
161.37447374131943
 20
139.69931098090277
 10
161.37447374131943
 20
139.69931098090277
 10
161.37447374131943
 20
139.69931098090277
 10
156.85244140624999
 20
139.69931098090277
 10
156.85244140624999
 20
139.69931098090277
 97
        0
 92
       16
 93
        1
 72
     4
 94
        3
 73
     0
 74
     0
 95
       17
 96
       13
 40
0.0
 40
0.0
 40
0.0
 40
0.0
 40
1.0
 40
1.0
 40
1.0
 40
2.0
 40
2.0
 40
2.0
 40
3.0
 40
3.0
 40
3.0
 40
4.0
 40
4.0
 40
4.0
 40
4.0
 10
165.89581705729165
 20
139.69931098090277
 10
165.89581705729165
 20
139.69931098090277
 10
165.89581705729165
 20
137.10274251302081
 10
165.89581705729165
 20
137.10274251302081
 10
165.89581705729165
 20
137.10274251302081
 10
170.41784939236109
 20
137.10274251302081
 10
170.41784939236109
 20
137.10274251302081
 10
170.41784939236109
 20
137.10274251302081
 10
170.41784939236109
 20
139.69931098090277
 10
170.41784939236109
 20
139.69931098090277
 10
170.41784939236109
 20
139.69931098090277
 10
165.89581705729165
 20
139.69931098090277
 10
165.89581705729165
 20
139.69931098090277
 97
        0
 75
     0
 76
     1
 98
        1
 10
0.0
 20
0.0
  0
LINE
  5
289
100
AcDbEntity
  8
BODEN-2_4
  6
AI9-LType3
 62
     7
100
AcDbLine
 10
41.553191
 20
136.662459
 30
0.0
 11
41.553191
 21
181.822149
 31
0.0
  0
LINE
  5
288
100
AcDbEntity
  8
BODEN-2_4
  6
AI9-LType3
 62
     7
100
AcDbLine
 10
171.235026
 20
136.897415
 30
0.0
 11
171.235026
 21
181.822149
 31
0.0
  0
HATCH
  5
286
100
AcDbEntity
  8
BODEN-2_4
 62
   154
100
AcDbHatch
 10
0.0
 20
0.0
 30
0.0
210
0.0
220
0.0
230
1.0
  2
SOLID
 70
     1
 71
     0
 91
        1
 92
        1
 93
        1
 72
     4
 94
        3
 73
     0
 74
     0
 95
       23
 96
       19
 40
0.0
 40
0.0
 40
0.0
 40
0.0
 40
1.0
 40
1.0
 40
1.0
 40
2.0
 40
2.0
 40
2.0
 40
3.0
 40
3.0
 40
3.0
 40
4.0
 40
4.0
 40
4.0
 40
5.0
 40
5.0
 40
5.0
 40
6.0
 40
6.0
 40
6.0
 40
6.0
 10
135.80497504340278
 20
97.754584418402771
 10
135.80497504340278
 20
97.754584418402771
 10
135.37709418402775
 20
98.021234809027774
 10
134.79211697048609
 20
98.300287543402774
 10
129.97380642361111
 20
100.60402289496527
 10
131.14789496527777
 20
95.933506944444431
 10
126.37919379340276
 20
98.868728298611103
 10
125.70602213541666
 20
99.2842068142361
 10
125.08590494791666
 20
98.274449327256931
 10
125.75700954861109
 20
97.860004340277769
 10
125.75700954861109
 20
97.860004340277769
 10
126.18695746527777
 20
97.595421006944434
 10
126.77193467881943
 20
97.316368272569434
 10
131.58404405381944
 20
95.011599392361106
 10
130.41408962673609
 20
99.674880642361103
 10
135.18692491319445
 20
96.745860460069437
 10
135.8587185329861
 20
96.332449001736109
 10
136.48021375868055
 20
97.341172960069429
 10
135.80497504340278
 20
97.754584418402771
 97
        0
 75
     0
 76
     1
 98
        1
 10
0.0
 20
0.0
  0
HATCH
  5
285
100
AcDbEntity
  8
BODEN-2_4
 62
   154
100
AcDbHatch
 10
0.0
 20
0.0
 30
0.0
210
0.0
220
0.0
230
1.0
  2
SOLID
 70
     1
 71
     0
 91
        1
 92
        1
 93
        1
 72
     4
 94
        3
 73
     0
 74
     0
 95
       23
 96
       19
 40
0.0
 40
0.0
 40
0.0
 40
0.0
 40
1.0
 40
1.0
 40
1.0
 40
2.0
 40
2.0
 40
2.0
 40
3.0
 40
3.0
 40
3.0
 40
4.0
 40
4.0
 40
4.0
 40
5.0
 40
5.0
 40
5.0
 40
6.0
 40
6.0
 40
6.0
 40
6.0
 10
135.80497504340278
 20
94.968191189236109
 10
135.80497504340278
 20
94.968191189236109
 10
135.37709418402775
 20
95.232774522569443
 10
134.79211697048609
 20
95.513894314236097
 10
129.97380642361111
 20
97.81866319444444
 10
131.14789496527777
 20
93.147113715277769
 10
126.37919379340276
 20
96.084402126736109
 10
125.70602213541666
 20
96.496780056423603
 10
125.08590494791666
 20
95.489089626736103
 10
125.75700954861109
 20
95.075678168402774
 10
125.75700954861109
 20
95.075678168402774
 10
126.18695746527777
 20
94.810061306423606
 10
126.77193467881943
 20
94.529975043402771
 10
131.58404405381944
 20
92.227273220486097
 10
130.41408962673609
 20
96.88848741319444
 10
135.18692491319445
 20
93.959467230902774
 10
135.8587185329861
 20
93.546055772569431
 10
136.48021375868055
 20
94.554779730902766
 10
135.80497504340278
 20
94.968191189236109
 97
        0
 75
     0
 76
     1
 98
        1
 10
0.0
 20
0.0
  0
HATCH
  5
284
100
AcDbEntity
  8
BODEN-2_4
 62
   154
100
AcDbHatch
 10
0.0
 20
0.0
 30
0.0
210
0.0
220
0.0
230
1.0
  2
SOLID
 70
     1
 71
     0
 91
        1
 92
        1
 93
        1
 72
     4
 94
        3
 73
     0
 74
     0
 95
       23
 96
       19
 40
0.0
 40
0.0
 40
0.0
 40
0.0
 40
1.0
 40
1.0
 40
1.0
 40
2.0
 40
2.0
 40
2.0
 40
3.0
 40
3.0
 40
3.0
 40
4.0
 40
4.0
 40
4.0
 40
5.0
 40
5.0
 40
5.0
 40
6.0
 40
6.0
 40
6.0
 40
6.0
 10
135.80497504340278
 20
92.182831488715266
 10
135.80497504340278
 20
92.182831488715266
 10
135.37709418402775
 20
92.4474148220486
 10
134.79211697048609
 20
92.727501085069434
 10
129.97380642361111
 20
95.032269965277763
 10
131.14789496527777
 20
90.360720486111106
 10
126.37919379340276
 20
93.298008897569431
 10
125.70602213541666
 20
93.71038682725694
 10
125.08590494791666
 20
92.70269639756944
 10
125.75700954861109
 20
92.289284939236097
 10
125.75700954861109
 20
92.289284939236097
 10
126.18695746527777
 20
92.023668077256943
 10
126.77193467881943
 20
91.743581814236109
 10
131.58404405381944
 20
89.440879991319434
 10
130.41408962673609
 20
94.102094184027763
 10
135.18692491319445
 20
91.173074001736097
 10
135.8587185329861
 20
90.759662543402769
 10
136.48021375868055
 20
91.770453559027771
 10
135.80497504340278
 20
92.182831488715266
 97
        0
 75
     0
 76
     1
 98
        1
 10
0.0
 20
0.0
  0
HATCH
  5
283
100
AcDbEntity
  8
BODEN-2_4
 62
   154
100
AcDbHatch
 10
0.0
 20
0.0
 30
0.0
210
0.0
220
0.0
230
1.0
  2
SOLID
 70
     1
 71
     0
 91
        1
 92
        1
 93
        1
 72
     4
 94
        3
 73
     0
 74
     0
 95
       23
 96
       19
 40
0.0
 40
0.0
 40
0.0
 40
0.0
 40
1.0
 40
1.0
 40
1.0
 40
2.0
 40
2.0
 40
2.0
 40
3.0
 40
3.0
 40
3.0
 40
4.0
 40
4.0
 40
4.0
 40
5.0
 40
5.0
 40
5.0
 40
6.0
 40
6.0
 40
6.0
 40
6.0
 10
135.80497504340278
 20
100.5368435329861
 10
135.80497504340278
 20
100.5368435329861
 10
135.37709418402775
 20
100.80142686631943
 10
134.79211697048609
 20
101.08047960069443
 10
129.97380642361111
 20
103.38524848090277
 10
131.14789496527777
 20
98.715766059027771
 10
126.37919379340276
 20
101.65098741319443
 10
125.70602213541666
 20
102.06439887152777
 10
125.08590494791666
 20
101.05567491319444
 10
125.75700954861109
 20
100.64122992621527
 10
125.75700954861109
 20
100.64122992621527
 10
126.18695746527777
 20
100.37561306423611
 10
126.77193467881943
 20
100.09656032986111
 10
131.58404405381944
 20
97.793858506944431
 10
130.41408962673609
 20
102.45507269965277
 10
135.18692491319445
 20
99.526052517361109
 10
135.8587185329861
 20
99.112641059027766
 10
136.48021375868055
 20
100.1213650173611
 10
135.80497504340278
 20
100.5368435329861
 97
        0
 75
     0
 76
     1
 98
        1
 10
0.0
 20
0.0
  0
LINE
  5
282
100
AcDbEntity
  8
BODEN-2_4
 62
     7
100
AcDbLine
 10
105.859516
 20
189.154346
 30
0.0
 11
105.262998
 21
189.750864
 31
0.0
  0
LINE
  5
281
100
AcDbEntity
  8
BODEN-2_4
 62
     7
100
AcDbLine
 10
108.959413
 20
188.349399
 30
0.0
 11
108.920828
 21
188.388329
 31
0.0
  0
LINE
  5
280
100
AcDbEntity
  8
BODEN-2_4
 62
     7
100
AcDbLine
 10
102.662984
 20
189.481458
 30
0.0
 11
101.75968
 21
190.384762
 31
0.0
  0
LINE
  5
27F
100
AcDbEntity
  8
BODEN-2_4
 62
     7
100
AcDbLine
 10
102.487284
 20
186.796522
 30
0.0
 11
101.837195
 21
187.446784
 31
0.0
  0
LINE
  5
27E
100
AcDbEntity
  8
BODEN-2_4
 62
     7
100
AcDbLine
 10
97.920466
 20
186.190013
 30
0.0
 11
96.766703
 21
187.343604
 31
0.0
  0
LINE
  5
27D
100
AcDbEntity
  8
BODEN-2_4
 62
     7
100
AcDbLine
 10
97.375796
 20
186.160558
 30
0.0
 11
96.174147
 21
187.362207
 31
0.0
  0
LINE
  5
27C
100
AcDbEntity
  8
BODEN-2_4
 62
     7
100
AcDbLine
 10
97.952505
 20
189.601002
 30
0.0
 11
96.804255
 21
190.749425
 31
0.0
  0
LINE
  5
27B
100
AcDbEntity
  8
BODEN-2_4
 62
     7
100
AcDbLine
 10
97.393022
 20
189.586533
 30
0.0
 11
96.227546
 21
190.752181
 31
0.0
  0
LINE
  5
27A
100
AcDbEntity
  8
BODEN-2_4
 62
     7
100
AcDbLine
 10
96.822514
 20
186.139887
 30
0.0
 11
95.574873
 21
187.387528
 31
0.0
  0
LINE
  5
279
100
AcDbEntity
  8
BODEN-2_4
 62
     7
100
AcDbLine
 10
96.260274
 20
186.128346
 30
0.0
 11
94.968708
 21
187.419912
 31
0.0
  0
LINE
  5
278
100
AcDbEntity
  8
BODEN-2_4
 62
     7
100
AcDbLine
 10
95.688216
 20
186.126624
 30
0.0
 11
94.356687
 21
187.457981
 31
0.0
  0
LINE
  5
277
100
AcDbEntity
  8
BODEN-2_4
 62
     7
100
AcDbLine
 10
95.105995
 20
186.134892
 30
0.0
 11
92.195062
 21
189.045825
 31
0.0
  0
LINE
  5
276
100
AcDbEntity
  8
BODEN-2_4
 62
     7
100
AcDbLine
 10
94.513094
 20
186.15384
 30
0.0
 11
92.113757
 21
188.553349
 31
0.0
  0
LINE
  5
275
100
AcDbEntity
  8
BODEN-2_4
 62
     7
100
AcDbLine
 10
93.876957
 20
186.216196
 30
0.0
 11
92.167501
 21
187.925652
 31
0.0
  0
LINE
  5
274
100
AcDbEntity
  8
BODEN-2_4
 62
     7
100
AcDbLine
 10
96.839395
 20
189.566551
 30
0.0
 11
95.658761
 21
190.746841
 31
0.0
  0
LINE
  5
273
100
AcDbEntity
  8
BODEN-2_4
 62
     7
100
AcDbLine
 10
96.290936
 20
189.540713
 30
0.0
 11
95.098071
 21
190.73375
 31
0.0
  0
LINE
  5
272
100
AcDbEntity
  8
BODEN-2_4
 62
     7
100
AcDbLine
 10
95.748505
 20
189.509363
 30
0.0
 11
94.544789
 21
190.713251
 31
0.0
  0
LINE
  5
271
100
AcDbEntity
  8
BODEN-2_4
 62
     7
100
AcDbLine
 10
95.211243
 20
189.472845
 30
0.0
 11
94.010799
 21
190.673288
 31
0.0
  0
LINE
  5
270
100
AcDbEntity
  8
BODEN-2_4
 62
     7
100
AcDbLine
 10
94.679148
 20
189.431159
 30
0.0
 11
93.560353
 21
190.549782
 31
0.0
  0
LINE
  5
26F
100
AcDbEntity
  8
BODEN-2_4
 62
     7
100
AcDbLine
 10
94.157388
 20
189.378966
 30
0.0
 11
93.17812
 21
190.358234
 31
0.0
  0
LINE
  5
26E
100
AcDbEntity
  8
BODEN-2_4
 62
     7
100
AcDbLine
 10
93.772226
 20
189.190347
 30
0.0
 11
92.851697
 21
190.110704
 31
0.0
  0
LINE
  5
26D
100
AcDbEntity
  8
BODEN-2_4
 62
     7
100
AcDbLine
 10
93.51505
 20
188.87357
 30
0.0
 11
92.577295
 21
189.811325
 31
0.0
  0
LINE
  5
26C
100
AcDbEntity
  8
BODEN-2_4
 62
     7
100
AcDbLine
 10
93.409285
 20
188.405554
 30
0.0
 11
92.355948
 21
189.458892
 31
0.0
  0
LINE
  5
26B
100
AcDbEntity
  8
BODEN-2_4
 62
     7
100
AcDbLine
 10
102.000837
 20
186.700576
 30
0.0
 11
101.288391
 21
187.413022
 31
0.0
  0
LINE
  5
26A
100
AcDbEntity
  8
BODEN-2_4
 62
     7
100
AcDbLine
 10
101.514734
 20
186.612382
 30
0.0
 11
100.742688
 21
187.384772
 31
0.0
  0
LINE
  5
269
100
AcDbEntity
  8
BODEN-2_4
 62
     7
100
AcDbLine
 10
101.02243
 20
186.530733
 30
0.0
 11
100.191473
 21
187.36169
 31
0.0
  0
LINE
  5
268
100
AcDbEntity
  8
BODEN-2_4
 62
     7
100
AcDbLine
 10
100.52358
 20
186.455975
 30
0.0
 11
99.635434
 21
187.34412
 31
0.0
  0
LINE
  5
267
100
AcDbEntity
  8
BODEN-2_4
 62
     7
100
AcDbLine
 10
100.01784
 20
186.387762
 30
0.0
 11
99.073539
 21
187.332235
 31
0.0
  0
LINE
  5
266
100
AcDbEntity
  8
BODEN-2_4
 62
     7
100
AcDbLine
 10
99.504865
 20
186.326956
 30
0.0
 11
98.505787
 21
187.326034
 31
0.0
  0
LINE
  5
265
100
AcDbEntity
  8
BODEN-2_4
 62
     7
100
AcDbLine
 10
98.984311
 20
186.273385
 30
0.0
 11
97.932179
 21
187.325689
 31
0.0
  0
LINE
  5
264
100
AcDbEntity
  8
BODEN-2_4
 62
     7
100
AcDbLine
 10
98.456523
 20
186.227737
 30
0.0
 11
97.352714
 21
187.331373
 31
0.0
  0
LINE
  5
263
100
AcDbEntity
  8
BODEN-2_4
 62
     7
100
AcDbLine
 10
100.252795
 20
189.596179
 30
0.0
 11
99.199285
 21
190.649689
 31
0.0
  0
LINE
  5
262
100
AcDbEntity
  8
BODEN-2_4
 62
     7
100
AcDbLine
 10
100.844318
 20
189.578437
 30
0.0
 11
99.822158
 21
190.600425
 31
0.0
  0
LINE
  5
261
100
AcDbEntity
  8
BODEN-2_4
 62
     7
100
AcDbLine
 10
101.443076
 20
189.55346
 30
0.0
 11
100.456401
 21
190.540135
 31
0.0
  0
LINE
  5
260
100
AcDbEntity
  8
BODEN-2_4
 62
     7
100
AcDbLine
 10
102.049068
 20
189.521248
 30
0.0
 11
101.102011
 21
190.468477
 31
0.0
  0
LINE
  5
25F
100
AcDbEntity
  8
BODEN-2_4
 62
     7
100
AcDbLine
 10
99.667818
 20
189.607031
 30
0.0
 11
98.586058
 21
190.688791
 31
0.0
  0
LINE
  5
25E
100
AcDbEntity
  8
BODEN-2_4
 62
     7
100
AcDbLine
 10
99.089731
 20
189.611338
 30
0.0
 11
97.983167
 21
190.718075
 31
0.0
  0
LINE
  5
25D
100
AcDbEntity
  8
BODEN-2_4
 62
     7
100
AcDbLine
 10
98.517845
 20
189.609271
 30
0.0
 11
97.389232
 21
190.738228
 31
0.0
  0
LINE
  5
25C
100
AcDbEntity
  8
BODEN-2_4
 62
     7
100
AcDbLine
 10
107.60549
 20
187.982152
 30
0.0
 11
107.469065
 21
188.118061
 31
0.0
  0
LINE
  5
25B
100
AcDbEntity
  8
BODEN-2_4
 62
     7
100
AcDbLine
 10
107.894189
 20
188.840842
 30
0.0
 11
107.584131
 21
189.151417
 31
0.0
  0
LINE
  5
25A
100
AcDbEntity
  8
BODEN-2_4
 62
     7
100
AcDbLine
 10
102.956506
 20
186.892124
 30
0.0
 11
102.364294
 21
187.48468
 31
0.0
  0
LINE
  5
259
100
AcDbEntity
  8
BODEN-2_4
 62
     7
100
AcDbLine
 10
103.431241
 20
186.991343
 30
0.0
 11
102.894839
 21
187.527916
 31
0.0
  0
LINE
  5
258
100
AcDbEntity
  8
BODEN-2_4
 62
     7
100
AcDbLine
 10
103.903563
 20
187.092973
 30
0.0
 11
103.420905
 21
187.575803
 31
0.0
  0
LINE
  5
257
100
AcDbEntity
  8
BODEN-2_4
 62
     7
100
AcDbLine
 10
104.373819
 20
187.19667
 30
0.0
 11
103.941804
 21
187.628341
 31
0.0
  0
LINE
  5
256
100
AcDbEntity
  8
BODEN-2_4
 62
     7
100
AcDbLine
 10
104.841663
 20
187.302607
 30
0.0
 11
104.458568
 21
187.685529
 31
0.0
  0
LINE
  5
255
100
AcDbEntity
  8
BODEN-2_4
 62
     7
100
AcDbLine
 10
105.307784
 20
187.410611
 30
0.0
 11
104.971198
 21
187.747196
 31
0.0
  0
LINE
  5
254
100
AcDbEntity
  8
BODEN-2_4
 62
     7
100
AcDbLine
 10
105.771322
 20
187.520681
 30
0.0
 11
105.479005
 21
187.812998
 31
0.0
  0
LINE
  5
253
100
AcDbEntity
  8
BODEN-2_4
 62
     7
100
AcDbLine
 10
106.232964
 20
187.632992
 30
0.0
 11
105.98285
 21
187.883278
 31
0.0
  0
LINE
  5
252
100
AcDbEntity
  8
BODEN-2_4
 62
     7
100
AcDbLine
 10
106.69254
 20
187.747196
 30
0.0
 11
106.482389
 21
187.957347
 31
0.0
  0
LINE
  5
251
100
AcDbEntity
  8
BODEN-2_4
 62
     7
100
AcDbLine
 10
107.150049
 20
187.863641
 30
0.0
 11
106.977794
 21
188.035895
 31
0.0
  0
LINE
  5
250
100
AcDbEntity
  8
BODEN-2_4
 62
     7
100
AcDbLine
 10
107.20517
 20
188.956425
 30
0.0
 11
106.787625
 21
189.373626
 31
0.0
  0
LINE
  5
24F
100
AcDbEntity
  8
BODEN-2_4
 62
     7
100
AcDbLine
 10
103.284824
 20
189.433398
 30
0.0
 11
102.430096
 21
190.287954
 31
0.0
  0
LINE
  5
24E
100
AcDbEntity
  8
BODEN-2_4
 62
     7
100
AcDbLine
 10
103.914932
 20
189.377071
 30
0.0
 11
103.114981
 21
190.177195
 31
0.0
  0
LINE
  5
24D
100
AcDbEntity
  8
BODEN-2_4
 62
     7
100
AcDbLine
 10
104.553653
 20
189.312131
 30
0.0
 11
103.814335
 21
190.051621
 31
0.0
  0
LINE
  5
24C
100
AcDbEntity
  8
BODEN-2_4
 62
     7
100
AcDbLine
 10
105.201675
 20
189.238062
 30
0.0
 11
104.529881
 21
189.910027
 31
0.0
  0
LINE
  5
24B
100
AcDbEntity
  8
BODEN-2_4
 62
     7
100
AcDbLine
 10
106.526487
 20
189.060639
 30
0.0
 11
106.014545
 21
189.57258
 31
0.0
  0
LINE
  5
24A
100
AcDbEntity
  8
BODEN-2_4
 62
     7
100
AcDbLine
 10
108.058865
 20
188.102558
 30
0.0
 11
107.95689
 21
188.204361
 31
0.0
  0
LINE
  5
249
100
AcDbEntity
  8
BODEN-2_4
 62
     7
100
AcDbLine
 10
108.595611
 20
188.713546
 30
0.0
 11
108.405442
 21
188.90337
 31
0.0
  0
LINE
  5
248
100
AcDbEntity
  8
BODEN-2_4
 62
     7
100
AcDbLine
 10
108.510173
 20
188.225031
 30
0.0
 11
108.440582
 21
188.29445
 31
0.0
  0
LINE
  5
247
100
AcDbEntity
  8
BODEN-2_4
 62
     7
100
AcDbLine
 10
109.309435
 20
188.573675
 30
0.0
 11
109.25638
 21
188.626385
 31
0.0
  0
LINE
  5
246
100
AcDbEntity
  8
BODEN-2_4
 62
     7
100
AcDbLine
 10
112.535422
 20
108.73686
 30
0.0
 11
113.588932
 21
107.68335
 31
0.0
  0
LINE
  5
245
100
AcDbEntity
  8
BODEN-2_4
 62
     7
100
AcDbLine
 10
111.943555
 20
108.75443
 30
0.0
 11
112.96537
 21
107.732614
 31
0.0
  0
LINE
  5
244
100
AcDbEntity
  8
BODEN-2_4
 62
     7
100
AcDbLine
 10
112.770378
 20
111.945277
 30
0.0
 11
113.714334
 21
111.000632
 31
0.0
  0
LINE
  5
243
100
AcDbEntity
  8
BODEN-2_4
 62
     7
100
AcDbLine
 10
106.554736
 20
110.70022
 30
0.0
 11
106.805539
 21
110.449761
 31
0.0
  0
LINE
  5
242
100
AcDbEntity
  8
BODEN-2_4
 62
     7
100
AcDbLine
 10
112.264638
 20
111.877064
 30
0.0
 11
113.152783
 21
110.988919
 31
0.0
  0
LINE
  5
241
100
AcDbEntity
  8
BODEN-2_4
 62
     7
100
AcDbLine
 10
104.729352
 20
110.230309
 30
0.0
 11
104.830983
 21
110.128678
 31
0.0
  0
LINE
  5
240
100
AcDbEntity
  8
BODEN-2_4
 62
     7
100
AcDbLine
 10
107.480089
 20
110.922428
 30
0.0
 11
107.817019
 21
110.585843
 31
0.0
  0
LINE
  5
23F
100
AcDbEntity
  8
BODEN-2_4
 62
     7
100
AcDbLine
 10
107.016379
 20
110.812185
 30
0.0
 11
107.309212
 21
110.519697
 31
0.0
  0
LINE
  5
23E
100
AcDbEntity
  8
BODEN-2_4
 62
     7
100
AcDbLine
 10
105.638341
 20
110.469398
 30
0.0
 11
105.809907
 21
110.297144
 31
0.0
  0
LINE
  5
23D
100
AcDbEntity
  8
BODEN-2_4
 62
     7
100
AcDbLine
 10
106.095161
 20
110.585843
 30
0.0
 11
106.305311
 21
110.375692
 31
0.0
  0
LINE
  5
23C
100
AcDbEntity
  8
BODEN-2_4
 62
     7
100
AcDbLine
 10
104.893684
 20
109.492369
 30
0.0
 11
105.204087
 21
109.181622
 31
0.0
  0
LINE
  5
23B
100
AcDbEntity
  8
BODEN-2_4
 62
     7
100
AcDbLine
 10
105.182727
 20
110.350887
 30
0.0
 11
105.318808
 21
110.214806
 31
0.0
  0
LINE
  5
23A
100
AcDbEntity
  8
BODEN-2_4
 62
     7
100
AcDbLine
 10
104.278045
 20
110.107663
 30
0.0
 11
104.346947
 21
110.038761
 31
0.0
  0
LINE
  5
239
100
AcDbEntity
  8
BODEN-2_4
 62
     7
100
AcDbLine
 10
105.583219
 20
109.376614
 30
0.0
 11
106.000076
 21
108.959413
 31
0.0
  0
LINE
  5
238
100
AcDbEntity
  8
BODEN-2_4
 62
     7
100
AcDbLine
 10
103.82846
 20
109.98364
 30
0.0
 11
103.867045
 21
109.94471
 31
0.0
  0
LINE
  5
237
100
AcDbEntity
  8
BODEN-2_4
 62
     7
100
AcDbLine
 10
116.496593
 20
108.792326
 30
0.0
 11
117.689974
 21
107.599289
 31
0.0
  0
LINE
  5
236
100
AcDbEntity
  8
BODEN-2_4
 62
     7
100
AcDbLine
 10
104.192607
 20
109.619493
 30
0.0
 11
104.382087
 21
109.429669
 31
0.0
  0
LINE
  5
235
100
AcDbEntity
  8
BODEN-2_4
 62
     7
100
AcDbLine
 10
106.928874
 20
109.178521
 30
0.0
 11
107.524875
 21
108.582175
 31
0.0
  0
LINE
  5
234
100
AcDbEntity
  8
BODEN-2_4
 62
     7
100
AcDbLine
 10
103.478783
 20
109.759364
 30
0.0
 11
103.531493
 21
109.706654
 31
0.0
  0
LINE
  5
233
100
AcDbEntity
  8
BODEN-2_4
 62
     7
100
AcDbLine
 10
109.831022
 20
111.440915
 30
0.0
 11
110.423579
 21
110.848359
 31
0.0
  0
LINE
  5
232
100
AcDbEntity
  8
BODEN-2_4
 62
     7
100
AcDbLine
 10
111.344797
 20
108.779234
 30
0.0
 11
112.331472
 21
107.792904
 31
0.0
  0
LINE
  5
231
100
AcDbEntity
  8
BODEN-2_4
 62
     7
100
AcDbLine
 10
106.261214
 20
109.272228
 30
0.0
 11
106.773155
 21
108.760286
 31
0.0
  0
LINE
  5
230
100
AcDbEntity
  8
BODEN-2_4
 62
     7
100
AcDbLine
 10
109.356977
 20
111.341697
 30
0.0
 11
109.893034
 21
110.804951
 31
0.0
  0
LINE
  5
22F
100
AcDbEntity
  8
BODEN-2_4
 62
     7
100
AcDbLine
 10
108.414399
 20
111.136369
 30
0.0
 11
108.845725
 21
110.704354
 31
0.0
  0
LINE
  5
22E
100
AcDbEntity
  8
BODEN-2_4
 62
     7
100
AcDbLine
 10
108.88431
 20
111.240066
 30
0.0
 11
109.367312
 21
110.757064
 31
0.0
  0
LINE
  5
22D
100
AcDbEntity
  8
BODEN-2_4
 62
     7
100
AcDbLine
 10
113.803217
 20
112.059654
 30
0.0
 11
114.855349
 21
111.007522
 31
0.0
  0
LINE
  5
22C
100
AcDbEntity
  8
BODEN-2_4
 62
     7
100
AcDbLine
 10
107.945866
 20
111.03026
 30
0.0
 11
108.328961
 21
110.647165
 31
0.0
  0
LINE
  5
22B
100
AcDbEntity
  8
BODEN-2_4
 62
     7
100
AcDbLine
 10
110.787381
 20
111.632463
 30
0.0
 11
111.499826
 21
110.920017
 31
0.0
  0
LINE
  5
22A
100
AcDbEntity
  8
BODEN-2_4
 62
     7
100
AcDbLine
 10
111.273139
 20
111.720657
 30
0.0
 11
112.04553
 21
110.948267
 31
0.0
  0
LINE
  5
229
100
AcDbEntity
  8
BODEN-2_4
 62
     7
100
AcDbLine
 10
111.765099
 20
111.801961
 30
0.0
 11
112.596056
 21
110.971004
 31
0.0
  0
LINE
  5
228
100
AcDbEntity
  8
BODEN-2_4
 62
     7
100
AcDbLine
 10
110.300244
 20
111.536344
 30
0.0
 11
110.950678
 21
110.886255
 31
0.0
  0
LINE
  5
227
100
AcDbEntity
  8
BODEN-2_4
 62
     7
100
AcDbLine
 10
110.73846
 20
108.811618
 30
0.0
 11
111.685862
 21
107.864562
 31
0.0
  0
LINE
  5
226
100
AcDbEntity
  8
BODEN-2_4
 62
     7
100
AcDbLine
 10
110.125233
 20
108.851581
 30
0.0
 11
111.028537
 21
107.948277
 31
0.0
  0
LINE
  5
225
100
AcDbEntity
  8
BODEN-2_4
 62
     7
100
AcDbLine
 10
109.503049
 20
108.899468
 30
0.0
 11
110.357433
 21
108.045085
 31
0.0
  0
LINE
  5
224
100
AcDbEntity
  8
BODEN-2_4
 62
     7
100
AcDbLine
 10
108.873286
 20
108.955623
 30
0.0
 11
109.673237
 21
108.155672
 31
0.0
  0
LINE
  5
223
100
AcDbEntity
  8
BODEN-2_4
 62
     7
100
AcDbLine
 10
108.233876
 20
109.020736
 30
0.0
 11
108.973882
 21
108.281074
 31
0.0
  0
LINE
  5
222
100
AcDbEntity
  8
BODEN-2_4
 62
     7
100
AcDbLine
 10
107.586198
 20
109.094805
 30
0.0
 11
108.257992
 21
108.423012
 31
0.0
  0
LINE
  5
221
100
AcDbEntity
  8
BODEN-2_4
 62
     7
100
AcDbLine
 10
117.099485
 20
112.206415
 30
0.0
 11
118.431359
 21
110.874886
 31
0.0
  0
LINE
  5
220
100
AcDbEntity
  8
BODEN-2_4
 62
     7
100
AcDbLine
 10
117.681706
 20
112.198147
 30
0.0
 11
120.592811
 21
109.287042
 31
0.0
  0
LINE
  5
21F
100
AcDbEntity
  8
BODEN-2_4
 62
     7
100
AcDbLine
 10
117.576975
 20
108.85985
 30
0.0
 11
118.777246
 21
107.659923
 31
0.0
  0
LINE
  5
21E
100
AcDbEntity
  8
BODEN-2_4
 62
     7
100
AcDbLine
 10
118.108898
 20
108.90188
 30
0.0
 11
119.227865
 21
107.783257
 31
0.0
  0
LINE
  5
21D
100
AcDbEntity
  8
BODEN-2_4
 62
     7
100
AcDbLine
 10
113.11971
 20
108.725836
 30
0.0
 11
114.20147
 21
107.644076
 31
0.0
  0
LINE
  5
21C
100
AcDbEntity
  8
BODEN-2_4
 62
     7
100
AcDbLine
 10
113.697797
 20
108.721701
 30
0.0
 11
114.805051
 21
107.614792
 31
0.0
  0
LINE
  5
21B
100
AcDbEntity
  8
BODEN-2_4
 62
     7
100
AcDbLine
 10
114.269683
 20
108.723768
 30
0.0
 11
115.398985
 21
107.594811
 31
0.0
  0
LINE
  5
21A
100
AcDbEntity
  8
BODEN-2_4
 62
     7
100
AcDbLine
 10
114.835368
 20
108.732037
 30
0.0
 11
115.983963
 21
107.583442
 31
0.0
  0
LINE
  5
219
100
AcDbEntity
  8
BODEN-2_4
 62
     7
100
AcDbLine
 10
115.394851
 20
108.746162
 30
0.0
 11
116.560672
 21
107.580686
 31
0.0
  0
LINE
  5
218
100
AcDbEntity
  8
BODEN-2_4
 62
     7
100
AcDbLine
 10
115.948823
 20
108.766488
 30
0.0
 11
117.129112
 21
107.586198
 31
0.0
  0
LINE
  5
217
100
AcDbEntity
  8
BODEN-2_4
 62
     7
100
AcDbLine
 10
114.331695
 20
112.10513
 30
0.0
 11
115.435503
 21
111.001321
 31
0.0
  0
LINE
  5
216
100
AcDbEntity
  8
BODEN-2_4
 62
     7
100
AcDbLine
 10
113.283008
 20
112.005911
 30
0.0
 11
114.282086
 21
111.006833
 31
0.0
  0
LINE
  5
215
100
AcDbEntity
  8
BODEN-2_4
 62
     7
100
AcDbLine
 10
114.867752
 20
112.143026
 30
0.0
 11
116.02117
 21
110.989608
 31
0.0
  0
LINE
  5
214
100
AcDbEntity
  8
BODEN-2_4
 62
     7
100
AcDbLine
 10
116.527599
 20
112.204348
 30
0.0
 11
117.81951
 21
110.913127
 31
0.0
  0
LINE
  5
213
100
AcDbEntity
  8
BODEN-2_4
 62
     7
100
AcDbLine
 10
115.412077
 20
112.172654
 30
0.0
 11
116.613726
 21
110.971004
 31
0.0
  0
LINE
  5
212
100
AcDbEntity
  8
BODEN-2_4
 62
     7
100
AcDbLine
 10
118.630485
 20
108.953901
 30
0.0
 11
119.609581
 21
107.974805
 31
0.0
  0
LINE
  5
211
100
AcDbEntity
  8
BODEN-2_4
 62
     7
100
AcDbLine
 10
117.03954
 20
108.823332
 30
0.0
 11
118.243256
 21
107.61996
 31
0.0
  0
LINE
  5
210
100
AcDbEntity
  8
BODEN-2_4
 62
     7
100
AcDbLine
 10
115.965359
 20
112.19298
 30
0.0
 11
117.213173
 21
110.945511
 31
0.0
  0
LINE
  5
20F
100
AcDbEntity
  8
BODEN-2_4
 62
     7
100
AcDbLine
 10
119.37876
 20
109.927485
 30
0.0
 11
120.43227
 21
108.874319
 31
0.0
  0
LINE
  5
20E
100
AcDbEntity
  8
BODEN-2_4
 62
     7
100
AcDbLine
 10
118.274951
 20
112.178855
 30
0.0
 11
120.674116
 21
109.77969
 31
0.0
  0
LINE
  5
20D
100
AcDbEntity
  8
BODEN-2_4
 62
     7
100
AcDbLine
 10
118.910916
 20
112.116843
 30
0.0
 11
120.620372
 21
110.407387
 31
0.0
  0
LINE
  5
20C
100
AcDbEntity
  8
BODEN-2_4
 62
     7
100
AcDbLine
 10
119.272651
 20
109.459296
 30
0.0
 11
120.210406
 21
108.521541
 31
0.0
  0
LINE
  5
20B
100
AcDbEntity
  8
BODEN-2_4
 62
     7
100
AcDbLine
 10
119.015647
 20
109.142692
 30
0.0
 11
119.936176
 21
108.222163
 31
0.0
  0
POLYLINE
  5
205
100
AcDbEntity
  8
BODEN-2_4
 62
     7
100
AcDb2dPolyline
 66
     1
 10
0.0
 20
0.0
 30
0.0
 70
     1
  0
VERTEX
  5
206
100
AcDbEntity
  8
BODEN-2_4
 62
     7
100
AcDbVertex
100
AcDb2dVertex
 10
64.979496
 20
139.699311
 30
0.0
  0
VERTEX
  5
207
100
AcDbEntity
  8
BODEN-2_4
 62
     7
100
AcDbVertex
100
AcDb2dVertex
 10
64.979496
 20
137.102743
 30
0.0
  0
VERTEX
  5
208
100
AcDbEntity
  8
BODEN-2_4
 62
     7
100
AcDbVertex
100
AcDb2dVertex
 10
60.457464
 20
137.102743
 30
0.0
  0
VERTEX
  5
209
100
AcDbEntity
  8
BODEN-2_4
 62
     7
100
AcDbVertex
100
AcDb2dVertex
 10
60.457464
 20
139.699311
 30
0.0
  0
SEQEND
  5
20A
100
AcDbEntity
  8
BODEN-2_4
 62
     7
  0
POLYLINE
  5
1FF
100
AcDbEntity
  8
BODEN-2_4
 62
     7
100
AcDb2dPolyline
 66
     1
 10
0.0
 20
0.0
 30
0.0
 70
     1
  0
VERTEX
  5
200
100
AcDbEntity
  8
BODEN-2_4
 62
     7
100
AcDbVertex
100
AcDb2dVertex
 10
55.935776
 20
139.699311
 30
0.0
  0
VERTEX
  5
201
100
AcDbEntity
  8
BODEN-2_4
 62
     7
100
AcDbVertex
100
AcDb2dVertex
 10
55.935776
 20
137.102743
 30
0.0
  0
VERTEX
  5
202
100
AcDbEntity
  8
BODEN-2_4
 62
     7
100
AcDbVertex
100
AcDb2dVertex
 10
51.413744
 20
137.102743
 30
0.0
  0
VERTEX
  5
203
100
AcDbEntity
  8
BODEN-2_4
 62
     7
100
AcDbVertex
100
AcDb2dVertex
 10
51.413744
 20
139.699311
 30
0.0
  0
SEQEND
  5
204
100
AcDbEntity
  8
BODEN-2_4
 62
     7
  0
POLYLINE
  5
1F9
100
AcDbEntity
  8
BODEN-2_4
 62
     7
100
AcDb2dPolyline
 66
     1
 10
0.0
 20
0.0
 30
0.0
 70
     1
  0
VERTEX
  5
1FA
100
AcDbEntity
  8
BODEN-2_4
 62
     7
100
AcDbVertex
100
AcDb2dVertex
 10
46.892056
 20
139.699311
 30
0.0
  0
VERTEX
  5
1FB
100
AcDbEntity
  8
BODEN-2_4
 62
     7
100
AcDbVertex
100
AcDb2dVertex
 10
46.892056
 20
137.102743
 30
0.0
  0
VERTEX
  5
1FC
100
AcDbEntity
  8
BODEN-2_4
 62
     7
100
AcDbVertex
100
AcDb2dVertex
 10
42.370196
 20
137.102743
 30
0.0
  0
VERTEX
  5
1FD
100
AcDbEntity
  8
BODEN-2_4
 62
     7
100
AcDbVertex
100
AcDb2dVertex
 10
42.370196
 20
139.699311
 30
0.0
  0
SEQEND
  5
1FE
100
AcDbEntity
  8
BODEN-2_4
 62
     7
  0
POLYLINE
  5
1F3
100
AcDbEntity
  8
BODEN-2_4
 62
     7
100
AcDb2dPolyline
 66
     1
 10
0.0
 20
0.0
 30
0.0
 70
     1
  0
VERTEX
  5
1F4
100
AcDbEntity
  8
BODEN-2_4
 62
     7
100
AcDbVertex
100
AcDb2dVertex
 10
147.808377
 20
139.699311
 30
0.0
  0
VERTEX
  5
1F5
100
AcDbEntity
  8
BODEN-2_4
 62
     7
100
AcDbVertex
100
AcDb2dVertex
 10
147.808377
 20
137.102743
 30
0.0
  0
VERTEX
  5
1F6
100
AcDbEntity
  8
BODEN-2_4
 62
     7
100
AcDbVertex
100
AcDb2dVertex
 10
152.330409
 20
137.102743
 30
0.0
  0
VERTEX
  5
1F7
100
AcDbEntity
  8
BODEN-2_4
 62
     7
100
AcDbVertex
100
AcDb2dVertex
 10
152.330409
 20
139.699311
 30
0.0
  0
SEQEND
  5
1F8
100
AcDbEntity
  8
BODEN-2_4
 62
     7
  0
POLYLINE
  5
1ED
100
AcDbEntity
  8
BODEN-2_4
 62
     7
100
AcDb2dPolyline
 66
     1
 10
0.0
 20
0.0
 30
0.0
 70
     1
  0
VERTEX
  5
1EE
100
AcDbEntity
  8
BODEN-2_4
 62
     7
100
AcDbVertex
100
AcDb2dVertex
 10
165.895817
 20
139.699311
 30
0.0
  0
VERTEX
  5
1EF
100
AcDbEntity
  8
BODEN-2_4
 62
     7
100
AcDbVertex
100
AcDb2dVertex
 10
165.895817
 20
137.102743
 30
0.0
  0
VERTEX
  5
1F0
100
AcDbEntity
  8
BODEN-2_4
 62
     7
100
AcDbVertex
100
AcDb2dVertex
 10
170.417849
 20
137.102743
 30
0.0
  0
VERTEX
  5
1F1
100
AcDbEntity
  8
BODEN-2_4
 62
     7
100
AcDbVertex
100
AcDb2dVertex
 10
170.417849
 20
139.699311
 30
0.0
  0
SEQEND
  5
1F2
100
AcDbEntity
  8
BODEN-2_4
 62
     7
  0
POLYLINE
  5
1E7
100
AcDbEntity
  8
BODEN-2_4
 62
     7
100
AcDb2dPolyline
 66
     1
 10
0.0
 20
0.0
 30
0.0
 70
     1
  0
VERTEX
  5
1E8
100
AcDbEntity
  8
BODEN-2_4
 62
     7
100
AcDbVertex
100
AcDb2dVertex
 10
156.852441
 20
139.699311
 30
0.0
  0
VERTEX
  5
1E9
100
AcDbEntity
  8
BODEN-2_4
 62
     7
100
AcDbVertex
100
AcDb2dVertex
 10
156.852441
 20
137.102743
 30
0.0
  0
VERTEX
  5
1EA
100
AcDbEntity
  8
BODEN-2_4
 62
     7
100
AcDbVertex
100
AcDb2dVertex
 10
161.374474
 20
137.102743
 30
0.0
  0
VERTEX
  5
1EB
100
AcDbEntity
  8
BODEN-2_4
 62
     7
100
AcDbVertex
100
AcDb2dVertex
 10
161.374474
 20
139.699311
 30
0.0
  0
SEQEND
  5
1EC
100
AcDbEntity
  8
BODEN-2_4
 62
     7
  0
LINE
  5
1E6
100
AcDbEntity
  8
BODEN-2_4
 62
     7
100
AcDbLine
 10
139.380295
 20
119.493826
 30
0.0
 11
135.999967
 21
119.493826
 31
0.0
  0
LINE
  5
1E5
100
AcDbEntity
  8
BODEN-2_4
 62
     7
100
AcDbLine
 10
80.164099
 20
134.574042
 30
0.0
 11
132.40191
 21
134.574042
 31
0.0
  0
LINE
  5
1E4
100
AcDbEntity
  8
BODEN-2_4
 62
     7
100
AcDbLine
 10
135.999967
 20
136.210807
 30
0.0
 11
136.891558
 21
137.102743
 31
0.0
  0
LINE
  5
1E3
100
AcDbEntity
  8
BODEN-2_4
 62
     7
100
AcDbLine
 10
135.999967
 20
133.965639
 30
0.0
 11
139.137071
 21
137.102743
 31
0.0
  0
LINE
  5
1E2
100
AcDbEntity
  8
BODEN-2_4
 62
     7
100
AcDbLine
 10
135.999967
 20
131.720814
 30
0.0
 11
141.381896
 21
137.102743
 31
0.0
  0
LINE
  5
1E1
100
AcDbEntity
  8
BODEN-2_4
 62
     7
100
AcDbLine
 10
135.999967
 20
129.475646
 30
0.0
 11
143.62672
 21
137.102743
 31
0.0
  0
LINE
  5
1E0
100
AcDbEntity
  8
BODEN-2_4
 62
     7
100
AcDbLine
 10
135.999967
 20
127.230477
 30
0.0
 11
145.872233
 21
137.102743
 31
0.0
  0
LINE
  5
1DF
100
AcDbEntity
  8
BODEN-2_4
 62
     7
100
AcDbLine
 10
135.999967
 20
124.985653
 30
0.0
 11
141.679552
 21
130.664893
 31
0.0
  0
LINE
  5
1DE
100
AcDbEntity
  8
BODEN-2_4
 62
     7
100
AcDbLine
 10
144.734663
 20
133.720003
 30
0.0
 11
148.117057
 21
137.102743
 31
0.0
  0
LINE
  5
1DD
100
AcDbEntity
  8
BODEN-2_4
 62
     7
100
AcDbLine
 10
135.999967
 20
122.740484
 30
0.0
 11
141.553461
 21
128.293978
 31
0.0
  0
LINE
  5
1DC
100
AcDbEntity
  8
BODEN-2_4
 62
     7
100
AcDbLine
 10
146.979487
 20
133.720003
 30
0.0
 11
150.361882
 21
137.102743
 31
0.0
  0
LINE
  5
1DB
100
AcDbEntity
  8
BODEN-2_4
 62
     7
100
AcDbLine
 10
135.999967
 20
120.495315
 30
0.0
 11
141.427371
 21
125.923063
 31
0.0
  0
LINE
  5
1DA
100
AcDbEntity
  8
BODEN-2_4
 62
     7
100
AcDbLine
 10
151.616585
 20
136.111589
 30
0.0
 11
152.607395
 21
137.102743
 31
0.0
  0
LINE
  5
1D9
100
AcDbEntity
  8
BODEN-2_4
 62
     7
100
AcDbLine
 10
149.225
 20
133.720003
 30
0.0
 11
151.616585
 21
136.111589
 31
0.0
  0
LINE
  5
1D8
100
AcDbEntity
  8
BODEN-2_4
 62
     7
100
AcDbLine
 10
137.243647
 20
119.493826
 30
0.0
 11
141.301969
 21
123.552148
 31
0.0
  0
LINE
  5
1D7
100
AcDbEntity
  8
BODEN-2_4
 62
     7
100
AcDbLine
 10
151.616585
 20
133.86642
 30
0.0
 11
154.852219
 21
137.102743
 31
0.0
  0
LINE
  5
1D6
100
AcDbEntity
  8
BODEN-2_4
 62
     7
100
AcDbLine
 10
151.469824
 20
133.720003
 30
0.0
 11
151.616585
 21
133.86642
 31
0.0
  0
LINE
  5
1D5
100
AcDbEntity
  8
BODEN-2_4
 62
     7
100
AcDbLine
 10
139.51052
 20
119.51553
 30
0.0
 11
141.175879
 21
121.181234
 31
0.0
  0
LINE
  5
1D4
100
AcDbEntity
  8
BODEN-2_4
 62
     7
100
AcDbLine
 10
153.714648
 20
133.720003
 30
0.0
 11
157.097043
 21
137.102743
 31
0.0
  0
LINE
  5
1D3
100
AcDbEntity
  8
BODEN-2_4
 62
     7
100
AcDbLine
 10
155.960162
 20
133.720003
 30
0.0
 11
159.342556
 21
137.102743
 31
0.0
  0
LINE
  5
1D2
100
AcDbEntity
  8
BODEN-2_4
 62
     7
100
AcDbLine
 10
158.204986
 20
133.720003
 30
0.0
 11
161.587381
 21
137.102743
 31
0.0
  0
LINE
  5
1D1
100
AcDbEntity
  8
BODEN-2_4
 62
     7
100
AcDbLine
 10
160.44981
 20
133.720003
 30
0.0
 11
162.252973
 21
135.522822
 31
0.0
  0
LINE
  5
1D0
100
AcDbEntity
  8
BODEN-2_4
 62
     7
100
AcDbLine
 10
162.252973
 20
135.522822
 30
0.0
 11
163.832205
 21
137.102743
 31
0.0
  0
LINE
  5
1CF
100
AcDbEntity
  8
BODEN-2_4
 62
     7
100
AcDbLine
 10
162.695323
 20
133.720003
 30
0.0
 11
166.077718
 21
137.102743
 31
0.0
  0
LINE
  5
1CE
100
AcDbEntity
  8
BODEN-2_4
 62
     7
100
AcDbLine
 10
164.940148
 20
133.720003
 30
0.0
 11
167.732742
 21
136.512942
 31
0.0
  0
LINE
  5
1CD
100
AcDbEntity
  8
BODEN-2_4
 62
     7
100
AcDbLine
 10
167.184972
 20
133.720003
 30
0.0
 11
167.732742
 21
134.267773
 31
0.0
  0
LINE
  5
1CC
100
AcDbEntity
  8
BODEN-2_4
 62
     7
100
AcDbLine
 10
139.280387
 20
141.736396
 30
0.0
 11
140.715614
 21
143.171278
 31
0.0
  0
LINE
  5
1CB
100
AcDbEntity
  8
BODEN-2_4
 62
     7
100
AcDbLine
 10
140.246392
 20
140.457232
 30
0.0
 11
142.960438
 21
143.171278
 31
0.0
  0
LINE
  5
1CA
100
AcDbEntity
  8
BODEN-2_4
 62
     7
100
AcDbLine
 10
141.723649
 20
139.68932
 30
0.0
 11
145.205263
 21
143.171278
 31
0.0
  0
LINE
  5
1C9
100
AcDbEntity
  8
BODEN-2_4
 62
     7
100
AcDbLine
 10
143.978809
 20
139.699311
 30
0.0
 11
147.450776
 21
143.171278
 31
0.0
  0
LINE
  5
1C8
100
AcDbEntity
  8
BODEN-2_4
 62
     7
100
AcDbLine
 10
146.223633
 20
139.699311
 30
0.0
 11
149.6956
 21
143.171278
 31
0.0
  0
LINE
  5
1C7
100
AcDbEntity
  8
BODEN-2_4
 62
     7
100
AcDbLine
 10
148.469146
 20
139.699311
 30
0.0
 11
151.616585
 21
142.84675
 31
0.0
  0
LINE
  5
1C6
100
AcDbEntity
  8
BODEN-2_4
 62
     7
100
AcDbLine
 10
151.616585
 20
142.84675
 30
0.0
 11
151.940424
 21
143.171278
 31
0.0
  0
LINE
  5
1C5
100
AcDbEntity
  8
BODEN-2_4
 62
     7
100
AcDbLine
 10
150.71397
 20
139.699311
 30
0.0
 11
151.616585
 21
140.601926
 31
0.0
  0
LINE
  5
1C4
100
AcDbEntity
  8
BODEN-2_4
 62
     7
100
AcDbLine
 10
151.616585
 20
140.601926
 30
0.0
 11
154.185937
 21
143.171278
 31
0.0
  0
LINE
  5
1C3
100
AcDbEntity
  8
BODEN-2_4
 62
     7
100
AcDbLine
 10
152.958794
 20
139.699311
 30
0.0
 11
156.430762
 21
143.171278
 31
0.0
  0
LINE
  5
1C2
100
AcDbEntity
  8
BODEN-2_4
 62
     7
100
AcDbLine
 10
155.204308
 20
139.699311
 30
0.0
 11
158.676275
 21
143.171278
 31
0.0
  0
LINE
  5
1C1
100
AcDbEntity
  8
BODEN-2_4
 62
     7
100
AcDbLine
 10
157.449132
 20
139.699311
 30
0.0
 11
160.921099
 21
143.171278
 31
0.0
  0
LINE
  5
1C0
100
AcDbEntity
  8
BODEN-2_4
 62
     7
100
AcDbLine
 10
159.693956
 20
139.699311
 30
0.0
 11
163.165923
 21
143.171278
 31
0.0
  0
LINE
  5
1BF
100
AcDbEntity
  8
BODEN-2_4
 62
     7
100
AcDbLine
 10
161.939469
 20
139.699311
 30
0.0
 11
163.952783
 21
141.713314
 31
0.0
  0
LINE
  5
1BE
100
AcDbEntity
  8
BODEN-2_4
 62
     7
100
AcDbLine
 10
135.129736
 20
181.822149
 30
0.0
 11
135.999967
 21
180.951918
 31
0.0
  0
LINE
  5
1BD
100
AcDbEntity
  8
BODEN-2_4
 62
     7
100
AcDbLine
 10
132.884223
 20
181.822149
 30
0.0
 11
135.999967
 21
178.706749
 31
0.0
  0
LINE
  5
1BC
100
AcDbEntity
  8
BODEN-2_4
 62
     7
100
AcDbLine
 10
132.364014
 20
180.097534
 30
0.0
 11
135.999967
 21
176.46158
 31
0.0
  0
LINE
  5
1BB
100
AcDbEntity
  8
BODEN-2_4
 62
     7
100
AcDbLine
 10
132.364014
 20
177.852365
 30
0.0
 11
135.999967
 21
174.216584
 31
0.0
  0
LINE
  5
1BA
100
AcDbEntity
  8
BODEN-2_4
 62
     7
100
AcDbLine
 10
132.364014
 20
175.607369
 30
0.0
 11
135.999967
 21
171.971587
 31
0.0
  0
LINE
  5
1B9
100
AcDbEntity
  8
BODEN-2_4
 62
     7
100
AcDbLine
 10
132.364014
 20
173.362373
 30
0.0
 11
135.999967
 21
169.726419
 31
0.0
  0
LINE
  5
1B8
100
AcDbEntity
  8
BODEN-2_4
 62
     7
100
AcDbLine
 10
132.364014
 20
171.117204
 30
0.0
 11
135.999967
 21
167.481422
 31
0.0
  0
LINE
  5
1B7
100
AcDbEntity
  8
BODEN-2_4
 62
     7
100
AcDbLine
 10
132.364014
 20
168.872035
 30
0.0
 11
135.999967
 21
165.236426
 31
0.0
  0
LINE
  5
1B6
100
AcDbEntity
  8
BODEN-2_4
 62
     7
100
AcDbLine
 10
132.364014
 20
166.627039
 30
0.0
 11
135.999967
 21
162.991257
 31
0.0
  0
LINE
  5
1B5
100
AcDbEntity
  8
BODEN-2_4
 62
     7
100
AcDbLine
 10
132.364014
 20
164.382042
 30
0.0
 11
135.999967
 21
160.746261
 31
0.0
  0
LINE
  5
1B4
100
AcDbEntity
  8
BODEN-2_4
 62
     7
100
AcDbLine
 10
132.364014
 20
162.136873
 30
0.0
 11
135.999967
 21
158.501264
 31
0.0
  0
LINE
  5
1B3
100
AcDbEntity
  8
BODEN-2_4
 62
     7
100
AcDbLine
 10
132.364014
 20
159.891877
 30
0.0
 11
135.999967
 21
156.256095
 31
0.0
  0
LINE
  5
1B2
100
AcDbEntity
  8
BODEN-2_4
 62
     7
100
AcDbLine
 10
132.364014
 20
157.64688
 30
0.0
 11
135.999967
 21
154.010927
 31
0.0
  0
LINE
  5
1B1
100
AcDbEntity
  8
BODEN-2_4
 62
     7
100
AcDbLine
 10
132.364014
 20
155.401712
 30
0.0
 11
135.999967
 21
151.76593
 31
0.0
  0
LINE
  5
1B0
100
AcDbEntity
  8
BODEN-2_4
 62
     7
100
AcDbLine
 10
132.364014
 20
153.156715
 30
0.0
 11
135.999967
 21
149.520934
 31
0.0
  0
LINE
  5
1AF
100
AcDbEntity
  8
BODEN-2_4
 62
     7
100
AcDbLine
 10
132.364014
 20
150.911719
 30
0.0
 11
135.999967
 21
147.275765
 31
0.0
  0
LINE
  5
1AE
100
AcDbEntity
  8
BODEN-2_4
 62
     7
100
AcDbLine
 10
132.364014
 20
148.66655
 30
0.0
 11
135.999967
 21
145.030941
 31
0.0
  0
LINE
  5
1AD
100
AcDbEntity
  8
BODEN-2_4
 62
     7
100
AcDbLine
 10
132.364014
 20
146.421381
 30
0.0
 11
135.999967
 21
142.785772
 31
0.0
  0
LINE
  5
1AC
100
AcDbEntity
  8
BODEN-2_4
 62
     7
100
AcDbLine
 10
132.364014
 20
144.176557
 30
0.0
 11
135.999967
 21
140.540603
 31
0.0
  0
LINE
  5
1AB
100
AcDbEntity
  8
BODEN-2_4
 62
     7
100
AcDbLine
 10
132.364014
 20
141.931388
 30
0.0
 11
135.999967
 21
138.295435
 31
0.0
  0
LINE
  5
1AA
100
AcDbEntity
  8
BODEN-2_4
 62
     7
100
AcDbLine
 10
132.364014
 20
139.68622
 30
0.0
 11
135.999967
 21
136.05061
 31
0.0
  0
LINE
  5
1A9
100
AcDbEntity
  8
BODEN-2_4
 62
     7
100
AcDbLine
 10
132.364014
 20
137.441051
 30
0.0
 11
135.999967
 21
133.805442
 31
0.0
  0
LINE
  5
1A8
100
AcDbEntity
  8
BODEN-2_4
 62
     7
100
AcDbLine
 10
132.364014
 20
135.196227
 30
0.0
 11
135.999967
 21
131.560273
 31
0.0
  0
LINE
  5
1A7
100
AcDbEntity
  8
BODEN-2_4
 62
     7
100
AcDbLine
 10
132.364014
 20
132.951058
 30
0.0
 11
135.999967
 21
129.315449
 31
0.0
  0
LINE
  5
1A6
100
AcDbEntity
  8
BODEN-2_4
 62
     7
100
AcDbLine
 10
132.364014
 20
130.705889
 30
0.0
 11
135.999967
 21
127.07028
 31
0.0
  0
LINE
  5
1A5
100
AcDbEntity
  8
BODEN-2_4
 62
     7
100
AcDbLine
 10
132.364014
 20
128.461065
 30
0.0
 11
135.999967
 21
124.825111
 31
0.0
  0
LINE
  5
1A4
100
AcDbEntity
  8
BODEN-2_4
 62
     7
100
AcDbLine
 10
132.364014
 20
126.215896
 30
0.0
 11
135.999967
 21
122.580287
 31
0.0
  0
LINE
  5
1A3
100
AcDbEntity
  8
BODEN-2_4
 62
     7
100
AcDbLine
 10
132.364014
 20
123.970728
 30
0.0
 11
135.999967
 21
120.335118
 31
0.0
  0
LINE
  5
1A2
100
AcDbEntity
  8
BODEN-2_4
 62
     7
100
AcDbLine
 10
132.364014
 20
121.725903
 30
0.0
 11
134.595747
 21
119.493826
 31
0.0
  0
LINE
  5
1A1
100
AcDbEntity
  8
BODEN-2_4
 62
     7
100
AcDbLine
 10
79.003102
 20
181.822149
 30
0.0
 11
80.164099
 21
180.661152
 31
0.0
  0
LINE
  5
1A0
100
AcDbEntity
  8
BODEN-2_4
 62
     7
100
AcDbLine
 10
76.757933
 20
181.822149
 30
0.0
 11
80.164099
 21
178.415983
 31
0.0
  0
LINE
  5
19F
100
AcDbEntity
  8
BODEN-2_4
 62
     7
100
AcDbLine
 10
76.528318
 20
179.806768
 30
0.0
 11
80.164099
 21
176.170987
 31
0.0
  0
LINE
  5
19E
100
AcDbEntity
  8
BODEN-2_4
 62
     7
100
AcDbLine
 10
76.528318
 20
177.561599
 30
0.0
 11
80.164099
 21
173.92599
 31
0.0
  0
LINE
  5
19D
100
AcDbEntity
  8
BODEN-2_4
 62
     7
100
AcDbLine
 10
76.528318
 20
175.316603
 30
0.0
 11
80.164099
 21
171.680821
 31
0.0
  0
LINE
  5
19C
100
AcDbEntity
  8
BODEN-2_4
 62
     7
100
AcDbLine
 10
76.528318
 20
173.071606
 30
0.0
 11
80.164099
 21
169.435653
 31
0.0
  0
LINE
  5
19B
100
AcDbEntity
  8
BODEN-2_4
 62
     7
100
AcDbLine
 10
76.528318
 20
170.826438
 30
0.0
 11
80.164099
 21
167.190656
 31
0.0
  0
LINE
  5
19A
100
AcDbEntity
  8
BODEN-2_4
 62
     7
100
AcDbLine
 10
76.528318
 20
168.581441
 30
0.0
 11
80.164099
 21
164.94566
 31
0.0
  0
LINE
  5
199
100
AcDbEntity
  8
BODEN-2_4
 62
     7
100
AcDbLine
 10
76.528318
 20
166.336445
 30
0.0
 11
80.164099
 21
162.700491
 31
0.0
  0
LINE
  5
198
100
AcDbEntity
  8
BODEN-2_4
 62
     7
100
AcDbLine
 10
76.528318
 20
164.091276
 30
0.0
 11
80.164099
 21
160.455495
 31
0.0
  0
LINE
  5
197
100
AcDbEntity
  8
BODEN-2_4
 62
     7
100
AcDbLine
 10
76.528318
 20
161.846107
 30
0.0
 11
80.164099
 21
158.210498
 31
0.0
  0
LINE
  5
196
100
AcDbEntity
  8
BODEN-2_4
 62
     7
100
AcDbLine
 10
76.528318
 20
159.601111
 30
0.0
 11
80.164099
 21
155.965329
 31
0.0
  0
LINE
  5
195
100
AcDbEntity
  8
BODEN-2_4
 62
     7
100
AcDbLine
 10
76.528318
 20
157.356114
 30
0.0
 11
80.164099
 21
153.720333
 31
0.0
  0
LINE
  5
194
100
AcDbEntity
  8
BODEN-2_4
 62
     7
100
AcDbLine
 10
76.528318
 20
155.110946
 30
0.0
 11
80.164099
 21
151.475336
 31
0.0
  0
LINE
  5
193
100
AcDbEntity
  8
BODEN-2_4
 62
     7
100
AcDbLine
 10
76.528318
 20
152.865949
 30
0.0
 11
80.164099
 21
149.230168
 31
0.0
  0
LINE
  5
192
100
AcDbEntity
  8
BODEN-2_4
 62
     7
100
AcDbLine
 10
76.528318
 20
150.620953
 30
0.0
 11
80.164099
 21
146.984999
 31
0.0
  0
LINE
  5
191
100
AcDbEntity
  8
BODEN-2_4
 62
     7
100
AcDbLine
 10
76.528318
 20
148.375784
 30
0.0
 11
80.164099
 21
144.740175
 31
0.0
  0
LINE
  5
190
100
AcDbEntity
  8
BODEN-2_4
 62
     7
100
AcDbLine
 10
76.528318
 20
146.13096
 30
0.0
 11
80.164099
 21
142.495006
 31
0.0
  0
LINE
  5
18F
100
AcDbEntity
  8
BODEN-2_4
 62
     7
100
AcDbLine
 10
76.528318
 20
143.885791
 30
0.0
 11
80.164099
 21
140.249837
 31
0.0
  0
LINE
  5
18E
100
AcDbEntity
  8
BODEN-2_4
 62
     7
100
AcDbLine
 10
76.528318
 20
141.640622
 30
0.0
 11
80.164099
 21
138.004669
 31
0.0
  0
LINE
  5
18D
100
AcDbEntity
  8
BODEN-2_4
 62
     7
100
AcDbLine
 10
76.528318
 20
139.395454
 30
0.0
 11
80.164099
 21
135.759844
 31
0.0
  0
LINE
  5
18C
100
AcDbEntity
  8
BODEN-2_4
 62
     7
100
AcDbLine
 10
76.528318
 20
137.150629
 30
0.0
 11
80.164099
 21
133.514676
 31
0.0
  0
LINE
  5
18B
100
AcDbEntity
  8
BODEN-2_4
 62
     7
100
AcDbLine
 10
76.528318
 20
134.905461
 30
0.0
 11
80.164099
 21
131.269507
 31
0.0
  0
LINE
  5
18A
100
AcDbEntity
  8
BODEN-2_4
 62
     7
100
AcDbLine
 10
76.528318
 20
132.660292
 30
0.0
 11
80.164099
 21
129.024683
 31
0.0
  0
LINE
  5
189
100
AcDbEntity
  8
BODEN-2_4
 62
     7
100
AcDbLine
 10
76.528318
 20
130.415123
 30
0.0
 11
80.164099
 21
126.779514
 31
0.0
  0
LINE
  5
188
100
AcDbEntity
  8
BODEN-2_4
 62
     7
100
AcDbLine
 10
76.528318
 20
128.170299
 30
0.0
 11
80.164099
 21
124.534345
 31
0.0
  0
LINE
  5
187
100
AcDbEntity
  8
BODEN-2_4
 62
     7
100
AcDbLine
 10
76.528318
 20
125.92513
 30
0.0
 11
80.164099
 21
122.289521
 31
0.0
  0
LINE
  5
186
100
AcDbEntity
  8
BODEN-2_4
 62
     7
100
AcDbLine
 10
76.528318
 20
123.679961
 30
0.0
 11
80.164099
 21
120.044352
 31
0.0
  0
LINE
  5
185
100
AcDbEntity
  8
BODEN-2_4
 62
     7
100
AcDbLine
 10
76.528318
 20
121.435137
 30
0.0
 11
78.469457
 21
119.493826
 31
0.0
  0
LINE
  5
184
100
AcDbEntity
  8
BODEN-2_4
 62
     7
100
AcDbLine
 10
45.055131
 20
135.068414
 30
0.0
 11
47.089288
 21
137.102743
 31
0.0
  0
LINE
  5
183
100
AcDbEntity
  8
BODEN-2_4
 62
     7
100
AcDbLine
 10
45.951889
 20
133.720003
 30
0.0
 11
49.334284
 21
137.102743
 31
0.0
  0
LINE
  5
182
100
AcDbEntity
  8
BODEN-2_4
 62
     7
100
AcDbLine
 10
48.196886
 20
133.720003
 30
0.0
 11
51.579453
 21
137.102743
 31
0.0
  0
LINE
  5
181
100
AcDbEntity
  8
BODEN-2_4
 62
     7
100
AcDbLine
 10
50.441882
 20
133.720003
 30
0.0
 11
53.824449
 21
137.102743
 31
0.0
  0
LINE
  5
180
100
AcDbEntity
  8
BODEN-2_4
 62
     7
100
AcDbLine
 10
52.687051
 20
133.720003
 30
0.0
 11
56.069446
 21
137.102743
 31
0.0
  0
LINE
  5
17F
100
AcDbEntity
  8
BODEN-2_4
 62
     7
100
AcDbLine
 10
54.932048
 20
133.720003
 30
0.0
 11
58.314615
 21
137.102743
 31
0.0
  0
LINE
  5
17E
100
AcDbEntity
  8
BODEN-2_4
 62
     7
100
AcDbLine
 10
57.177044
 20
133.720003
 30
0.0
 11
60.559611
 21
137.102743
 31
0.0
  0
LINE
  5
17D
100
AcDbEntity
  8
BODEN-2_4
 62
     7
100
AcDbLine
 10
59.422213
 20
133.720003
 30
0.0
 11
61.171632
 21
135.469767
 31
0.0
  0
LINE
  5
17C
100
AcDbEntity
  8
BODEN-2_4
 62
     7
100
AcDbLine
 10
61.171632
 20
135.469767
 30
0.0
 11
62.804607
 21
137.102743
 31
0.0
  0
LINE
  5
17B
100
AcDbEntity
  8
BODEN-2_4
 62
     7
100
AcDbLine
 10
61.667381
 20
133.720003
 30
0.0
 11
65.049776
 21
137.102743
 31
0.0
  0
LINE
  5
17A
100
AcDbEntity
  8
BODEN-2_4
 62
     7
100
AcDbLine
 10
63.912378
 20
133.720003
 30
0.0
 11
67.294945
 21
137.102743
 31
0.0
  0
LINE
  5
179
100
AcDbEntity
  8
BODEN-2_4
 62
     7
100
AcDbLine
 10
69.501184
 20
139.308982
 30
0.0
 11
69.881523
 21
139.68932
 31
0.0
  0
LINE
  5
178
100
AcDbEntity
  8
BODEN-2_4
 62
     7
100
AcDbLine
 10
66.157374
 20
133.720003
 30
0.0
 11
72.126519
 21
139.68932
 31
0.0
  0
LINE
  5
177
100
AcDbEntity
  8
BODEN-2_4
 62
     7
100
AcDbLine
 10
68.402543
 20
133.720003
 30
0.0
 11
74.023044
 21
139.340677
 31
0.0
  0
LINE
  5
176
100
AcDbEntity
  8
BODEN-2_4
 62
     7
100
AcDbLine
 10
70.386229
 20
133.458865
 30
0.0
 11
74.030107
 21
137.102743
 31
0.0
  0
LINE
  5
175
100
AcDbEntity
  8
BODEN-2_4
 62
     7
100
AcDbLine
 10
71.044587
 20
131.872054
 30
0.0
 11
76.275103
 21
137.102743
 31
0.0
  0
LINE
  5
174
100
AcDbEntity
  8
BODEN-2_4
 62
     7
100
AcDbLine
 10
71.157931
 20
129.740229
 30
0.0
 11
76.528318
 21
135.110788
 31
0.0
  0
LINE
  5
173
100
AcDbEntity
  8
BODEN-2_4
 62
     7
100
AcDbLine
 10
71.27093
 20
127.608404
 30
0.0
 11
76.528318
 21
132.86562
 31
0.0
  0
LINE
  5
172
100
AcDbEntity
  8
BODEN-2_4
 62
     7
100
AcDbLine
 10
71.384101
 20
125.476579
 30
0.0
 11
76.528318
 21
130.620451
 31
0.0
  0
LINE
  5
171
100
AcDbEntity
  8
BODEN-2_4
 62
     7
100
AcDbLine
 10
71.497272
 20
123.344409
 30
0.0
 11
76.528318
 21
128.375627
 31
0.0
  0
LINE
  5
170
100
AcDbEntity
  8
BODEN-2_4
 62
     7
100
AcDbLine
 10
71.610444
 20
121.212584
 30
0.0
 11
76.528318
 21
126.130458
 31
0.0
  0
LINE
  5
16F
100
AcDbEntity
  8
BODEN-2_4
 62
     7
100
AcDbLine
 10
72.427793
 20
119.784937
 30
0.0
 11
76.528318
 21
123.885289
 31
0.0
  0
LINE
  5
16E
100
AcDbEntity
  8
BODEN-2_4
 62
     7
100
AcDbLine
 10
74.381851
 20
119.493826
 30
0.0
 11
76.528318
 21
121.640465
 31
0.0
  0
LINE
  5
16D
100
AcDbEntity
  8
BODEN-2_4
 62
     7
100
AcDbLine
 10
49.022847
 20
141.281299
 30
0.0
 11
50.912827
 21
143.171278
 31
0.0
  0
LINE
  5
16C
100
AcDbEntity
  8
BODEN-2_4
 62
     7
100
AcDbLine
 10
50.11322
 20
140.126503
 30
0.0
 11
53.157996
 21
143.171278
 31
0.0
  0
LINE
  5
16B
100
AcDbEntity
  8
BODEN-2_4
 62
     7
100
AcDbLine
 10
51.931197
 20
139.699311
 30
0.0
 11
55.403164
 21
143.171278
 31
0.0
  0
LINE
  5
16A
100
AcDbEntity
  8
BODEN-2_4
 62
     7
100
AcDbLine
 10
54.176366
 20
139.699311
 30
0.0
 11
57.648161
 21
143.171278
 31
0.0
  0
LINE
  5
169
100
AcDbEntity
  8
BODEN-2_4
 62
     7
100
AcDbLine
 10
56.421362
 20
139.699311
 30
0.0
 11
59.893157
 21
143.171278
 31
0.0
  0
LINE
  5
168
100
AcDbEntity
  8
BODEN-2_4
 62
     7
100
AcDbLine
 10
58.666359
 20
139.699311
 30
0.0
 11
61.171632
 21
142.204929
 31
0.0
  0
LINE
  5
167
100
AcDbEntity
  8
BODEN-2_4
 62
     7
100
AcDbLine
 10
61.171632
 20
142.204929
 30
0.0
 11
62.138326
 21
143.171278
 31
0.0
  0
LINE
  5
166
100
AcDbEntity
  8
BODEN-2_4
 62
     7
100
AcDbLine
 10
60.911528
 20
139.699311
 30
0.0
 11
61.171632
 21
139.95976
 31
0.0
  0
LINE
  5
165
100
AcDbEntity
  8
BODEN-2_4
 62
     7
100
AcDbLine
 10
61.171632
 20
139.95976
 30
0.0
 11
64.383322
 21
143.171278
 31
0.0
  0
LINE
  5
164
100
AcDbEntity
  8
BODEN-2_4
 62
     7
100
AcDbLine
 10
63.156524
 20
139.699311
 30
0.0
 11
66.628319
 21
143.171278
 31
0.0
  0
LINE
  5
163
100
AcDbEntity
  8
BODEN-2_4
 62
     7
100
AcDbLine
 10
65.40152
 20
139.699311
 30
0.0
 11
68.873488
 21
143.171278
 31
0.0
  0
LINE
  5
162
100
AcDbEntity
  8
BODEN-2_4
 62
     7
100
AcDbLine
 10
67.646689
 20
139.699311
 30
0.0
 11
71.118484
 21
143.171278
 31
0.0
  0
LINE
  5
161
100
AcDbEntity
  8
BODEN-2_4
 62
     7
100
AcDbLine
 10
69.881523
 20
139.68932
 30
0.0
 11
73.363481
 21
143.171278
 31
0.0
  0
LINE
  5
160
100
AcDbEntity
  8
BODEN-2_4
 62
     7
100
AcDbLine
 10
135.999967
 20
178.866946
 30
0.0
 11
138.95517
 21
181.822149
 31
0.0
  0
LINE
  5
15F
100
AcDbEntity
  8
BODEN-2_4
 62
     7
100
AcDbLine
 10
135.999967
 20
156.416292
 30
0.0
 11
161.40548
 21
181.822149
 31
0.0
  0
LINE
  5
15E
100
AcDbEntity
  8
BODEN-2_4
 62
     7
100
AcDbLine
 10
145.205263
 20
143.171278
 30
0.0
 11
147.04012
 21
145.006136
 31
0.0
  0
LINE
  5
15D
100
AcDbEntity
  8
BODEN-2_4
 62
     7
100
AcDbLine
 10
149.894727
 20
147.86057
 30
0.0
 11
171.235026
 21
169.200697
 31
0.0
  0
LINE
  5
15C
100
AcDbEntity
  8
BODEN-2_4
 62
     7
100
AcDbLine
 10
164.184294
 20
139.699311
 30
0.0
 11
171.235026
 21
146.750043
 31
0.0
  0
LINE
  5
15B
100
AcDbEntity
  8
BODEN-2_4
 62
     7
100
AcDbLine
 10
135.999967
 20
167.641619
 30
0.0
 11
137.603315
 21
169.245311
 31
0.0
  0
LINE
  5
15A
100
AcDbEntity
  8
BODEN-2_4
 62
     7
100
AcDbLine
 10
140.40969
 20
172.051686
 30
0.0
 11
146.022439
 21
177.664263
 31
0.0
  0
LINE
  5
159
100
AcDbEntity
  8
BODEN-2_4
 62
     7
100
AcDbLine
 10
148.828814
 20
180.470638
 30
0.0
 11
150.180669
 21
181.822149
 31
0.0
  0
LINE
  5
158
100
AcDbEntity
  8
BODEN-2_4
 62
     7
100
AcDbLine
 10
135.999967
 20
145.191138
 30
0.0
 11
140.40969
 21
149.601032
 31
0.0
  0
LINE
  5
157
100
AcDbEntity
  8
BODEN-2_4
 62
     7
100
AcDbLine
 10
143.216064
 20
152.407235
 30
0.0
 11
148.828814
 21
158.019984
 31
0.0
  0
LINE
  5
156
100
AcDbEntity
  8
BODEN-2_4
 62
     7
100
AcDbLine
 10
151.635189
 20
160.826359
 30
0.0
 11
157.247938
 21
166.439109
 31
0.0
  0
LINE
  5
155
100
AcDbEntity
  8
BODEN-2_4
 62
     7
100
AcDbLine
 10
160.054313
 20
169.245311
 30
0.0
 11
165.667063
 21
174.857888
 31
0.0
  0
LINE
  5
154
100
AcDbEntity
  8
BODEN-2_4
 62
     7
100
AcDbLine
 10
168.473437
 20
177.664263
 30
0.0
 11
171.235026
 21
180.425852
 31
0.0
  0
LINE
  5
153
100
AcDbEntity
  8
BODEN-2_4
 62
     7
100
AcDbLine
 10
156.430762
 20
143.171278
 30
0.0
 11
160.054313
 21
146.794485
 31
0.0
  0
LINE
  5
152
100
AcDbEntity
  8
BODEN-2_4
 62
     7
100
AcDbLine
 10
162.860688
 20
149.601032
 30
0.0
 11
168.473437
 21
155.213609
 31
0.0
  0
LINE
  5
151
100
AcDbEntity
  8
BODEN-2_4
 62
     7
100
AcDbLine
 10
41.553191
 20
162.997458
 30
0.0
 11
60.377882
 21
181.822149
 31
0.0
  0
LINE
  5
150
100
AcDbEntity
  8
BODEN-2_4
 62
     7
100
AcDbLine
 10
41.553191
 20
142.791973
 30
0.0
 11
76.528318
 21
177.766927
 31
0.0
  0
LINE
  5
14F
100
AcDbEntity
  8
BODEN-2_4
 62
     7
100
AcDbLine
 10
65.74758
 20
146.780705
 30
0.0
 11
76.528318
 21
157.561442
 31
0.0
  0
LINE
  5
14E
100
AcDbEntity
  8
BODEN-2_4
 62
     7
100
AcDbLine
 10
41.553191
 20
173.100201
 30
0.0
 11
44.433636
 21
175.980645
 31
0.0
  0
LINE
  5
14D
100
AcDbEntity
  8
BODEN-2_4
 62
     7
100
AcDbLine
 10
46.959235
 20
178.506245
 30
0.0
 11
50.27514
 21
181.822149
 31
0.0
  0
LINE
  5
14C
100
AcDbEntity
  8
BODEN-2_4
 62
     7
100
AcDbLine
 10
41.907692
 20
153.249216
 30
0.0
 11
46.959235
 21
158.30076
 31
0.0
  0
LINE
  5
14B
100
AcDbEntity
  8
BODEN-2_4
 62
     7
100
AcDbLine
 10
49.484835
 20
160.826359
 30
0.0
 11
54.536378
 21
165.87773
 31
0.0
  0
LINE
  5
14A
100
AcDbEntity
  8
BODEN-2_4
 62
     7
100
AcDbLine
 10
57.061978
 20
168.403502
 30
0.0
 11
62.113521
 21
173.454873
 31
0.0
  0
LINE
  5
149
100
AcDbEntity
  8
BODEN-2_4
 62
     7
100
AcDbLine
 10
64.639121
 20
175.980645
 30
0.0
 11
69.690492
 21
181.031844
 31
0.0
  0
LINE
  5
148
100
AcDbEntity
  8
BODEN-2_4
 62
     7
100
AcDbLine
 10
48.563616
 20
139.699311
 30
0.0
 11
49.484835
 21
140.620874
 31
0.0
  0
LINE
  5
147
100
AcDbEntity
  8
BODEN-2_4
 62
     7
100
AcDbLine
 10
56.621006
 20
147.757045
 30
0.0
 11
57.061978
 21
148.197845
 31
0.0
  0
LINE
  5
146
100
AcDbEntity
  8
BODEN-2_4
 62
     7
100
AcDbLine
 10
59.587577
 20
150.723617
 30
0.0
 11
64.639121
 21
155.774988
 31
0.0
  0
LINE
  5
145
100
AcDbEntity
  8
BODEN-2_4
 62
     7
100
AcDbLine
 10
67.16472
 20
158.30076
 30
0.0
 11
72.216264
 21
163.351959
 31
0.0
  0
LINE
  5
144
100
AcDbEntity
  8
BODEN-2_4
 62
     7
100
AcDbLine
 10
74.741863
 20
165.87773
 30
0.0
 11
76.528318
 21
167.664185
 31
0.0
  0
LINE
  5
143
100
AcDbEntity
  8
BODEN-2_4
 62
     7
100
AcDbLine
 10
52.035583
 20
143.171278
 30
0.0
 11
56.595167
 21
147.730862
 31
0.0
  0
LINE
  5
142
100
AcDbEntity
  8
BODEN-2_4
 62
     7
100
AcDbLine
 10
72.241069
 20
143.171278
 30
0.0
 11
74.741863
 21
145.672073
 31
0.0
  0
LINE
  5
141
100
AcDbEntity
  8
BODEN-2_4
 62
     7
100
AcDbLine
 10
139.488471
 20
119.493826
 30
0.0
 11
139.509142
 21
119.514497
 31
0.0
  0
LINE
  5
140
100
AcDbEntity
  8
BODEN-2_4
 62
     7
100
AcDbLine
 10
141.742253
 20
131.85035
 30
0.0
 11
143.61225
 21
133.720003
 31
0.0
  0
LINE
  5
13F
100
AcDbEntity
  8
BODEN-2_4
 62
     7
100
AcDbLine
 10
171.072418
 20
129.946935
 30
0.0
 11
167.375141
 21
133.644556
 31
0.0
  0
LINE
  5
13E
100
AcDbEntity
  8
BODEN-2_4
 62
     7
100
AcDbLine
 10
171.072418
 20
118.72178
 30
0.0
 11
160.640668
 21
129.153529
 31
0.0
  0
LINE
  5
13D
100
AcDbEntity
  8
BODEN-2_4
 62
     7
100
AcDbLine
 10
160.640668
 20
129.153529
 30
0.0
 11
156.149642
 21
133.644556
 31
0.0
  0
LINE
  5
13C
100
AcDbEntity
  8
BODEN-2_4
 62
     7
100
AcDbLine
 10
158.513666
 20
120.055032
 30
0.0
 11
152.924344
 21
125.644699
 31
0.0
  0
LINE
  5
13B
100
AcDbEntity
  8
BODEN-2_4
 62
     7
100
AcDbLine
 10
150.374973
 20
116.968571
 30
0.0
 11
141.297146
 21
126.046742
 31
0.0
  0
LINE
  5
13A
100
AcDbEntity
  8
BODEN-2_4
 62
     7
100
AcDbLine
 10
139.149474
 20
116.968571
 30
0.0
 11
136.700011
 21
119.418378
 31
0.0
  0
LINE
  5
139
100
AcDbEntity
  8
BODEN-2_4
 62
     7
100
AcDbLine
 10
127.924664
 20
116.968571
 30
0.0
 11
125.474512
 21
119.418378
 31
0.0
  0
LINE
  5
138
100
AcDbEntity
  8
BODEN-2_4
 62
     7
100
AcDbLine
 10
71.797512
 20
116.968571
 30
0.0
 11
63.121384
 21
125.644699
 31
0.0
  0
LINE
  5
137
100
AcDbEntity
  8
BODEN-2_4
 62
     7
100
AcDbLine
 10
60.572186
 20
116.968571
 30
0.0
 11
51.869358
 21
125.671571
 31
0.0
  0
LINE
  5
136
100
AcDbEntity
  8
BODEN-2_4
 62
     7
100
AcDbLine
 10
83.022839
 20
116.968571
 30
0.0
 11
80.573032
 21
119.418378
 31
0.0
  0
LINE
  5
135
100
AcDbEntity
  8
BODEN-2_4
 62
     7
100
AcDbLine
 10
49.346859
 20
116.968571
 30
0.0
 11
41.411598
 21
124.904004
 31
0.0
  0
LINE
  5
134
100
AcDbEntity
  8
BODEN-2_4
 62
     7
100
AcDbLine
 10
51.869358
 20
125.671571
 30
0.0
 11
41.411598
 21
136.129159
 31
0.0
  0
LINE
  5
133
100
AcDbEntity
  8
BODEN-2_4
 62
     7
100
AcDbLine
 10
161.600472
 20
116.968571
 30
0.0
 11
158.513666
 21
120.055032
 31
0.0
  0
LINE
  5
132
100
AcDbEntity
  8
BODEN-2_4
 62
     7
100
AcDbLine
 10
56.757604
 20
132.00848
 30
0.0
 11
55.121528
 21
133.644556
 31
0.0
  0
LINE
  5
131
100
AcDbEntity
  8
BODEN-2_4
 62
     7
100
AcDbLine
 10
71.054922
 20
128.936488
 30
0.0
 11
66.346682
 21
133.644556
 31
0.0
  0
LINE
  5
130
100
AcDbEntity
  8
BODEN-2_4
  6
AI9-LType2
 62
     7
100
AcDbLine
 10
106.394195
 20
194.326295
 30
0.0
 11
106.394195
 21
105.033038
 31
0.0
  0
LINE
  5
12E
100
AcDbEntity
  8
BODEN-2_4
  6
AI9-LType1
 62
     7
100
AcDbLine
 10
86.057624
 20
126.910428
 30
0.0
 11
86.057624
 21
139.465044
 31
0.0
  0
LINE
  5
12D
100
AcDbEntity
  8
BODEN-2_4
  6
AI9-LType1
 62
     7
100
AcDbLine
 10
126.470833
 20
126.823267
 30
0.0
 11
126.470833
 21
139.465044
 31
0.0
  0
INSERT
  5
126
100
AcDbEntity
  8
BODEN-2_4
 62
     7
100
AcDbBlockReference
  2
AI9-BLK2
 10
103.730619
 20
71.099364
 30
0.0
  0
MTEXT
  5
124
100
AcDbEntity
  8
BODEN-2_4
 62
     7
100
AcDbMText
 10
34.218928
 20
71.630425
 30
0.0
 40
5.512152
 41
0.0
 71
     1
 72
     2
  1
\fArial|b0|i0;\H5.5122;\C7;\U+0046\U+0075\U+0074\U+0074\U+0065\U+0072\U+0072\U+006F\U+0068\U+0072\U+0020
  7
STD
210
0.0
220
0.0
230
1.0
 73
     1
 44
1.0
  0
MTEXT
  5
123
100
AcDbEntity
  8
BODEN-2_4
 62
     7
100
AcDbMText
 10
34.218928
 20
79.038758
 30
0.0
 40
5.512152
 41
0.0
 71
     1
 72
     2
  1
\fArial|b0|i0;\H5.5122;\C7;\U+0066\U+006C\U+0061\U+006E\U+0073\U+0063\U+0068\U+0020\U+006D\U+0069\U+0074
  7
STD
210
0.0
220
0.0
230
1.0
 73
     1
 44
1.0
  0
MTEXT
  5
122
100
AcDbEntity
  8
BODEN-2_4
 62
     7
100
AcDbMText
 10
34.218928
 20
86.447092
 30
0.0
 40
5.512152
 41
0.0
 71
     1
 72
     2
  1
\fArial|b0|i0;\H5.5122;\C7;\U+0046\U+0065\U+0073\U+0074\U+002D\U+0020\U+002F\U+0020\U+004C\U+006F\U+0073\U+002D\U+0073\U+002D
  7
STD
210
0.0
220
0.0
230
1.0
 73
     1
 44
1.0
  0
INSERT
  5
11D
100
AcDbEntity
  8
BODEN-2_4
 62
     7
100
AcDbBlockReference
  2
AI9-BLK1
 10
163.23517
 20
93.226695
 30
0.0
  0
LINE
  5
11B
100
AcDbEntity
  8
BODEN-2_4
 62
     7
100
AcDbLine
 10
162.924767
 20
138.396376
 30
0.0
 11
156.653659
 21
104.068755
 31
0.0
  0
LINE
  5
11A
100
AcDbEntity
  8
BODEN-2_4
 62
     7
100
AcDbLine
 10
51.566706
 20
133.780637
 30
0.0
 11
46.07109
 21
89.326158
 31
0.0
  0
LINE
  5
119
100
AcDbEntity
  8
BODEN-2_4
 62
     7
100
AcDbLine
 10
82.641812
 20
129.138715
 30
0.0
 11
91.584418
 21
91.851413
 31
0.0
  0
LINE
  5
118
100
AcDbEntity
  8
BODEN-2_4
 62
     7
100
AcDbLine
 10
92.110484
 20
119.493826
 30
0.0
 11
73.091146
 21
119.493826
 31
0.0
  0
POLYLINE
  5
112
100
AcDbEntity
  8
BODEN-2_4
 62
     7
100
AcDb2dPolyline
 66
     1
 10
0.0
 20
0.0
 30
0.0
  0
VERTEX
  5
113
100
AcDbEntity
  8
BODEN-2_4
 62
     7
100
AcDbVertex
100
AcDb2dVertex
 10
76.528318
 20
137.102743
 30
0.0
  0
VERTEX
  5
114
100
AcDbEntity
  8
BODEN-2_4
 62
     7
100
AcDbVertex
100
AcDb2dVertex
 10
74.023044
 20
137.102743
 30
0.0
  0
VERTEX
  5
115
100
AcDbEntity
  8
BODEN-2_4
 62
     7
100
AcDbVertex
100
AcDb2dVertex
 10
74.023044
 20
139.699311
 30
0.0
  0
VERTEX
  5
116
100
AcDbEntity
  8
BODEN-2_4
 62
     7
100
AcDbVertex
100
AcDb2dVertex
 10
76.528318
 20
139.699311
 30
0.0
  0
SEQEND
  5
117
100
AcDbEntity
  8
BODEN-2_4
 62
     7
  0
POLYLINE
  5
10C
100
AcDbEntity
  8
BODEN-2_4
 62
     7
100
AcDb2dPolyline
 66
     1
 10
0.0
 20
0.0
 30
0.0
 70
     1
  0
VERTEX
  5
10D
100
AcDbEntity
  8
BODEN-2_4
 62
     7
100
AcDbVertex
100
AcDb2dVertex
 10
69.501184
 20
139.699311
 30
0.0
  0
VERTEX
  5
10E
100
AcDbEntity
  8
BODEN-2_4
 62
     7
100
AcDbVertex
100
AcDb2dVertex
 10
69.501184
 20
137.102743
 30
0.0
  0
VERTEX
  5
10F
100
AcDbEntity
  8
BODEN-2_4
 62
     7
100
AcDbVertex
100
AcDb2dVertex
 10
64.979496
 20
137.102743
 30
0.0
  0
VERTEX
  5
110
100
AcDbEntity
  8
BODEN-2_4
 62
     7
100
AcDbVertex
100
AcDb2dVertex
 10
64.979496
 20
139.699311
 30
0.0
  0
SEQEND
  5
111
100
AcDbEntity
  8
BODEN-2_4
 62
     7
  0
POLYLINE
  5
106
100
AcDbEntity
  8
BODEN-2_4
 62
     7
100
AcDb2dPolyline
 66
     1
 10
0.0
 20
0.0
 30
0.0
 70
     1
  0
VERTEX
  5
107
100
AcDbEntity
  8
BODEN-2_4
 62
     7
100
AcDbVertex
100
AcDb2dVertex
 10
60.457464
 20
139.699311
 30
0.0
  0
VERTEX
  5
108
100
AcDbEntity
  8
BODEN-2_4
 62
     7
100
AcDbVertex
100
AcDb2dVertex
 10
60.457464
 20
137.102743
 30
0.0
  0
VERTEX
  5
109
100
AcDbEntity
  8
BODEN-2_4
 62
     7
100
AcDbVertex
100
AcDb2dVertex
 10
55.935776
 20
137.102743
 30
0.0
  0
VERTEX
  5
10A
100
AcDbEntity
  8
BODEN-2_4
 62
     7
100
AcDbVertex
100
AcDb2dVertex
 10
55.935776
 20
139.699311
 30
0.0
  0
SEQEND
  5
10B
100
AcDbEntity
  8
BODEN-2_4
 62
     7
  0
POLYLINE
  5
100
100
AcDbEntity
  8
BODEN-2_4
 62
     7
100
AcDb2dPolyline
 66
     1
 10
0.0
 20
0.0
 30
0.0
 70
     1
  0
VERTEX
  5
101
100
AcDbEntity
  8
BODEN-2_4
 62
     7
100
AcDbVertex
100
AcDb2dVertex
 10
51.413744
 20
139.699311
 30
0.0
  0
VERTEX
  5
102
100
AcDbEntity
  8
BODEN-2_4
 62
     7
100
AcDbVertex
100
AcDb2dVertex
 10
51.413744
 20
137.102743
 30
0.0
  0
VERTEX
  5
103
100
AcDbEntity
  8
BODEN-2_4
 62
     7
100
AcDbVertex
100
AcDb2dVertex
 10
46.892056
 20
137.102743
 30
0.0
  0
VERTEX
  5
104
100
AcDbEntity
  8
BODEN-2_4
 62
     7
100
AcDbVertex
100
AcDb2dVertex
 10
46.892056
 20
139.699311
 30
0.0
  0
SEQEND
  5
105
100
AcDbEntity
  8
BODEN-2_4
 62
     7
  0
LINE
  5
FF
100
AcDbEntity
  8
BODEN-2_4
 62
     7
100
AcDbLine
 10
41.553191
 20
181.822149
 30
0.0
 11
80.423859
 21
181.822149
 31
0.0
  0
LINE
  5
FE
100
AcDbEntity
  8
BODEN-2_4
 62
     7
100
AcDbLine
 10
132.364014
 20
181.822149
 30
0.0
 11
171.403836
 21
181.822149
 31
0.0
  0
LINE
  5
FD
100
AcDbEntity
  8
BODEN-2_4
 62
     7
100
AcDbLine
 10
76.528318
 20
181.822149
 30
0.0
 11
76.528318
 21
119.493826
 31
0.0
  0
LINE
  5
FC
100
AcDbEntity
  8
BODEN-2_4
 62
     7
100
AcDbLine
 10
132.364014
 20
181.822149
 30
0.0
 11
132.364014
 21
119.493826
 31
0.0
  0
LINE
  5
FB
100
AcDbEntity
  8
BODEN-2_4
 62
     7
100
AcDbLine
 10
80.423859
 20
181.822149
 30
0.0
 11
92.110484
 21
181.822149
 31
0.0
  0
LINE
  5
FA
100
AcDbEntity
  8
BODEN-2_4
 62
     7
100
AcDbLine
 10
120.677561
 20
181.822149
 30
0.0
 11
132.364014
 21
181.822149
 31
0.0
  0
LINE
  5
F9
100
AcDbEntity
  8
BODEN-2_4
 62
     7
100
AcDbLine
 10
131.714958
 20
126.879766
 30
0.0
 11
131.714958
 21
124.802374
 31
0.0
  0
LINE
  5
F8
100
AcDbEntity
  8
BODEN-2_4
 62
     7
100
AcDbLine
 10
80.164099
 20
123.389195
 30
0.0
 11
80.164099
 21
119.493826
 31
0.0
  0
LINE
  5
F7
100
AcDbEntity
  8
BODEN-2_4
 62
     7
100
AcDbLine
 10
80.164099
 20
181.822149
 30
0.0
 11
80.164099
 21
119.493826
 31
0.0
  0
LINE
  5
F6
100
AcDbEntity
  8
BODEN-2_4
 62
     7
100
AcDbLine
 10
80.8135
 20
136.651435
 30
0.0
 11
131.714958
 21
136.651435
 31
0.0
  0
LINE
  5
F5
100
AcDbEntity
  8
BODEN-2_4
 62
     7
100
AcDbLine
 10
131.714958
 20
136.651435
 30
0.0
 11
131.714958
 21
134.574042
 31
0.0
  0
LINE
  5
F4
100
AcDbEntity
  8
BODEN-2_4
 62
     7
100
AcDbLine
 10
80.8135
 20
134.574042
 30
0.0
 11
80.8135
 21
136.651435
 31
0.0
  0
LINE
  5
F3
100
AcDbEntity
  8
BODEN-2_4
 62
     7
100
AcDbLine
 10
80.164099
 20
126.879766
 30
0.0
 11
132.40191
 21
126.879766
 31
0.0
  0
LINE
  5
F2
100
AcDbEntity
  8
BODEN-2_4
 62
     7
100
AcDbLine
 10
132.234478
 20
126.879766
 30
0.0
 11
132.234478
 21
132.073937
 31
0.0
  0
LINE
  5
F1
100
AcDbEntity
  8
BODEN-2_4
 62
     7
100
AcDbLine
 10
80.8135
 20
126.879766
 30
0.0
 11
131.714958
 21
126.879766
 31
0.0
  0
LINE
  5
F0
100
AcDbEntity
  8
BODEN-2_4
 62
     7
100
AcDbLine
 10
80.8135
 20
124.802374
 30
0.0
 11
80.8135
 21
126.879766
 31
0.0
  0
POLYLINE
  5
EA
100
AcDbEntity
  8
BODEN-2_4
 62
     7
100
AcDb2dPolyline
 66
     1
 10
0.0
 20
0.0
 30
0.0
 70
     1
  0
VERTEX
  5
EB
100
AcDbEntity
  8
BODEN-2_4
 62
     7
100
AcDbVertex
100
AcDb2dVertex
 10
83.564581
 20
136.651435
 30
0.0
  0
VERTEX
  5
EC
100
AcDbEntity
  8
BODEN-2_4
 62
     7
100
AcDbVertex
100
AcDb2dVertex
 10
88.55084
 20
136.651435
 30
0.0
  0
VERTEX
  5
ED
100
AcDbEntity
  8
BODEN-2_4
 62
     7
100
AcDbVertex
100
AcDb2dVertex
 10
88.55084
 20
137.170955
 30
0.0
  0
VERTEX
  5
EE
100
AcDbEntity
  8
BODEN-2_4
 62
     7
100
AcDbVertex
100
AcDb2dVertex
 10
83.564581
 20
137.170955
 30
0.0
  0
SEQEND
  5
EF
100
AcDbEntity
  8
BODEN-2_4
 62
     7
  0
POLYLINE
  5
E4
100
AcDbEntity
  8
BODEN-2_4
 62
     7
100
AcDb2dPolyline
 66
     1
 10
0.0
 20
0.0
 30
0.0
 70
     1
  0
VERTEX
  5
E5
100
AcDbEntity
  8
BODEN-2_4
 62
     7
100
AcDbVertex
100
AcDb2dVertex
 10
128.963704
 20
136.651435
 30
0.0
  0
VERTEX
  5
E6
100
AcDbEntity
  8
BODEN-2_4
 62
     7
100
AcDbVertex
100
AcDb2dVertex
 10
123.977273
 20
136.651435
 30
0.0
  0
VERTEX
  5
E7
100
AcDbEntity
  8
BODEN-2_4
 62
     7
100
AcDbVertex
100
AcDb2dVertex
 10
123.977273
 20
137.170955
 30
0.0
  0
VERTEX
  5
E8
100
AcDbEntity
  8
BODEN-2_4
 62
     7
100
AcDbVertex
100
AcDb2dVertex
 10
128.963704
 20
137.170955
 30
0.0
  0
SEQEND
  5
E9
100
AcDbEntity
  8
BODEN-2_4
 62
     7
  0
LINE
  5
E3
100
AcDbEntity
  8
BODEN-2_4
 62
     7
100
AcDbLine
 10
84.654781
 20
137.170955
 30
0.0
 11
87.460811
 21
137.170955
 31
0.0
  0
SPLINE
  5
E2
100
AcDbEntity
  8
BODEN-2_4
 62
     7
100
AcDbSpline
210
0.0
220
0.0
230
1.0
 70
     8
 71
     3
 72
     8
 73
     4
 74
     0
 42
0.00000001
 43
0.00000001
 40
0.0
 40
0.0
 40
0.0
 40
0.0
 40
1.0
 40
1.0
 40
1.0
 40
1.0
 10
86.992967393663193
 20
137.3314968532986
 30
0.0
 10
86.387836371527769
 20
137.11755642361109
 30
0.0
 10
85.727583821614573
 20
137.11755642361109
 30
0.0
 10
85.122452799479163
 20
137.3314968532986
 30
0.0
  0
SPLINE
  5
E1
100
AcDbEntity
  8
BODEN-2_4
 62
     7
100
AcDbSpline
210
0.0
220
0.0
230
1.0
 70
     8
 71
     3
 72
     8
 73
     4
 74
     0
 42
0.00000001
 43
0.00000001
 40
0.0
 40
0.0
 40
0.0
 40
0.0
 40
1.0
 40
1.0
 40
1.0
 40
1.0
 10
85.122452799479163
 20
138.77636990017359
 30
0.0
 10
85.727583821614573
 20
138.9903103298611
 30
0.0
 10
86.387836371527769
 20
138.9903103298611
 30
0.0
 10
86.992967393663193
 20
138.77636990017359
 30
0.0
  0
LINE
  5
E0
100
AcDbEntity
  8
BODEN-2_4
 62
     7
100
AcDbLine
 10
84.654781
 20
138.936911
 30
0.0
 11
87.460811
 21
138.936911
 31
0.0
  0
LINE
  5
DF
100
AcDbEntity
  8
BODEN-2_4
 62
     7
100
AcDbLine
 10
84.187109
 20
137.331497
 30
0.0
 11
84.187109
 21
138.77637
 31
0.0
  0
LINE
  5
DE
100
AcDbEntity
  8
BODEN-2_4
 62
     7
100
AcDbLine
 10
85.122453
 20
137.331497
 30
0.0
 11
85.122453
 21
138.77637
 31
0.0
  0
SPLINE
  5
DD
100
AcDbEntity
  8
BODEN-2_4
 62
     7
100
AcDbSpline
210
0.0
220
0.0
230
1.0
 70
     8
 71
     3
 72
     8
 73
     4
 74
     0
 42
0.00000001
 43
0.00000001
 40
0.0
 40
0.0
 40
0.0
 40
0.0
 40
1.0
 40
1.0
 40
1.0
 40
1.0
 10
84.187109374999991
 20
138.77636990017359
 30
0.0
 10
84.462200249565967
 20
138.9903103298611
 30
0.0
 10
84.847361924913187
 20
138.9903103298611
 30
0.0
 10
85.122452799479163
 20
138.77636990017359
 30
0.0
  0
SPLINE
  5
DC
100
AcDbEntity
  8
BODEN-2_4
 62
     7
100
AcDbSpline
210
0.0
220
0.0
230
1.0
 70
     8
 71
     3
 72
     8
 73
     4
 74
     0
 42
0.00000001
 43
0.00000001
 40
0.0
 40
0.0
 40
0.0
 40
0.0
 40
1.0
 40
1.0
 40
1.0
 40
1.0
 10
85.122452799479163
 20
137.3314968532986
 30
0.0
 10
84.847361924913187
 20
137.11755642361109
 30
0.0
 10
84.462200249565967
 20
137.11755642361109
 30
0.0
 10
84.187109374999991
 20
137.3314968532986
 30
0.0
  0
SPLINE
  5
DB
100
AcDbEntity
  8
BODEN-2_4
 62
     7
100
AcDbSpline
210
0.0
220
0.0
230
1.0
 70
     8
 71
     3
 72
     8
 73
     4
 74
     0
 42
0.00000001
 43
0.00000001
 40
0.0
 40
0.0
 40
0.0
 40
0.0
 40
1.0
 40
1.0
 40
1.0
 40
1.0
 10
87.92831081814235
 20
137.3314968532986
 30
0.0
 10
87.653392198350687
 20
137.11755642361109
 30
0.0
 10
87.268230523003467
 20
137.11755642361109
 30
0.0
 10
86.992967393663193
 20
137.3314968532986
 30
0.0
  0
SPLINE
  5
DA
100
AcDbEntity
  8
BODEN-2_4
 62
     7
100
AcDbSpline
210
0.0
220
0.0
230
1.0
 70
     8
 71
     3
 72
     8
 73
     4
 74
     0
 42
0.00000001
 43
0.00000001
 40
0.0
 40
0.0
 40
0.0
 40
0.0
 40
1.0
 40
1.0
 40
1.0
 40
1.0
 10
86.992967393663193
 20
138.77636990017359
 30
0.0
 10
87.268230523003467
 20
138.9903103298611
 30
0.0
 10
87.653392198350687
 20
138.9903103298611
 30
0.0
 10
87.92831081814235
 20
138.77636990017359
 30
0.0
  0
LINE
  5
D9
100
AcDbEntity
  8
BODEN-2_4
 62
     7
100
AcDbLine
 10
86.992967
 20
137.331497
 30
0.0
 11
86.992967
 21
138.77637
 31
0.0
  0
LINE
  5
D8
100
AcDbEntity
  8
BODEN-2_4
 62
     7
100
AcDbLine
 10
87.928311
 20
137.331497
 30
0.0
 11
87.928311
 21
138.77637
 31
0.0
  0
LINE
  5
D7
100
AcDbEntity
  8
BODEN-2_4
 62
     7
100
AcDbLine
 10
125.067301
 20
137.170955
 30
0.0
 11
127.873676
 21
137.170955
 31
0.0
  0
SPLINE
  5
D6
100
AcDbEntity
  8
BODEN-2_4
 62
     7
100
AcDbSpline
210
0.0
220
0.0
230
1.0
 70
     8
 71
     3
 72
     8
 73
     4
 74
     0
 42
0.00000001
 43
0.00000001
 40
0.0
 40
0.0
 40
0.0
 40
0.0
 40
1.0
 40
1.0
 40
1.0
 40
1.0
 10
127.40583224826388
 20
137.3314968532986
 30
0.0
 10
126.80087348090277
 20
137.11755642361109
 30
0.0
 10
126.14010416666666
 20
137.11755642361109
 30
0.0
 10
125.53514539930555
 20
137.3314968532986
 30
0.0
  0
SPLINE
  5
D5
100
AcDbEntity
  8
BODEN-2_4
 62
     7
100
AcDbSpline
210
0.0
220
0.0
230
1.0
 70
     8
 71
     3
 72
     8
 73
     4
 74
     0
 42
0.00000001
 43
0.00000001
 40
0.0
 40
0.0
 40
0.0
 40
0.0
 40
1.0
 40
1.0
 40
1.0
 40
1.0
 10
125.53514539930555
 20
138.77636990017359
 30
0.0
 10
126.14010416666666
 20
138.9903103298611
 30
0.0
 10
126.80087348090277
 20
138.9903103298611
 30
0.0
 10
127.40583224826388
 20
138.77636990017359
 30
0.0
  0
LINE
  5
D4
100
AcDbEntity
  8
BODEN-2_4
 62
     7
100
AcDbLine
 10
125.067301
 20
138.936911
 30
0.0
 11
127.873676
 21
138.936911
 31
0.0
  0
LINE
  5
D3
100
AcDbEntity
  8
BODEN-2_4
 62
     7
100
AcDbLine
 10
124.600146
 20
137.331497
 30
0.0
 11
124.600146
 21
138.77637
 31
0.0
  0
LINE
  5
D2
100
AcDbEntity
  8
BODEN-2_4
 62
     7
100
AcDbLine
 10
125.535145
 20
137.331497
 30
0.0
 11
125.535145
 21
138.77637
 31
0.0
  0
SPLINE
  5
D1
100
AcDbEntity
  8
BODEN-2_4
 62
     7
100
AcDbSpline
210
0.0
220
0.0
230
1.0
 70
     8
 71
     3
 72
     8
 73
     4
 74
     0
 42
0.00000001
 43
0.00000001
 40
0.0
 40
0.0
 40
0.0
 40
0.0
 40
1.0
 40
1.0
 40
1.0
 40
1.0
 10
124.60014648437499
 20
138.77636990017359
 30
0.0
 10
124.87506510416665
 20
138.9903103298611
 30
0.0
 10
125.26022677951387
 20
138.9903103298611
 30
0.0
 10
125.53514539930555
 20
138.77636990017359
 30
0.0
  0
SPLINE
  5
D0
100
AcDbEntity
  8
BODEN-2_4
 62
     7
100
AcDbSpline
210
0.0
220
0.0
230
1.0
 70
     8
 71
     3
 72
     8
 73
     4
 74
     0
 42
0.00000001
 43
0.00000001
 40
0.0
 40
0.0
 40
0.0
 40
0.0
 40
1.0
 40
1.0
 40
1.0
 40
1.0
 10
125.53514539930555
 20
137.3314968532986
 30
0.0
 10
125.26022677951387
 20
137.11755642361109
 30
0.0
 10
124.87506510416665
 20
137.11755642361109
 30
0.0
 10
124.60014648437499
 20
137.3314968532986
 30
0.0
  0
SPLINE
  5
CF
100
AcDbEntity
  8
BODEN-2_4
 62
     7
100
AcDbSpline
210
0.0
220
0.0
230
1.0
 70
     8
 71
     3
 72
     8
 73
     4
 74
     0
 42
0.00000001
 43
0.00000001
 40
0.0
 40
0.0
 40
0.0
 40
0.0
 40
1.0
 40
1.0
 40
1.0
 40
1.0
 10
128.34152018229165
 20
137.3314968532986
 30
0.0
 10
128.06591254340276
 20
137.11755642361109
 30
0.0
 10
127.68075086805554
 20
137.11755642361109
 30
0.0
 10
127.40583224826388
 20
137.3314968532986
 30
0.0
  0
SPLINE
  5
CE
100
AcDbEntity
  8
BODEN-2_4
 62
     7
100
AcDbSpline
210
0.0
220
0.0
230
1.0
 70
     8
 71
     3
 72
     8
 73
     4
 74
     0
 42
0.00000001
 43
0.00000001
 40
0.0
 40
0.0
 40
0.0
 40
0.0
 40
1.0
 40
1.0
 40
1.0
 40
1.0
 10
127.40583224826388
 20
138.77636990017359
 30
0.0
 10
127.68075086805554
 20
138.9903103298611
 30
0.0
 10
128.06591254340276
 20
138.9903103298611
 30
0.0
 10
128.34152018229165
 20
138.77636990017359
 30
0.0
  0
LINE
  5
CD
100
AcDbEntity
  8
BODEN-2_4
 62
     7
100
AcDbLine
 10
127.405832
 20
137.331497
 30
0.0
 11
127.405832
 21
138.77637
 31
0.0
  0
LINE
  5
CC
100
AcDbEntity
  8
BODEN-2_4
 62
     7
100
AcDbLine
 10
128.34152
 20
137.331497
 30
0.0
 11
128.34152
 21
138.77637
 31
0.0
  0
LINE
  5
CB
100
AcDbEntity
  8
BODEN-2_4
 62
     7
100
AcDbLine
 10
92.110484
 20
188.431565
 30
0.0
 11
92.110484
 21
134.151674
 31
0.0
  0
LINE
  5
CA
100
AcDbEntity
  8
BODEN-2_4
 62
     7
100
AcDbLine
 10
92.110484
 20
124.802374
 30
0.0
 11
92.110484
 21
109.901647
 31
0.0
  0
LINE
  5
C9
100
AcDbEntity
  8
BODEN-2_4
 62
     7
100
AcDbLine
 10
120.677561
 20
188.431565
 30
0.0
 11
120.677561
 21
134.151674
 31
0.0
  0
LINE
  5
C8
100
AcDbEntity
  8
BODEN-2_4
 62
     7
100
AcDbLine
 10
120.677561
 20
124.802374
 30
0.0
 11
120.677561
 21
109.901647
 31
0.0
  0
SPLINE
  5
C7
100
AcDbEntity
  8
BODEN-2_4
 62
     7
100
AcDbSpline
210
0.0
220
0.0
230
1.0
 70
     8
 71
     3
 72
     8
 73
     4
 74
     0
 42
0.00000001
 43
0.00000001
 40
0.0
 40
0.0
 40
0.0
 40
0.0
 40
1.0
 40
1.0
 40
1.0
 40
1.0
 10
109.56437174479166
 20
188.52096489800346
 30
0.0
 10
104.63151177300347
 20
190.23179931640624
 30
0.0
 10
99.413914659288181
 20
190.97060004340275
 30
0.0
 10
94.200107150607636
 20
190.69654269748261
 30
0.0
  0
SPLINE
  5
C6
100
AcDbEntity
  8
BODEN-2_4
 62
     7
100
AcDbSpline
210
0.0
220
0.0
230
1.0
 70
     8
 71
     3
 72
     8
 73
     4
 74
     0
 42
0.00000001
 43
0.00000001
 40
0.0
 40
0.0
 40
0.0
 40
0.0
 40
1.0
 40
1.0
 40
1.0
 40
1.0
 10
102.05802544487847
 20
186.71142849392359
 30
0.0
 10
104.58534749348958
 20
187.20614420572915
 30
0.0
 10
107.08941514756944
 20
187.80989718967012
 30
0.0
 10
109.56437174479166
 20
188.52096489800346
 30
0.0
  0
SPLINE
  5
C5
100
AcDbEntity
  8
BODEN-2_4
 62
     7
100
AcDbSpline
210
0.0
220
0.0
230
1.0
 70
     8
 71
     3
 72
     8
 73
     4
 74
     0
 42
0.00000001
 43
0.00000001
 40
0.0
 40
0.0
 40
0.0
 40
0.0
 40
1.0
 40
1.0
 40
1.0
 40
1.0
 10
94.156698947482624
 20
186.17037624782984
 30
0.0
 10
96.969619411892353
 20
186.02447645399303
 30
0.0
 10
99.789774576822907
 20
186.23893364800347
 30
0.0
 10
102.54791802300346
 20
186.80875244140623
 30
0.0
  0
SPLINE
  5
C4
100
AcDbEntity
  8
BODEN-2_4
 62
     7
100
AcDbSpline
210
0.0
220
0.0
230
1.0
 70
     8
 71
     3
 72
     8
 73
     4
 74
     0
 42
0.00000001
 43
0.00000001
 40
0.0
 40
0.0
 40
0.0
 40
0.0
 40
1.0
 40
1.0
 40
1.0
 40
1.0
 10
109.56437174479166
 20
188.52096489800346
 30
0.0
 10
104.57501220703124
 20
189.56172824435762
 30
0.0
 10
99.459389919704847
 20
189.85972900390624
 30
0.0
 10
94.38286946614582
 20
189.40532090928818
 30
0.0
  0
SPLINE
  5
C3
100
AcDbEntity
  8
BODEN-2_4
 62
     7
100
AcDbSpline
210
0.0
220
0.0
230
1.0
 70
     8
 71
     3
 72
     8
 73
     4
 74
     0
 42
0.00000001
 43
0.00000001
 40
0.0
 40
0.0
 40
0.0
 40
0.0
 40
1.0
 40
1.0
 40
1.0
 40
1.0
 10
94.38286946614582
 20
187.45763617621526
 30
0.0
 10
99.468002658420133
 20
187.10296359592013
 30
0.0
 10
104.57811279296874
 20
187.46090901692708
 30
0.0
 10
109.56437174479166
 20
188.52096489800346
 30
0.0
  0
SPLINE
  5
C2
100
AcDbEntity
  8
BODEN-2_4
 62
     7
100
AcDbSpline
210
0.0
220
0.0
230
1.0
 70
     8
 71
     3
 72
    11
 73
     7
 74
     0
 42
0.00000001
 43
0.00000001
 40
0.0
 40
0.0
 40
0.0
 40
0.0
 40
1.0
 40
1.0
 40
1.0
 40
2.0
 40
2.0
 40
2.0
 40
2.0
 10
94.38286946614582
 20
189.40532090928818
 30
0.0
 10
93.844917805989581
 20
189.40532090928818
 30
0.0
 10
93.408940972222211
 20
188.96951633029514
 30
0.0
 10
93.408940972222211
 20
188.43156467013887
 30
0.0
 10
93.408940972222211
 20
187.89361300998263
 30
0.0
 10
93.844917805989581
 20
187.45763617621526
 30
0.0
 10
94.38286946614582
 20
187.45763617621526
 30
0.0
  0
SPLINE
  5
C1
100
AcDbEntity
  8
BODEN-2_4
 62
     7
100
AcDbSpline
210
0.0
220
0.0
230
1.0
 70
     8
 71
     3
 72
    11
 73
     7
 74
     0
 42
0.00000001
 43
0.00000001
 40
0.0
 40
0.0
 40
0.0
 40
0.0
 40
1.0
 40
1.0
 40
1.0
 40
2.0
 40
2.0
 40
2.0
 40
2.0
 10
94.334810384114576
 20
190.70343288845484
 30
0.0
 10
93.08010660807291
 20
190.67690565321178
 30
0.0
 10
92.084474012586796
 20
189.63820936414928
 30
0.0
 10
92.111001247829847
 20
188.38350558810762
 30
0.0
 10
92.137183973524301
 20
187.14464925130207
 30
0.0
 10
93.150903320312494
 20
186.15539008246526
 30
0.0
 10
94.389931911892347
 20
186.15917968749997
 30
0.0
  0
SPLINE
  5
C0
100
AcDbEntity
  8
BODEN-2_4
 62
     7
100
AcDbSpline
210
0.0
220
0.0
230
1.0
 70
     8
 71
     3
 72
     8
 73
     4
 74
     0
 42
0.00000001
 43
0.00000001
 40
0.0
 40
0.0
 40
0.0
 40
0.0
 40
1.0
 40
1.0
 40
1.0
 40
1.0
 10
109.56437174479166
 20
188.52096489800346
 30
0.0
 10
112.29702148437499
 20
189.12867974175344
 30
0.0
 10
115.00968967013888
 20
189.81907687717012
 30
0.0
 10
117.70030924479165
 20
190.59181179470485
 30
0.0
  0
SPLINE
  5
BF
100
AcDbEntity
  8
BODEN-2_4
 62
     7
100
AcDbSpline
210
0.0
220
0.0
230
1.0
 70
     8
 71
     3
 72
     8
 73
     4
 74
     0
 42
0.00000001
 43
0.00000001
 40
0.0
 40
0.0
 40
0.0
 40
0.0
 40
1.0
 40
1.0
 40
1.0
 40
1.0
 10
103.22350124782986
 20
109.81207411024305
 30
0.0
 10
108.15601671006944
 20
108.10123969184026
 30
0.0
 10
113.37395833333332
 20
107.36226671006943
 30
0.0
 10
118.58776584201388
 20
107.63649631076387
 30
0.0
  0
SPLINE
  5
BE
100
AcDbEntity
  8
BODEN-2_4
 62
     7
100
AcDbSpline
210
0.0
220
0.0
230
1.0
 70
     8
 71
     3
 72
     8
 73
     4
 74
     0
 42
0.00000001
 43
0.00000001
 40
0.0
 40
0.0
 40
0.0
 40
0.0
 40
1.0
 40
1.0
 40
1.0
 40
1.0
 10
103.22350124782986
 20
109.81207411024305
 30
0.0
 10
100.49119601779513
 20
109.20435926649304
 30
0.0
 10
97.777838812934021
 20
108.51396213107638
 30
0.0
 10
95.087563747829847
 20
107.74122721354166
 30
0.0
  0
SPLINE
  5
BD
100
AcDbEntity
  8
BODEN-2_4
 62
     7
100
AcDbSpline
210
0.0
220
0.0
230
1.0
 70
     8
 71
     3
 72
     8
 73
     4
 74
     0
 42
0.00000001
 43
0.00000001
 40
0.0
 40
0.0
 40
0.0
 40
0.0
 40
1.0
 40
1.0
 40
1.0
 40
1.0
 10
120.26346028645833
 20
189.73897840711803
 30
0.0
 10
119.55583767361109
 20
190.42593044704859
 30
0.0
 10
118.56158311631944
 20
190.73151041666665
 30
0.0
 10
117.5900661892361
 20
190.56028917100693
 30
0.0
  0
SPLINE
  5
BC
100
AcDbEntity
  8
BODEN-2_4
 62
     7
100
AcDbSpline
210
0.0
220
0.0
230
1.0
 70
     8
 71
     3
 72
     8
 73
     4
 74
     0
 42
0.00000001
 43
0.00000001
 40
0.0
 40
0.0
 40
0.0
 40
0.0
 40
1.0
 40
1.0
 40
1.0
 40
1.0
 10
120.67756076388888
 20
188.43156467013887
 30
0.0
 10
120.67756076388888
 20
188.89958089192706
 30
0.0
 10
120.53286675347221
 20
189.35605604383679
 30
0.0
 10
120.26346028645833
 20
189.73897840711803
 30
0.0
  0
SPLINE
  5
BB
100
AcDbEntity
  8
BODEN-2_4
 62
     7
100
AcDbSpline
210
0.0
220
0.0
230
1.0
 70
     8
 71
     3
 72
     8
 73
     4
 74
     0
 42
0.00000001
 43
0.00000001
 40
0.0
 40
0.0
 40
0.0
 40
0.0
 40
1.0
 40
1.0
 40
1.0
 40
1.0
 10
92.110484483506937
 20
109.90164659288193
 30
0.0
 10
92.110484483506937
 20
109.43345811631943
 30
0.0
 10
92.255006239149296
 20
108.97698296440971
 30
0.0
 10
92.524240451388877
 20
108.59388834635416
 30
0.0
  0
SPLINE
  5
BA
100
AcDbEntity
  8
BODEN-2_4
 62
     7
100
AcDbSpline
210
0.0
220
0.0
230
1.0
 70
     8
 71
     3
 72
     8
 73
     4
 74
     0
 42
0.00000001
 43
0.00000001
 40
0.0
 40
0.0
 40
0.0
 40
0.0
 40
1.0
 40
1.0
 40
1.0
 40
1.0
 10
92.524240451388877
 20
108.59388834635416
 30
0.0
 10
93.231863064236109
 20
107.9069363064236
 30
0.0
 10
94.226289876302076
 20
107.60135633680555
 30
0.0
 10
95.197634548611106
 20
107.77257758246527
 30
0.0
  0
SPLINE
  5
B9
100
AcDbEntity
  8
BODEN-2_4
 62
     7
100
AcDbSpline
210
0.0
220
0.0
230
1.0
 70
     8
 71
     3
 72
     8
 73
     4
 74
     0
 42
0.00000001
 43
0.00000001
 40
0.0
 40
0.0
 40
0.0
 40
0.0
 40
1.0
 40
1.0
 40
1.0
 40
1.0
 10
118.40517578124999
 20
110.87523057725693
 30
0.0
 10
113.31952582465277
 20
111.23007541232639
 30
0.0
 10
108.20976019965276
 20
110.87212999131944
 30
0.0
 10
103.22350124782986
 20
109.81207411024305
 30
0.0
  0
SPLINE
  5
B8
100
AcDbEntity
  8
BODEN-2_4
 62
     7
100
AcDbSpline
210
0.0
220
0.0
230
1.0
 70
     8
 71
     3
 72
     8
 73
     4
 74
     0
 42
0.00000001
 43
0.00000001
 40
0.0
 40
0.0
 40
0.0
 40
0.0
 40
1.0
 40
1.0
 40
1.0
 40
1.0
 10
118.63117404513888
 20
112.16231825086804
 30
0.0
 10
115.81859809027777
 20
112.30839029947916
 30
0.0
 10
112.99844292534721
 20
112.09410536024305
 30
0.0
 10
110.23961046006943
 20
111.52428656684027
 30
0.0
  0
SPLINE
  5
B7
100
AcDbEntity
  8
BODEN-2_4
 62
     7
100
AcDbSpline
210
0.0
220
0.0
230
1.0
 70
     8
 71
     3
 72
     8
 73
     4
 74
     0
 42
0.00000001
 43
0.00000001
 40
0.0
 40
0.0
 40
0.0
 40
0.0
 40
1.0
 40
1.0
 40
1.0
 40
1.0
 10
103.22350124782986
 20
109.81207411024305
 30
0.0
 10
108.21320529513888
 20
108.77131076388888
 30
0.0
 10
113.32848307291665
 20
108.47331000434026
 30
0.0
 10
118.40517578124999
 20
108.92737358940971
 30
0.0
  0
SPLINE
  5
B6
100
AcDbEntity
  8
BODEN-2_4
 62
     7
100
AcDbSpline
210
0.0
220
0.0
230
1.0
 70
     8
 71
     3
 72
     8
 73
     4
 74
     0
 42
0.00000001
 43
0.00000001
 40
0.0
 40
0.0
 40
0.0
 40
0.0
 40
1.0
 40
1.0
 40
1.0
 40
1.0
 10
110.72950303819444
 20
111.6214382595486
 30
0.0
 10
108.20287000868055
 20
111.12672254774304
 30
0.0
 10
105.69828559027776
 20
110.52314181857638
 30
0.0
 10
103.22350124782986
 20
109.81207411024305
 30
0.0
  0
SPLINE
  5
B5
100
AcDbEntity
  8
BODEN-2_4
 62
     7
100
AcDbSpline
210
0.0
220
0.0
230
1.0
 70
     8
 71
     3
 72
    11
 73
     7
 74
     0
 42
0.00000001
 43
0.00000001
 40
0.0
 40
0.0
 40
0.0
 40
0.0
 40
1.0
 40
1.0
 40
1.0
 40
2.0
 40
2.0
 40
2.0
 40
2.0
 10
118.40517578124999
 20
108.92737358940971
 30
0.0
 10
118.94329969618055
 20
108.92737358940971
 30
0.0
 10
119.37875976562499
 20
109.36352267795138
 30
0.0
 10
119.37875976562499
 20
109.90164659288193
 30
0.0
 10
119.37875976562499
 20
110.43908148871527
 30
0.0
 10
118.94329969618055
 20
110.87523057725693
 30
0.0
 10
118.40517578124999
 20
110.87523057725693
 30
0.0
  0
SPLINE
  5
B4
100
AcDbEntity
  8
BODEN-2_4
 62
     7
100
AcDbSpline
210
0.0
220
0.0
230
1.0
 70
     8
 71
     3
 72
    11
 73
     7
 74
     0
 42
0.00000001
 43
0.00000001
 40
0.0
 40
0.0
 40
0.0
 40
0.0
 40
1.0
 40
1.0
 40
1.0
 40
2.0
 40
2.0
 40
2.0
 40
2.0
 10
118.45340711805555
 20
107.62960611979166
 30
0.0
 10
119.70811089409722
 20
107.65613335503471
 30
0.0
 10
120.70374348958332
 20
108.69482964409721
 30
0.0
 10
120.67687174479165
 20
109.94953342013888
 30
0.0
 10
120.65068901909721
 20
111.18804524739582
 30
0.0
 10
119.63714192708332
 20
112.17747667100693
 30
0.0
 10
118.39828559027777
 20
112.17403157552083
 30
0.0
  0
LINE
  5
B3
100
AcDbEntity
  8
BODEN-2_4
 62
     7
100
AcDbLine
 10
42.370196
 20
137.102743
 30
0.0
 11
41.553191
 21
137.102743
 31
0.0
  0
LINE
  5
B2
100
AcDbEntity
  8
BODEN-2_4
 62
     7
100
AcDbLine
 10
80.8135
 20
124.802374
 30
0.0
 11
131.714958
 21
124.802374
 31
0.0
  0
LINE
  5
B1
100
AcDbEntity
  8
BODEN-2_4
 62
     7
100
AcDbLine
 10
71.020471
 20
132.327496
 30
0.0
 11
71.617162
 21
121.086494
 31
0.0
  0
POLYLINE
  5
AA
100
AcDbEntity
  8
BODEN-2_4
 62
     7
100
AcDb2dPolyline
 66
     1
 10
0.0
 20
0.0
 30
0.0
  0
VERTEX
  5
AB
100
AcDbEntity
  8
BODEN-2_4
 62
     7
100
AcDbVertex
100
AcDb2dVertex
 10
71.617162
 20
121.086494
 30
0.0
  0
VERTEX
  5
AC
100
AcDbEntity
  8
BODEN-2_4
 62
     7
100
AcDbVertex
100
AcDb2dVertex
 10
71.816288
 20
120.48877
 30
0.0
  0
VERTEX
  5
AD
100
AcDbEntity
  8
BODEN-2_4
 62
     7
100
AcDbVertex
100
AcDb2dVertex
 10
72.213852
 20
119.892079
 30
0.0
  0
VERTEX
  5
AE
100
AcDbEntity
  8
BODEN-2_4
 62
     7
100
AcDbVertex
100
AcDb2dVertex
 10
72.810543
 20
119.593389
 30
0.0
  0
VERTEX
  5
AF
100
AcDbEntity
  8
BODEN-2_4
 62
     7
100
AcDbVertex
100
AcDb2dVertex
 10
73.407922
 20
119.493826
 30
0.0
  0
SEQEND
  5
B0
100
AcDbEntity
  8
BODEN-2_4
 62
     7
  0
POLYLINE
  5
A3
100
AcDbEntity
  8
BODEN-2_4
 62
     7
100
AcDb2dPolyline
 66
     1
 10
0.0
 20
0.0
 30
0.0
  0
VERTEX
  5
A4
100
AcDbEntity
  8
BODEN-2_4
 62
     7
100
AcDbVertex
100
AcDb2dVertex
 10
139.365137
 20
119.493826
 30
0.0
  0
VERTEX
  5
A5
100
AcDbEntity
  8
BODEN-2_4
 62
     7
100
AcDbVertex
100
AcDb2dVertex
 10
140.061046
 20
119.593389
 30
0.0
  0
VERTEX
  5
A6
100
AcDbEntity
  8
BODEN-2_4
 62
     7
100
AcDbVertex
100
AcDb2dVertex
 10
140.658426
 20
119.892079
 30
0.0
  0
VERTEX
  5
A7
100
AcDbEntity
  8
BODEN-2_4
 62
     7
100
AcDbVertex
100
AcDb2dVertex
 10
141.05599
 20
120.48877
 30
0.0
  0
VERTEX
  5
A8
100
AcDbEntity
  8
BODEN-2_4
 62
     7
100
AcDbVertex
100
AcDb2dVertex
 10
141.155897
 20
121.086494
 30
0.0
  0
SEQEND
  5
A9
100
AcDbEntity
  8
BODEN-2_4
 62
     7
  0
LINE
  5
A2
100
AcDbEntity
  8
BODEN-2_4
 62
     7
100
AcDbLine
 10
45.055131
 20
133.720003
 30
0.0
 11
60.574253
 21
133.720003
 31
0.0
  0
LINE
  5
A1
100
AcDbEntity
  8
BODEN-2_4
 62
     7
100
AcDbLine
 10
45.055131
 20
133.720003
 30
0.0
 11
45.055131
 21
137.102743
 31
0.0
  0
LINE
  5
A0
100
AcDbEntity
  8
BODEN-2_4
 62
     7
100
AcDbLine
 10
60.574253
 20
133.720003
 30
0.0
 11
69.627275
 21
133.720003
 31
0.0
  0
POLYLINE
  5
9A
100
AcDbEntity
  8
BODEN-2_4
 62
     7
100
AcDb2dPolyline
 66
     1
 10
0.0
 20
0.0
 30
0.0
  0
VERTEX
  5
9B
100
AcDbEntity
  8
BODEN-2_4
 62
     7
100
AcDbVertex
100
AcDb2dVertex
 10
71.020471
 20
132.327496
 30
0.0
  0
VERTEX
  5
9C
100
AcDbEntity
  8
BODEN-2_4
 62
     7
100
AcDbVertex
100
AcDb2dVertex
 10
70.821345
 20
133.023749
 30
0.0
  0
VERTEX
  5
9D
100
AcDbEntity
  8
BODEN-2_4
 62
     7
100
AcDbVertex
100
AcDb2dVertex
 10
70.323528
 20
133.52191
 30
0.0
  0
VERTEX
  5
9E
100
AcDbEntity
  8
BODEN-2_4
 62
     7
100
AcDbVertex
100
AcDb2dVertex
 10
69.627275
 20
133.720003
 30
0.0
  0
SEQEND
  5
9F
100
AcDbEntity
  8
BODEN-2_4
 62
     7
  0
LINE
  5
99
100
AcDbEntity
  8
BODEN-2_4
 62
     7
100
AcDbLine
 10
48.83509
 20
143.171278
 30
0.0
 11
73.507486
 21
143.171278
 31
0.0
  0
LINE
  5
98
100
AcDbEntity
  8
BODEN-2_4
 62
     7
100
AcDbLine
 10
41.553191
 20
139.68932
 30
0.0
 11
76.528318
 21
139.68932
 31
0.0
  0
POLYLINE
  5
93
100
AcDbEntity
  8
BODEN-2_4
 62
     7
100
AcDb2dPolyline
 66
     1
 10
0.0
 20
0.0
 30
0.0
  0
VERTEX
  5
94
100
AcDbEntity
  8
BODEN-2_4
 62
     7
100
AcDbVertex
100
AcDb2dVertex
 10
50.526287
 20
139.68932
 30
0.0
  0
VERTEX
  5
95
100
AcDbEntity
  8
BODEN-2_4
 62
     7
100
AcDbVertex
100
AcDb2dVertex
 10
48.83509
 20
141.480081
 30
0.0
  0
VERTEX
  5
96
100
AcDbEntity
  8
BODEN-2_4
 62
     7
100
AcDbVertex
100
AcDb2dVertex
 10
48.83509
 20
143.171278
 30
0.0
  0
SEQEND
  5
97
100
AcDbEntity
  8
BODEN-2_4
 62
     7
  0
POLYLINE
  5
8E
100
AcDbEntity
  8
BODEN-2_4
 62
     7
100
AcDb2dPolyline
 66
     1
 10
0.0
 20
0.0
 30
0.0
  0
VERTEX
  5
8F
100
AcDbEntity
  8
BODEN-2_4
 62
     7
100
AcDbVertex
100
AcDb2dVertex
 10
71.816288
 20
139.68932
 30
0.0
  0
VERTEX
  5
90
100
AcDbEntity
  8
BODEN-2_4
 62
     7
100
AcDbVertex
100
AcDb2dVertex
 10
73.507486
 20
141.480081
 30
0.0
  0
VERTEX
  5
91
100
AcDbEntity
  8
BODEN-2_4
 62
     7
100
AcDbVertex
100
AcDb2dVertex
 10
73.507486
 20
143.171278
 30
0.0
  0
SEQEND
  5
92
100
AcDbEntity
  8
BODEN-2_4
 62
     7
  0
LINE
  5
8D
100
AcDbEntity
  8
BODEN-2_4
 62
     7
100
AcDbLine
 10
73.507486
 20
143.171278
 30
0.0
 11
76.528318
 21
143.171278
 31
0.0
  0
LINE
  5
8C
100
AcDbEntity
  8
BODEN-2_4
 62
     7
100
AcDbLine
 10
73.507486
 20
141.480081
 30
0.0
 11
76.528318
 21
141.480081
 31
0.0
  0
LINE
  5
8B
100
AcDbEntity
  8
BODEN-2_4
 62
     7
100
AcDbLine
 10
171.235026
 20
139.68932
 30
0.0
 11
136.259728
 21
139.68932
 31
0.0
  0
LINE
  5
8A
100
AcDbEntity
  8
BODEN-2_4
 62
     7
100
AcDbLine
 10
163.952783
 20
143.171278
 30
0.0
 11
139.280387
 21
143.171278
 31
0.0
  0
POLYLINE
  5
85
100
AcDbEntity
  8
BODEN-2_4
 62
     7
100
AcDb2dPolyline
 66
     1
 10
0.0
 20
0.0
 30
0.0
  0
VERTEX
  5
86
100
AcDbEntity
  8
BODEN-2_4
 62
     7
100
AcDbVertex
100
AcDb2dVertex
 10
162.26193
 20
139.68932
 30
0.0
  0
VERTEX
  5
87
100
AcDbEntity
  8
BODEN-2_4
 62
     7
100
AcDbVertex
100
AcDb2dVertex
 10
163.952783
 20
141.480081
 30
0.0
  0
VERTEX
  5
88
100
AcDbEntity
  8
BODEN-2_4
 62
     7
100
AcDbVertex
100
AcDb2dVertex
 10
163.952783
 20
143.171278
 30
0.0
  0
SEQEND
  5
89
100
AcDbEntity
  8
BODEN-2_4
 62
     7
  0
POLYLINE
  5
7F
100
AcDbEntity
  8
BODEN-2_4
 62
     7
100
AcDb2dPolyline
 66
     1
 10
0.0
 20
0.0
 30
0.0
 70
     1
  0
VERTEX
  5
80
100
AcDbEntity
  8
BODEN-2_4
 62
     7
100
AcDbVertex
100
AcDb2dVertex
 10
161.374474
 20
139.699311
 30
0.0
  0
VERTEX
  5
81
100
AcDbEntity
  8
BODEN-2_4
 62
     7
100
AcDbVertex
100
AcDb2dVertex
 10
161.374474
 20
137.102743
 30
0.0
  0
VERTEX
  5
82
100
AcDbEntity
  8
BODEN-2_4
 62
     7
100
AcDbVertex
100
AcDb2dVertex
 10
165.895817
 20
137.102743
 30
0.0
  0
VERTEX
  5
83
100
AcDbEntity
  8
BODEN-2_4
 62
     7
100
AcDbVertex
100
AcDb2dVertex
 10
165.895817
 20
139.699311
 30
0.0
  0
SEQEND
  5
84
100
AcDbEntity
  8
BODEN-2_4
 62
     7
  0
POLYLINE
  5
79
100
AcDbEntity
  8
BODEN-2_4
 62
     7
100
AcDb2dPolyline
 66
     1
 10
0.0
 20
0.0
 30
0.0
 70
     1
  0
VERTEX
  5
7A
100
AcDbEntity
  8
BODEN-2_4
 62
     7
100
AcDbVertex
100
AcDb2dVertex
 10
152.330409
 20
139.699311
 30
0.0
  0
VERTEX
  5
7B
100
AcDbEntity
  8
BODEN-2_4
 62
     7
100
AcDbVertex
100
AcDb2dVertex
 10
152.330409
 20
137.102743
 30
0.0
  0
VERTEX
  5
7C
100
AcDbEntity
  8
BODEN-2_4
 62
     7
100
AcDbVertex
100
AcDb2dVertex
 10
156.852441
 20
137.102743
 30
0.0
  0
VERTEX
  5
7D
100
AcDbEntity
  8
BODEN-2_4
 62
     7
100
AcDbVertex
100
AcDb2dVertex
 10
156.852441
 20
139.699311
 30
0.0
  0
SEQEND
  5
7E
100
AcDbEntity
  8
BODEN-2_4
 62
     7
  0
POLYLINE
  5
74
100
AcDbEntity
  8
BODEN-2_4
 62
     7
100
AcDb2dPolyline
 66
     1
 10
0.0
 20
0.0
 30
0.0
  0
VERTEX
  5
75
100
AcDbEntity
  8
BODEN-2_4
 62
     7
100
AcDbVertex
100
AcDb2dVertex
 10
140.971929
 20
139.68932
 30
0.0
  0
VERTEX
  5
76
100
AcDbEntity
  8
BODEN-2_4
 62
     7
100
AcDbVertex
100
AcDb2dVertex
 10
139.280387
 20
141.480081
 30
0.0
  0
VERTEX
  5
77
100
AcDbEntity
  8
BODEN-2_4
 62
     7
100
AcDbVertex
100
AcDb2dVertex
 10
139.280387
 20
143.171278
 30
0.0
  0
SEQEND
  5
78
100
AcDbEntity
  8
BODEN-2_4
 62
     7
  0
POLYLINE
  5
6E
100
AcDbEntity
  8
BODEN-2_4
 62
     7
100
AcDb2dPolyline
 66
     1
 10
0.0
 20
0.0
 30
0.0
 70
     1
  0
VERTEX
  5
6F
100
AcDbEntity
  8
BODEN-2_4
 62
     7
100
AcDbVertex
100
AcDb2dVertex
 10
143.287033
 20
139.699311
 30
0.0
  0
VERTEX
  5
70
100
AcDbEntity
  8
BODEN-2_4
 62
     7
100
AcDbVertex
100
AcDb2dVertex
 10
143.287033
 20
137.102743
 30
0.0
  0
VERTEX
  5
71
100
AcDbEntity
  8
BODEN-2_4
 62
     7
100
AcDbVertex
100
AcDb2dVertex
 10
147.808377
 20
137.102743
 30
0.0
  0
VERTEX
  5
72
100
AcDbEntity
  8
BODEN-2_4
 62
     7
100
AcDbVertex
100
AcDb2dVertex
 10
147.808377
 20
139.699311
 30
0.0
  0
SEQEND
  5
73
100
AcDbEntity
  8
BODEN-2_4
 62
     7
  0
POLYLINE
  5
68
100
AcDbEntity
  8
BODEN-2_4
 62
     7
100
AcDb2dPolyline
 66
     1
 10
0.0
 20
0.0
 30
0.0
  0
VERTEX
  5
69
100
AcDbEntity
  8
BODEN-2_4
 62
     7
100
AcDbVertex
100
AcDb2dVertex
 10
135.999967
 20
137.102743
 30
0.0
  0
VERTEX
  5
6A
100
AcDbEntity
  8
BODEN-2_4
 62
     7
100
AcDbVertex
100
AcDb2dVertex
 10
138.765001
 20
137.102743
 30
0.0
  0
VERTEX
  5
6B
100
AcDbEntity
  8
BODEN-2_4
 62
     7
100
AcDbVertex
100
AcDb2dVertex
 10
138.765001
 20
139.699311
 30
0.0
  0
VERTEX
  5
6C
100
AcDbEntity
  8
BODEN-2_4
 62
     7
100
AcDbVertex
100
AcDb2dVertex
 10
136.259728
 20
139.699311
 30
0.0
  0
SEQEND
  5
6D
100
AcDbEntity
  8
BODEN-2_4
 62
     7
  0
LINE
  5
67
100
AcDbEntity
  8
BODEN-2_4
 62
     7
100
AcDbLine
 10
139.280387
 20
141.480081
 30
0.0
 11
135.999967
 21
141.480081
 31
0.0
  0
LINE
  5
66
100
AcDbEntity
  8
BODEN-2_4
 62
     7
100
AcDbLine
 10
139.280387
 20
143.171278
 30
0.0
 11
135.999967
 21
143.171278
 31
0.0
  0
LINE
  5
65
100
AcDbEntity
  8
BODEN-2_4
 62
     7
100
AcDbLine
 10
167.732742
 20
133.720003
 30
0.0
 11
167.732742
 21
137.102743
 31
0.0
  0
LINE
  5
64
100
AcDbEntity
  8
BODEN-2_4
 62
     7
100
AcDbLine
 10
167.732742
 20
133.720003
 30
0.0
 11
152.213965
 21
133.720003
 31
0.0
  0
LINE
  5
63
100
AcDbEntity
  8
BODEN-2_4
 62
     7
100
AcDbLine
 10
152.213965
 20
133.720003
 30
0.0
 11
143.160943
 21
133.720003
 31
0.0
  0
POLYLINE
  5
5D
100
AcDbEntity
  8
BODEN-2_4
 62
     7
100
AcDb2dPolyline
 66
     1
 10
0.0
 20
0.0
 30
0.0
  0
VERTEX
  5
5E
100
AcDbEntity
  8
BODEN-2_4
 62
     7
100
AcDbVertex
100
AcDb2dVertex
 10
141.767746
 20
132.327496
 30
0.0
  0
VERTEX
  5
5F
100
AcDbEntity
  8
BODEN-2_4
 62
     7
100
AcDbVertex
100
AcDb2dVertex
 10
141.966873
 20
133.023749
 30
0.0
  0
VERTEX
  5
60
100
AcDbEntity
  8
BODEN-2_4
 62
     7
100
AcDbVertex
100
AcDb2dVertex
 10
142.464345
 20
133.52191
 30
0.0
  0
VERTEX
  5
61
100
AcDbEntity
  8
BODEN-2_4
 62
     7
100
AcDbVertex
100
AcDb2dVertex
 10
143.160943
 20
133.720003
 30
0.0
  0
SEQEND
  5
62
100
AcDbEntity
  8
BODEN-2_4
 62
     7
  0
LINE
  5
5C
100
AcDbEntity
  8
BODEN-2_4
 62
     7
100
AcDbLine
 10
141.767746
 20
132.327496
 30
0.0
 11
141.171056
 21
121.086494
 31
0.0
  0
POLYLINE
  5
55
100
AcDbEntity
  8
BODEN-2_4
 62
     7
100
AcDb2dPolyline
 66
     1
 10
0.0
 20
0.0
 30
0.0
  0
VERTEX
  5
56
100
AcDbEntity
  8
BODEN-2_4
 62
     7
100
AcDbVertex
100
AcDb2dVertex
 10
141.171056
 20
121.086494
 30
0.0
  0
VERTEX
  5
57
100
AcDbEntity
  8
BODEN-2_4
 62
     7
100
AcDbVertex
100
AcDb2dVertex
 10
140.971929
 20
120.48877
 30
0.0
  0
VERTEX
  5
58
100
AcDbEntity
  8
BODEN-2_4
 62
     7
100
AcDbVertex
100
AcDb2dVertex
 10
140.574365
 20
119.892079
 30
0.0
  0
VERTEX
  5
59
100
AcDbEntity
  8
BODEN-2_4
 62
     7
100
AcDbVertex
100
AcDb2dVertex
 10
139.977675
 20
119.593389
 30
0.0
  0
VERTEX
  5
5A
100
AcDbEntity
  8
BODEN-2_4
 62
     7
100
AcDbVertex
100
AcDb2dVertex
 10
139.380295
 20
119.493826
 30
0.0
  0
SEQEND
  5
5B
100
AcDbEntity
  8
BODEN-2_4
 62
     7
  0
LINE
  5
54
100
AcDbEntity
  8
BODEN-2_4
 62
     7
100
AcDbLine
 10
120.677561
 20
119.493826
 30
0.0
 11
139.295546
 21
119.493826
 31
0.0
  0
LINE
  5
53
100
AcDbEntity
  8
BODEN-2_4
 62
     7
100
AcDbLine
 10
170.417849
 20
137.102743
 30
0.0
 11
171.235026
 21
137.102743
 31
0.0
  0
POLYLINE
  5
4D
100
AcDbEntity
  8
BODEN-2_4
 62
     7
100
AcDb2dPolyline
 66
     1
 10
0.0
 20
0.0
 30
0.0
 70
     1
  0
VERTEX
  5
4E
100
AcDbEntity
  8
BODEN-2_4
 62
     7
100
AcDbVertex
100
AcDb2dVertex
 10
132.364014
 20
181.822149
 30
0.0
  0
VERTEX
  5
4F
100
AcDbEntity
  8
BODEN-2_4
 62
     7
100
AcDbVertex
100
AcDb2dVertex
 10
135.999967
 20
181.822149
 30
0.0
  0
VERTEX
  5
50
100
AcDbEntity
  8
BODEN-2_4
 62
     7
100
AcDbVertex
100
AcDb2dVertex
 10
135.999967
 20
119.493826
 30
0.0
  0
VERTEX
  5
51
100
AcDbEntity
  8
BODEN-2_4
 62
     7
100
AcDbVertex
100
AcDb2dVertex
 10
132.364014
 20
119.493826
 30
0.0
  0
SEQEND
  5
52
100
AcDbEntity
  8
BODEN-2_4
 62
     7
  0
LINE
  5
4C
100
AcDbEntity
  8
BODEN-2_4
 62
     7
100
AcDbLine
 10
135.999967
 20
137.102743
 30
0.0
 11
171.235026
 21
137.102743
 31
0.0
  0
POLYLINE
  5
46
100
AcDbEntity
  8
BODEN-2_4
 62
     7
100
AcDb2dPolyline
 66
     1
 10
0.0
 20
0.0
 30
0.0
 70
     1
  0
VERTEX
  5
47
100
AcDbEntity
  8
BODEN-2_4
 62
     7
100
AcDbVertex
100
AcDb2dVertex
 10
80.164099
 20
134.574042
 30
0.0
  0
VERTEX
  5
48
100
AcDbEntity
  8
BODEN-2_4
 62
     7
100
AcDbVertex
100
AcDb2dVertex
 10
132.40191
 20
134.574042
 30
0.0
  0
VERTEX
  5
49
100
AcDbEntity
  8
BODEN-2_4
 62
     7
100
AcDbVertex
100
AcDb2dVertex
 10
132.40191
 20
126.879766
 30
0.0
  0
VERTEX
  5
4A
100
AcDbEntity
  8
BODEN-2_4
 62
     7
100
AcDbVertex
100
AcDb2dVertex
 10
80.164099
 20
126.879766
 30
0.0
  0
SEQEND
  5
4B
100
AcDbEntity
  8
BODEN-2_4
 62
     7
  0
SPLINE
  5
45
100
AcDbEntity
  8
BODEN-2_4
 62
     7
100
AcDbSpline
210
0.0
220
0.0
230
1.0
 70
     8
 71
     3
 72
     8
 73
     4
 74
     0
 42
0.00000001
 43
0.00000001
 40
0.0
 40
0.0
 40
0.0
 40
0.0
 40
1.0
 40
1.0
 40
1.0
 40
1.0
 10
156.69327799479166
 20
133.64455566406249
 30
0.0
 10
156.26815321180555
 20
133.64455566406249
 30
0.0
 10
155.91675347222221
 20
133.31141493055554
 30
0.0
 10
155.89470486111111
 20
132.88663465711804
 30
0.0
  0
LINE
  5
44
100
AcDbEntity
  8
BODEN-2_4
 62
     7
100
AcDbLine
 10
155.555018
 20
126.40262
 30
0.0
 11
155.894705
 21
132.886635
 31
0.0
  0
LINE
  5
43
100
AcDbEntity
  8
BODEN-2_4
 62
     7
100
AcDbLine
 10
147.496251
 20
126.40262
 30
0.0
 11
147.156565
 21
132.886635
 31
0.0
  0
SPLINE
  5
42
100
AcDbEntity
  8
BODEN-2_4
 62
     7
100
AcDbSpline
210
0.0
220
0.0
230
1.0
 70
     8
 71
     3
 72
     8
 73
     4
 74
     0
 42
0.00000001
 43
0.00000001
 40
0.0
 40
0.0
 40
0.0
 40
0.0
 40
1.0
 40
1.0
 40
1.0
 40
1.0
 10
147.49625108506942
 20
126.40262044270833
 30
0.0
 10
147.51829969618055
 20
125.97784016927082
 30
0.0
 10
147.86969943576386
 20
125.64469943576388
 30
0.0
 10
148.29551323784722
 20
125.64469943576388
 30
0.0
  0
LINE
  5
41
100
AcDbEntity
  8
BODEN-2_4
 62
     7
100
AcDbLine
 10
154.755756
 20
125.644699
 30
0.0
 11
148.295513
 21
125.644699
 31
0.0
  0
SPLINE
  5
40
100
AcDbEntity
  8
BODEN-2_4
 62
     7
100
AcDbSpline
210
0.0
220
0.0
230
1.0
 70
     8
 71
     3
 72
     8
 73
     4
 74
     0
 42
0.00000001
 43
0.00000001
 40
0.0
 40
0.0
 40
0.0
 40
0.0
 40
1.0
 40
1.0
 40
1.0
 40
1.0
 10
154.75575629340275
 20
125.64469943576388
 30
0.0
 10
155.18157009548611
 20
125.64469943576388
 30
0.0
 10
155.5322808159722
 20
125.97784016927082
 30
0.0
 10
155.55501844618055
 20
126.40262044270833
 30
0.0
  0
SPLINE
  5
3F
100
AcDbEntity
  8
BODEN-2_4
 62
     7
100
AcDbSpline
210
0.0
220
0.0
230
1.0
 70
     8
 71
     3
 72
     8
 73
     4
 74
     0
 42
0.00000001
 43
0.00000001
 40
0.0
 40
0.0
 40
0.0
 40
0.0
 40
1.0
 40
1.0
 40
1.0
 40
1.0
 10
147.15656467013886
 20
132.88663465711804
 30
0.0
 10
147.13451605902776
 20
133.31141493055554
 30
0.0
 10
146.78311631944442
 20
133.64455566406249
 30
0.0
 10
146.35730251736109
 20
133.64455566406249
 30
0.0
  0
LINE
  5
3E
100
AcDbEntity
  8
BODEN-2_4
 62
     7
100
AcDbLine
 10
65.109893
 20
126.40262
 30
0.0
 11
65.44958
 21
132.886635
 31
0.0
  0
LINE
  5
3D
100
AcDbEntity
  8
BODEN-2_4
 62
     7
100
AcDbLine
 10
64.310975
 20
125.644699
 30
0.0
 11
57.850388
 21
125.644699
 31
0.0
  0
SPLINE
  5
3C
100
AcDbEntity
  8
BODEN-2_4
 62
     7
100
AcDbSpline
210
0.0
220
0.0
230
1.0
 70
     8
 71
     3
 72
     8
 73
     4
 74
     0
 42
0.00000001
 43
0.00000001
 40
0.0
 40
0.0
 40
0.0
 40
0.0
 40
1.0
 40
1.0
 40
1.0
 40
1.0
 10
64.310975477430546
 20
125.64469943576388
 30
0.0
 10
64.736444769965274
 20
125.64469943576388
 30
0.0
 10
65.087499999999991
 20
125.97784016927082
 30
0.0
 10
65.10989312065972
 20
126.40262044270833
 30
0.0
  0
LINE
  5
3B
100
AcDbEntity
  8
BODEN-2_4
 62
     7
100
AcDbLine
 10
57.05147
 20
126.40262
 30
0.0
 11
56.711439
 21
132.886635
 31
0.0
  0
SPLINE
  5
3A
100
AcDbEntity
  8
BODEN-2_4
 62
     7
100
AcDbSpline
210
0.0
220
0.0
230
1.0
 70
     8
 71
     3
 72
     8
 73
     4
 74
     0
 42
0.00000001
 43
0.00000001
 40
0.0
 40
0.0
 40
0.0
 40
0.0
 40
1.0
 40
1.0
 40
1.0
 40
1.0
 10
57.051470269097216
 20
126.40262044270833
 30
0.0
 10
57.073518880208326
 20
125.97784016927082
 30
0.0
 10
57.42457411024305
 20
125.64469943576388
 30
0.0
 10
57.850387912326383
 20
125.64469943576388
 30
0.0
  0
SPLINE
  5
39
100
AcDbEntity
  8
BODEN-2_4
 62
     7
100
AcDbSpline
210
0.0
220
0.0
230
1.0
 70
     8
 71
     3
 72
     8
 73
     4
 74
     0
 42
0.00000001
 43
0.00000001
 40
0.0
 40
0.0
 40
0.0
 40
0.0
 40
1.0
 40
1.0
 40
1.0
 40
1.0
 10
56.71143934461805
 20
132.88663465711804
 30
0.0
 10
56.68939073350694
 20
133.31141493055554
 30
0.0
 10
56.338335503472216
 20
133.64455566406249
 30
0.0
 10
55.912693956163189
 20
133.64455566406249
 30
0.0
  0
SPLINE
  5
38
100
AcDbEntity
  8
BODEN-2_4
 62
     7
100
AcDbSpline
210
0.0
220
0.0
230
1.0
 70
     8
 71
     3
 72
     8
 73
     4
 74
     0
 42
0.00000001
 43
0.00000001
 40
0.0
 40
0.0
 40
0.0
 40
0.0
 40
1.0
 40
1.0
 40
1.0
 40
1.0
 10
66.248497178819434
 20
133.64455566406249
 30
0.0
 10
65.82302788628472
 20
133.64455566406249
 30
0.0
 10
65.471972656249989
 20
133.31141493055554
 30
0.0
 10
65.449579535590274
 20
132.88663465711804
 30
0.0
  0
LINE
  5
37
100
AcDbEntity
  8
BODEN-2_4
 62
     7
100
AcDbLine
 10
151.328575
 20
133.644556
 30
0.0
 11
151.475336
 21
133.791317
 31
0.0
  0
POLYLINE
  5
30
100
AcDbEntity
  8
RAHMEN
 62
     7
100
AcDb2dPolyline
 66
     1
 10
0.0
 20
0.0
 30
0.0
 70
     1
  0
VERTEX
  5
31
100
AcDbEntity
  8
RAHMEN
 62
     7
100
AcDbVertex
100
AcDb2dVertex
 10
26.283839
 20
200.510586
 30
0.0
  0
VERTEX
  5
32
100
AcDbEntity
  8
RAHMEN
 62
     7
100
AcDbVertex
100
AcDb2dVertex
 10
26.283839
 20
56.25083
 30
0.0
  0
VERTEX
  5
33
100
AcDbEntity
  8
RAHMEN
 62
     7
100
AcDbVertex
100
AcDb2dVertex
 10
187.951663
 20
56.25083
 30
0.0
  0
VERTEX
  5
34
100
AcDbEntity
  8
RAHMEN
 62
     7
100
AcDbVertex
100
AcDb2dVertex
 10
187.951663
 20
200.510586
 30
0.0
  0
SEQEND
  5
35
100
AcDbEntity
  8
RAHMEN
 62
     7
  0
POLYLINE
  5
2A
100
AcDbEntity
  8
RAHMEN
 62
     7
100
AcDb2dPolyline
 66
     1
 10
0.0
 20
0.0
 30
0.0
 70
     1
  0
VERTEX
  5
2B
100
AcDbEntity
  8
RAHMEN
 62
     7
100
AcDbVertex
100
AcDb2dVertex
 10
168.791075
 20
72.856535
 30
0.0
  0
VERTEX
  5
2C
100
AcDbEntity
  8
RAHMEN
 62
     7
100
AcDbVertex
100
AcDb2dVertex
 10
187.841075
 20
72.856535
 30
0.0
  0
VERTEX
  5
2D
100
AcDbEntity
  8
RAHMEN
 62
     7
100
AcDbVertex
100
AcDb2dVertex
 10
187.841075
 20
56.098901
 30
0.0
  0
VERTEX
  5
2E
100
AcDbEntity
  8
RAHMEN
 62
     7
100
AcDbVertex
100
AcDb2dVertex
 10
168.791075
 20
56.098901
 30
0.0
  0
SEQEND
  5
2F
100
AcDbEntity
  8
RAHMEN
 62
     7
  0
MTEXT
  5
29
100
AcDbEntity
  8
RAHMEN
 62
     7
100
AcDbMText
 10
169.937259
 20
70.400034
 30
0.0
 40
9.449404
 41
0.0
 71
     1
 72
     2
  1
\fMyriad Roman|b0|i0;\H9.4494;\C7;\U+0033\U+002E\U+0034
  7
STD
210
0.0
220
0.0
230
1.0
 73
     1
 44
1.0
  0
ENDSEC
  0
SECTION
  2
OBJECTS
  0
DICTIONARY
  5
19
100
AcDbDictionary
280
     0
281
     1
  3
ACAD_GROUP
350
1A
  3
ACAD_MLINESTYLE
350
1B
  3
ACAD_LAYOUT
350
1E
  3
ACAD_PLOTSETTINGS
350
22
  3
ACAD_PLOTSTYLENAME
350
1F
  3
ACAD_WIPEOUT_VARS
350
23
  0
DICTIONARY
  5
1A
102
{ACAD_REACTORS
330
19
102
}
100
AcDbDictionary
280
     0
281
     1
  0
DICTIONARY
  5
1B
102
{ACAD_REACTORS
330
19
102
}
100
AcDbDictionary
280
     0
281
     1
  3
Standard
350
1C
  0
MLINESTYLE
  5
1C
102
{ACAD_REACTORS
330
1B
102
}
100
AcDbMlineStyle
  2
Standard
 70
     0
  3

 62
     0
 51
90.0
 52
90.0
 71
     2
 49
0.5
 62
   256
  6
ByLayer
 49
-0.5
 62
   256
  6
ByLayer
  0
ACDBDICTIONARYWDFLT
  5
1F
102
{ACAD_REACTORS
330
19
102
}
100
AcDbDictionary
281
     1
  3
Normal
350
1D
100
AcDbDictionaryWithDefault
340
1D
  0
ACDBPLACEHOLDER
  5
1D
102
{ACAD_REACTORS
330
1F
102
}
  0
LAYOUT
  5
20
102
{ACAD_REACTORS
330
1E
102
}
100
AcDbPlotSettings
  1

  2

  4

  6

 40
0.0
 41
0.0
 42
0.0
 43
0.0
 44
0.0
 45
0.0
 46
0.0
 47
0.0
 48
0.0
 49
0.0
140
0.0
141
0.0
142
1.0
143
1.0
 70
  1024
 72
     0
 73
     0
 74
     0
  7

 75
     0
147
1.0
148
0.0
149
0.0
100
AcDbLayout
  1
Model
 70
     0
 71
     0
 10
0.0
 20
0.0
 11
0.0
 21
0.0
 12
0.0
 22
0.0
 32
0.0
 14
0.0
 24
0.0
 34
0.0
 15
0.0
 25
0.0
 35
0.0
146
0.0
 13
0.0
 23
0.0
 33
0.0
 16
0.0
 26
0.0
 36
0.0
 17
0.0
 27
0.0
 37
0.0
 76
     0
330
A
331
0
345
0
346
0
  0
LAYOUT
  5
21
102
{ACAD_REACTORS
330
1E
102
}
100
AcDbPlotSettings
  1

  2

  4

  6

 40
0.0
 41
0.0
 42
0.0
 43
0.0
 44
0.0
 45
0.0
 46
0.0
 47
0.0
 48
0.0
 49
0.0
140
0.0
141
0.0
142
1.0
143
1.0
 70
     0
 72
     0
 73
     0
 74
     0
  7

 75
     0
147
1.0
148
0.0
149
0.0
100
AcDbLayout
  1
Layout1
 70
     0
 71
     0
 10
0.0
 20
0.0
 11
0.0
 21
0.0
 12
0.0
 22
0.0
 32
0.0
 14
0.0
 24
0.0
 34
0.0
 15
0.0
 25
0.0
 35
0.0
146
0.0
 13
0.0
 23
0.0
 33
0.0
 16
0.0
 26
0.0
 36
0.0
 17
0.0
 27
0.0
 37
0.0
 76
     0
330
B
331
0
345
0
346
0
  0
DICTIONARY
  5
1E
102
{ACAD_REACTORS
330
19
102
}
100
AcDbDictionary
280
     0
281
     1
  3
Layout1
350
21
  3
Model
350
20
  0
DICTIONARY
  5
22
102
{ACAD_REACTORS
330
19
102
}
100
AcDbDictionary
280
     0
281
     1
  0
WIPEOUTVARIABLES
  5
23
100
AcDbWipeoutVariables
 70
     1
  0
ENDSEC
  0
EOF
