  0
SECTION
  2
HEADER
  9
$ACADVER
  1
AC1015
  9
$ACADMAINTVER
 70
     6
  9
$DWGCODEPAGE
  3
ANSI_932
  9
$INSBASE
 10
0.0
 20
0.0
 30
0.0
  9
$EXTMIN
 10
24.167862
 20
76.91279
 30
1.000000E+20
  9
$EXTMAX
 10
186.541241
 20
222.030031
 30
-1.000000E+20
  9
$LIMMIN
 10
24.167862
 20
76.91279
  9
$LIMMAX
 10
186.541241
 20
222.030031
  9
$ORTHOMODE
 70
     0
  9
$REGENMODE
 70
     1
  9
$FILLMODE
 70
     1
  9
$QTEXTMODE
 70
     0
  9
$MIRRTEXT
 70
     1
  9
$LTSCALE
 40
1.0
  9
$ATTMODE
 70
     1
  9
$TEXTSIZE
 40
0.2
  9
$TRACEWID
 40
0.05
  9
$TEXTSTYLE
  7
Standard
  9
$CLAYER
  8
0
  9
$CELTYPE
  6
Continuous
  9
$CECOLOR
 62
   256
  9
$CELTSCALE
 40
1.0
  9
$DISPSILH
 70
     0
  9
$DIMSCALE
 40
1.0
  9
$DIMASZ
 40
0.18
  9
$DIMEXO
 40
0.0625
  9
$DIMDLI
 40
0.38
  9
$DIMRND
 40
0.0
  9
$DIMDLE
 40
0.0
  9
$DIMEXE
 40
0.18
  9
$DIMTP
 40
0.0
  9
$DIMTM
 40
0.0
  9
$DIMTXT
 40
0.18
  9
$DIMCEN
 40
0.09
  9
$DIMTSZ
 40
0.0
  9
$DIMTOL
 70
     0
  9
$DIMLIM
 70
     0
  9
$DIMTIH
 70
     1
  9
$DIMTOH
 70
     1
  9
$DIMSE1
 70
     0
  9
$DIMSE2
 70
     0
  9
$DIMTAD
 70
     0
  9
$DIMZIN
 70
     0
  9
$DIMBLK
  1

  9
$DIMASO
 70
     1
  9
$DIMSHO
 70
     1
  9
$DIMPOST
  1

  9
$DIMAPOST
  1

  9
$DIMALT
 70
     0
  9
$DIMALTD
 70
     2
  9
$DIMALTF
 40
25.4
  9
$DIMLFAC
 40
1.0
  9
$DIMTOFL
 70
     0
  9
$DIMTVP
 40
0.0
  9
$DIMTIX
 70
     0
  9
$DIMSOXD
 70
     0
  9
$DIMSAH
 70
     0
  9
$DIMBLK1
  1

  9
$DIMBLK2
  1

  9
$DIMSTYLE
  2
Standard
  9
$DIMCLRD
 70
     0
  9
$DIMCLRE
 70
     0
  9
$DIMCLRT
 70
     0
  9
$DIMTFAC
 40
1.0
  9
$DIMGAP
 40
0.09
  9
$DIMJUST
 70
     0
  9
$DIMSD1
 70
     0
  9
$DIMSD2
 70
     0
  9
$DIMTOLJ
 70
     1
  9
$DIMTZIN
 70
     0
  9
$DIMALTZ
 70
     0
  9
$DIMALTTZ
 70
     0
  9
$DIMUPT
 70
     0
  9
$DIMDEC
 70
     4
  9
$DIMTDEC
 70
     4
  9
$DIMALTU
 70
     2
  9
$DIMALTTD
 70
     2
  9
$DIMTXSTY
  7
Standard
  9
$DIMAUNIT
 70
     0
  9
$DIMADEC
 70
     0
  9
$DIMALTRND
 40
0.0
  9
$DIMAZIN
 70
     0
  9
$DIMDSEP
 70
     0
  9
$DIMATFIT
 70
     3
  9
$DIMFRAC
 70
     0
  9
$DIMLDRBLK
  1

  9
$DIMLUNIT
 70
     2
  9
$DIMLWD
 70
     0
  9
$DIMLWE
 70
     0
  9
$DIMTMOVE
 70
     0
  9
$LUNITS
 70
     2
  9
$LUPREC
 70
     4
  9
$SKETCHINC
 40
0.1
  9
$FILLETRAD
 40
0.0
  9
$AUNITS
 70
     0
  9
$AUPREC
 70
     0
  9
$MENU
  1
acad
  9
$ELEVATION
 40
0.0
  9
$PELEVATION
 40
0.0
  9
$THICKNESS
 40
0.0
  9
$LIMCHECK
 70
     0
  9
$CHAMFERA
 40
0.0
  9
$CHAMFERB
 40
0.0
  9
$CHAMFERC
 40
0.0
  9
$CHAMFERD
 40
0.0
  9
$SKPOLY
 70
     0
  9
$TDCREATE
 40
0.000000000
  9
$TDUCREATE
 40
0.000000000
  9
$TDUPDATE
 40
0.000000000
  9
$TDUUPDATE
 40
0.000000000
  9
$TDINDWG
 40
0.0000000000
  9
$TDUSRTIMER
 40
0.0000000000
  9
$USRTIMER
 70
     1
  9
$ANGBASE
 50
0.0
  9
$ANGDIR
 70
     0
  9
$PDMODE
 70
     0
  9
$PDSIZE
 40
0.0
  9
$PLINEWID
 40
0.0
  9
$SPLFRAME
 70
     0
  9
$SPLINETYPE
 70
     6
  9
$SPLINESEGS
 70
     8
  9
$HANDSEED
  5
166
  9
$SURFTAB1
 70
     6
  9
$SURFTAB2
 70
     6
  9
$SURFTYPE
 70
     6
  9
$SURFU
 70
     6
  9
$SURFV
 70
     6
  9
$UCSBASE
  2

  9
$UCSNAME
  2

  9
$UCSORG
 10
0.0
 20
0.0
 30
0.0
  9
$UCSXDIR
 10
1.0
 20
0.0
 30
0.0
  9
$UCSYDIR
 10
0.0
 20
1.0
 30
0.0
  9
$UCSORTHOREF
  2

  9
$UCSORTHOVIEW
 70
     0
  9
$UCSORGTOP
 10
0.0
 20
0.0
 30
0.0
  9
$UCSORGBOTTOM
 10
0.0
 20
0.0
 30
0.0
  9
$UCSORGLEFT
 10
0.0
 20
0.0
 30
0.0
  9
$UCSORGRIGHT
 10
0.0
 20
0.0
 30
0.0
  9
$UCSORGFRONT
 10
0.0
 20
0.0
 30
0.0
  9
$UCSORGBACK
 10
0.0
 20
0.0
 30
0.0
  9
$PUCSBASE
  2

  9
$PUCSNAME
  2

  9
$PUCSORG
 10
0.0
 20
0.0
 30
0.0
  9
$PUCSXDIR
 10
1.0
 20
0.0
 30
0.0
  9
$PUCSYDIR
 10
0.0
 20
1.0
 30
0.0
  9
$PUCSORTHOREF
  2

  9
$PUCSORTHOVIEW
 70
     0
  9
$PUCSORGTOP
 10
0.0
 20
0.0
 30
0.0
  9
$PUCSORGBOTTOM
 10
0.0
 20
0.0
 30
0.0
  9
$PUCSORGLEFT
 10
0.0
 20
0.0
 30
0.0
  9
$PUCSORGRIGHT
 10
0.0
 20
0.0
 30
0.0
  9
$PUCSORGFRONT
 10
0.0
 20
0.0
 30
0.0
  9
$PUCSORGBACK
 10
0.0
 20
0.0
 30
0.0
  9
$USERI1
 70
     0
  9
$USERI2
 70
     0
  9
$USERI3
 70
     0
  9
$USERI4
 70
     0
  9
$USERI5
 70
     0
  9
$USERR1
 40
0.0
  9
$USERR2
 40
0.0
  9
$USERR3
 40
0.0
  9
$USERR4
 40
0.0
  9
$USERR5
 40
0.0
  9
$WORLDVIEW
 70
     1
  9
$SHADEDGE
 70
     3
  9
$SHADEDIF
 70
    70
  9
$TILEMODE
 70
     1
  9
$MAXACTVP
 70
    16
  9
$PINSBASE
 10
0.0
 20
0.0
 30
0.0
  9
$PLIMCHECK
 70
     0
  9
$PEXTMIN
 10
1.000000E+20
 20
1.000000E+20
 30
1.000000E+20
  9
$PEXTMAX
 10
-1.000000E+20
 20
-1.000000E+20
 30
-1.000000E+20
  9
$PLIMMIN
 10
0.0
 20
0.0
  9
$PLIMMAX
 10
12.0
 20
9.0
  9
$UNITMODE
 70
     0
  9
$VISRETAIN
 70
     0
  9
$PLINEGEN
 70
     1
  9
$PSLTSCALE
 70
     0
  9
$TREEDEPTH
 70
  3020
  9
$CMLSTYLE
  2
Standard
  9
$CMLJUST
 70
     0
  9
$CMLSCALE
 40
1.0
  9
$PROXYGRAPHICS
 70
     0
  9
$MEASUREMENT
 70
     1
  9
$CELWEIGHT
370
     0
  9
$ENDCAPS
280
     0
  9
$JOINSTYLE
280
     0
  9
$LWDISPLAY
290
     0
  9
$INSUNITS
 70
     0
  9
$HYPERLINKBASE
  1

  9
$STYLESHEET
  1

  9
$XEDIT
290
     1
  9
$CEPSNTYPE
380
     0
  9
$PSTYLEMODE
290
     1
  9
$FINGERPRINTGUID
  2

  9
$VERSIONGUID
  2

  9
$EXTNAMES
290
     1
  9
$PSVPSCALE
 40
0.0
  0
ENDSEC
  0
SECTION
  2
CLASSES
  0
CLASS
  1
LWPOLYLINE
  2
AcDbPolyline
  3
AutoCAD 2000
 90
    32768
280
     0
281
     1
  0
CLASS
  1
IMAGE
  2
AcDbRasterImage
  3
ISM
 90
    32895
280
     0
281
     1
  0
CLASS
  1
OLE2FRAME
  2
AcDbOle2Frame
  3
AutoCAD 2000
 90
    32768
280
     0
281
     1
  0
CLASS
  1
HATCH
  2
AcDbHatch
  3
AutoCAD 2000
 90
        0
280
     0
281
     1
  0
CLASS
  1
DICTIONARYVAR
  2
AcDbDictionaryVar
  3
AutoCAD 2000
 90
    32768
280
     0
281
     0
  0
CLASS
  1
RASTERVARIABLES
  2
AcDbRasterVariables
  3
ISM
 90
    32768
280
     0
281
     0
  0
CLASS
  1
IMAGEDEF
  2
AcDbRasterImageDef
  3
ISM
 90
    32768
280
     0
281
     0
  0
CLASS
  1
IMAGEDEF_REACTOR
  2
AcDbRasterImageDefReactor
  3
ISM
 90
    32769
280
     0
281
     0
  0
CLASS
  1
IDBUFFER
  2
AcDbIdBuffer
  3
AutoCAD 2000
 90
    32768
280
     0
281
     0
  0
CLASS
  1
SPATIAL_FILTER
  2
AcDbSpatialFilter
  3
AutoCAD 2000
 90
    32768
280
     0
281
     0
  0
CLASS
  1
XRECORD
  2
AcDbXrecord
  3
AutoCAD 2000
 90
    32768
280
     0
281
     0
  0
CLASS
  1
SORTENTSTABLE
  2
AcDbSortentsTable
  3
AutoCAD 2000
 90
    32768
280
     0
281
     0
  0
CLASS
  1
LAYER_INDEX
  2
AcDbLayerIndex
  3
AutoCAD 2000
 90
    32768
280
     0
281
     0
  0
CLASS
  1
SPATIAL_INDEX
  2
AcDbSpatialIndex
  3
AutoCAD 2000
 90
    32768
280
     0
281
     0
  0
CLASS
  1
OBJECT_PTR
  2
CAseDLPNTableRecord
  3
"ASE-LPNTableRecord"
 90
    32769
280
     0
281
     0
  0
CLASS
  1
LAYOUT
  2
AcDbLayout
  3
AutoCAD 2000
 90
        0
280
     0
281
     0
  0
CLASS
  1
PLOTSETTINGS
  2
AcDbPlotSettings
  3
AutoCAD 2000
 90
    32768
280
     0
281
     0
  0
CLASS
  1
ACDBDICTIONARYWDFLT
  2
AcDbDictionaryWithDefault
  3
AutoCAD 2000
 90
        0
280
     0
281
     0
  0
CLASS
  1
ACDBPLACEHOLDER
  2
AcDbPlaceHolder
  3
AutoCAD 2000
 90
        0
280
     0
281
     0
  0
CLASS
  1
VBA_PROJECT
  2
AcDbVbaProject
  3
acadvba
 90
    32768
280
     0
281
     0
  0
CLASS
  1
WIPEOUT
  2
AcDbWipeout
  3
WipeOut|AutoCAD Express Tool|expresstools@autodesk.com
 90
    32895
280
     0
281
     1
  0
CLASS
  1
WIPEOUTVARIABLES
  2
AcDbWipeoutVariables
  3
WipeOut|AutoCAD Express Tool|expresstools@autodesk.com
 90
        0
280
     0
281
     0
  0
CLASS
  1
RTEXT
  2
RText
  3
RText|AutoCAD Express Tool|expresstools@autodesk.com
 90
    32768
280
     0
281
     1
  0
CLASS
  1
ARCALIGNEDTEXT
  2
AcDbArcAlignedText
  3
ATEXT|AutoCAD Express Tool|expresstools@autodesk.com
 90
    32768
280
     0
281
     1
  0
ENDSEC
  0
SECTION
  2
TABLES
  0
TABLE
  2
VPORT
  5
7
100
AcDbSymbolTable
 70
     1
  0
VPORT
  5
15
100
AcDbSymbolTableRecord
100
AcDbViewportTableRecord
  2
*ACTIVE
 70
     0
 10
0.0
 20
0.0
 11
1.0
 21
1.0
 12
6.591288
 22
4.579184
 13
0.0
 23
0.0
 14
1.0
 24
1.0
 15
0.0
 25
0.0
 16
0.0
 26
0.0
 36
1.0
 17
0.0
 27
0.0
 37
0.0
 40
9.158369
 41
0.688564
 42
50.0
 43
0.0
 44
0.0
 50
0.0
 51
0.0
 71
     0
 72
   100
 73
     1
 74
     1
 75
     0
 76
     0
 77
     0
 78
     0
281
     0
 65
     0
110
0.0
120
0.0
130
0.0
111
1.0
121
0.0
131
0.0
112
0.0
122
1.0
132
0.0
345
0
346
0
 79
     0
146
0.0
  0
ENDTAB
  0
TABLE
  2
LTYPE
  5
4
100
AcDbSymbolTable
 70
     5
  0
LTYPE
  5
11
100
AcDbSymbolTableRecord
100
AcDbLinetypeTableRecord
  2
ByBlock
 70
    64
  3

 72
    65
 73
     0
 40
0.0
  0
LTYPE
  5
12
100
AcDbSymbolTableRecord
100
AcDbLinetypeTableRecord
  2
ByLayer
 70
    64
  3

 72
    65
 73
     0
 40
0.0
  0
LTYPE
  5
13
100
AcDbSymbolTableRecord
100
AcDbLinetypeTableRecord
  2
Continuous
 70
    64
  3
Solid line
 72
    65
 73
     0
 40
0.0
  0
LTYPE
  5
9D
100
AcDbSymbolTableRecord
100
AcDbLinetypeTableRecord
  2
AI9-LType1
 70
    64
  3
Illustrator Dash Style No.1
 72
    65
 73
     4
 40
14.816667
 49
8.466667
 74
     0
 49
-2.822222
 74
     0
 49
0.705556
 74
     0
 49
-2.822222
 74
     0
  0
LTYPE
  5
E0
100
AcDbSymbolTableRecord
100
AcDbLinetypeTableRecord
  2
AI9-LType2
 70
    64
  3
Illustrator Dash Style No.2
 72
    65
 73
     6
 40
17.638889
 49
8.466667
 74
     0
 49
-2.822222
 74
     0
 49
0.705556
 74
     0
 49
-2.116667
 74
     0
 49
0.705556
 74
     0
 49
-2.822222
 74
     0
  0
ENDTAB
  0
TABLE
  2
LAYER
  5
2
100
AcDbSymbolTable
 70
    12
  0
LAYER
  5
14
100
AcDbSymbolTableRecord
100
AcDbLayerTableRecord
  2
0
 70
     0
 62
     7
  6
Continuous
290
     1
370
    -3
390
1D
  0
LAYER
  5
28
100
AcDbSymbolTableRecord
100
AcDbLayerTableRecord
  2
RAHMEN
 70
     0
 62
     5
  6
Continuous
290
     1
370
    -3
390
1D
  0
LAYER
  5
36
100
AcDbSymbolTableRecord
100
AcDbLayerTableRecord
  2
TEXT
 70
     0
 62
     3
  6
Continuous
290
     1
370
    -3
390
1D
  0
LAYER
  5
3F
100
AcDbSymbolTableRecord
100
AcDbLayerTableRecord
  2
AM_0
 70
     0
 62
     1
  6
Continuous
290
     1
370
    -3
390
1D
  0
LAYER
  5
94
100
AcDbSymbolTableRecord
100
AcDbLayerTableRecord
  2
AM_8
 70
     0
 62
   160
  6
Continuous
290
     1
370
    -3
390
1D
  0
LAYER
  5
97
100
AcDbSymbolTableRecord
100
AcDbLayerTableRecord
  2
OBJEKT
 70
     0
 62
     7
  6
Continuous
290
     1
370
    -3
390
1D
  0
LAYER
  5
9A
100
AcDbSymbolTableRecord
100
AcDbLayerTableRecord
  2
MITTELLINIE
 70
     0
 62
   253
  6
Continuous
290
     1
370
    -3
390
1D
  0
LAYER
  5
9F
100
AcDbSymbolTableRecord
100
AcDbLayerTableRecord
  2
SCHRAFFUR
 70
     0
 62
     4
  6
Continuous
290
     1
370
    -3
390
1D
  0
LAYER
  5
A1
100
AcDbSymbolTableRecord
100
AcDbLayerTableRecord
  2
EBENE_1
 70
     0
 62
     6
  6
Continuous
290
     1
370
    -3
390
1D
  0
LAYER
  5
A6
100
AcDbSymbolTableRecord
100
AcDbLayerTableRecord
  2
SCHRAFUR
 70
     0
 62
     2
  6
Continuous
290
     1
370
    -3
390
1D
  0
LAYER
  5
DF
100
AcDbSymbolTableRecord
100
AcDbLayerTableRecord
  2
GETRENNT
 70
     0
 62
     1
  6
Continuous
290
     1
370
    -3
390
1D
  0
LAYER
  5
E3
100
AcDbSymbolTableRecord
100
AcDbLayerTableRecord
  2
ROHR
 70
     0
 62
   160
  6
Continuous
290
     1
370
    -3
390
1D
  0
ENDTAB
  0
TABLE
  2
STYLE
  5
3
100
AcDbSymbolTable
 70
     5
  0
STYLE
  5
17
100
AcDbSymbolTableRecord
100
AcDbTextStyleTableRecord
  2
Standard
 70
     0
 40
0.0
 41
1.0
 50
0.0
 71
     0
 42
0.0
  3
txt
  4

  0
STYLE
  5
24
100
AcDbSymbolTableRecord
100
AcDbTextStyleTableRecord
  2
STD
 70
     0
 40
0.0
 41
1.0
 50
0.0
 71
     0
 42
0.0
  3
txt
  4

  0
STYLE
  5
25
100
AcDbSymbolTableRecord
100
AcDbTextStyleTableRecord
  2
TATESTD
 70
     4
 40
0.0
 41
1.0
 50
0.0
 71
     0
 42
0.0
  3
txt
  4

  0
STYLE
  5
26
100
AcDbSymbolTableRecord
100
AcDbTextStyleTableRecord
  2
KANJISTD
 70
     0
 40
0.0
 41
1.0
 50
0.0
 71
     0
 42
0.0
  3
txt
  4
extfont
  0
STYLE
  5
27
100
AcDbSymbolTableRecord
100
AcDbTextStyleTableRecord
  2
KANJITATE
 70
     4
 40
0.0
 41
1.0
 50
0.0
 71
     0
 42
0.0
  3
txt
  4
extfont
  0
ENDTAB
  0
TABLE
  2
VIEW
  5
5
100
AcDbSymbolTable
 70
     0
  0
ENDTAB
  0
TABLE
  2
UCS
  5
6
100
AcDbSymbolTable
 70
     0
  0
ENDTAB
  0
TABLE
  2
APPID
  5
8
100
AcDbSymbolTable
 70
     1
  0
APPID
  5
16
100
AcDbSymbolTableRecord
100
AcDbRegAppTableRecord
  2
ACAD
 70
     0
  0
ENDTAB
  0
TABLE
  2
DIMSTYLE
  5
9
100
AcDbSymbolTable
 70
     1
100
AcDbDimStyleTable
 71
     0
  0
DIMSTYLE
105
18
100
AcDbSymbolTableRecord
100
AcDbDimStyleTableRecord
  2
Standard
 70
     0
  3

  4

 40
1.0
 41
0.18
 42
0.0625
 43
0.38
 44
0.18
 45
0.0
 46
0.0
 47
0.0
 48
0.0
 71
     0
 72
     0
 73
     1
 74
     1
 75
     0
 76
     0
 77
     0
 78
     0
 79
     0
140
0.18
141
0.09
142
0.0
143
25.4
144
1.0
145
0.0
146
1.0
147
0.09
148
0.0
170
     0
171
     2
172
     0
173
     0
174
     0
175
     0
176
     0
177
     0
178
     0
179
     0
271
     4
272
     4
273
     2
274
     2
275
     0
276
     0
277
     2
278
    46
279
     0
280
     0
281
     0
282
     0
283
     1
284
     0
285
     0
286
     0
288
     0
340
17
341
0
342
0
343
0
344
0
371
    -2
372
    -2
  0
ENDTAB
  0
TABLE
  2
BLOCK_RECORD
  5
1
100
AcDbSymbolTable
 70
     3
  0
BLOCK_RECORD
  5
A
100
AcDbSymbolTableRecord
100
AcDbBlockTableRecord
  2
*MODEL_SPACE
340
20
  0
BLOCK_RECORD
  5
B
100
AcDbSymbolTableRecord
100
AcDbBlockTableRecord
  2
*PAPER_SPACE
340
21
  0
BLOCK_RECORD
  5
37
100
AcDbSymbolTableRecord
100
AcDbBlockTableRecord
  2
AI9-BLK1
340
0
102
{BLKREFS
331
38
102
}
  0
BLOCK_RECORD
  5
E4
100
AcDbSymbolTableRecord
100
AcDbBlockTableRecord
  2
AI9-BLK2
340
0
102
{BLKREFS
331
E5
102
}
  0
BLOCK_RECORD
  5
125
100
AcDbSymbolTableRecord
100
AcDbBlockTableRecord
  2
AI9-BLK3
340
0
102
{BLKREFS
331
126
102
}
  0
ENDTAB
  0
ENDSEC
  0
SECTION
  2
BLOCKS
  0
BLOCK
  5
D
100
AcDbEntity
  8
0
100
AcDbBlockBegin
  2
*MODEL_SPACE
 70
     0
 10
0.0
 20
0.0
 30
0.0
  3
*MODEL_SPACE
  1

  0
ENDBLK
  5
E
100
AcDbEntity
  8
0
100
AcDbBlockEnd
  0
BLOCK
  5
F
100
AcDbEntity
 67
     1
  8
0
100
AcDbBlockBegin
  2
*PAPER_SPACE
 70
     0
 10
0.0
 20
0.0
 30
0.0
  3
*PAPER_SPACE
  1

  0
ENDBLK
  5
10
100
AcDbEntity
 67
     1
  8
0
100
AcDbBlockEnd
  0
BLOCK
  5
39
100
AcDbEntity
  8
TEXT
 62
     7
100
AcDbBlockBegin
  2
AI9-BLK1
 70
     0
 10
0.0
 20
0.0
 30
0.0
  3
AI9-BLK1
  1

  0
MTEXT
  5
3C
100
AcDbEntity
  8
TEXT
 62
     7
100
AcDbMText
 10
-19.222255
 20
0.905888
 30
0.0
 40
5.512152
 41
0.0
 71
     1
 72
     2
  1
\fArial|b0|i0;\H5.5122;\C7;\U+0032\U+0030
  7
STD
210
0.0
220
0.0
230
1.0
 73
     1
 44
1.0
  0
MTEXT
  5
3B
100
AcDbEntity
  8
TEXT
 62
     7
100
AcDbMText
 10
-19.222255
 20
8.314221
 30
0.0
 40
5.512152
 41
0.0
 71
     1
 72
     2
  1
\fArial|b0|i0;\H5.5122;\C7;\U+0053\U+0074\U+0061\U+006E\U+0064\U+0061\U+0072\U+0064\U+0020
  7
STD
210
0.0
220
0.0
230
1.0
 73
     1
 44
1.0
  0
MTEXT
  5
3A
100
AcDbEntity
  8
TEXT
 62
     7
100
AcDbMText
 10
-19.222255
 20
15.722554
 30
0.0
 40
5.512152
 41
0.0
 71
     1
 72
     2
  1
\fArial|b0|i0;\H5.5122;\C7;\U+0046\U+0048\U+0052\U+004B\U+002D
  7
STD
210
0.0
220
0.0
230
1.0
 73
     1
 44
1.0
  0
ENDBLK
  5
3D
100
AcDbEntity
  8
TEXT
100
AcDbBlockEnd
  0
BLOCK
  5
E6
100
AcDbEntity
  8
ROHR
  6
AI9-LType2
 62
     7
100
AcDbBlockBegin
  2
AI9-BLK2
 70
     0
 10
0.0
 20
0.0
 30
0.0
  3
AI9-BLK2
  1

  0
LINE
  5
123
100
AcDbEntity
  8
ROHR
 62
     7
100
AcDbLine
 10
1.029395
 20
-0.630711
 30
0.0
 11
1.941311
 21
0.280861
 31
0.0
  0
LINE
  5
122
100
AcDbEntity
  8
ROHR
 62
     7
100
AcDbLine
 10
1.052477
 20
-0.077601
 30
0.0
 11
1.996777
 21
0.866872
 31
0.0
  0
LINE
  5
121
100
AcDbEntity
  8
ROHR
 62
     7
100
AcDbLine
 10
-1.763889
 20
-0.242104
 30
0.0
 11
-0.995977
 21
0.525808
 31
0.0
  0
LINE
  5
120
100
AcDbEntity
  8
ROHR
 62
     7
100
AcDbLine
 10
0.371037
 20
-6.592621
 30
0.0
 11
0.657669
 21
-6.305989
 31
0.0
  0
LINE
  5
11F
100
AcDbEntity
  8
ROHR
 62
     7
100
AcDbLine
 10
0.124023
 20
-7.900724
 30
0.0
 11
0.172599
 21
-7.851459
 31
0.0
  0
LINE
  5
11E
100
AcDbEntity
  8
ROHR
 62
     7
100
AcDbLine
 10
0.033417
 20
-7.990641
 30
0.0
 11
0.042719
 21
-7.981683
 31
0.0
  0
LINE
  5
11D
100
AcDbEntity
  8
ROHR
 62
     7
100
AcDbLine
 10
-0.198093
 20
-7.161751
 30
0.0
 11
-0.134014
 21
-7.097672
 31
0.0
  0
LINE
  5
11C
100
AcDbEntity
  8
ROHR
 62
     7
100
AcDbLine
 10
0.253215
 20
-7.240643
 30
0.0
 11
0.428914
 21
-7.065632
 31
0.0
  0
LINE
  5
11B
100
AcDbEntity
  8
ROHR
 62
     7
100
AcDbLine
 10
-0.311781
 20
-6.74455
 30
0.0
 11
-0.217041
 21
-6.650498
 31
0.0
  0
LINE
  5
11A
100
AcDbEntity
  8
ROHR
 62
     7
100
AcDbLine
 10
-0.083371
 20
-7.577229
 30
0.0
 11
-0.047542
 21
-7.5414
 31
0.0
  0
LINE
  5
119
100
AcDbEntity
  8
ROHR
 62
     7
100
AcDbLine
 10
0.806497
 20
-3.505471
 30
0.0
 11
1.489659
 21
-2.822308
 31
0.0
  0
LINE
  5
118
100
AcDbEntity
  8
ROHR
 62
     7
100
AcDbLine
 10
-1.14825
 20
-3.339417
 30
0.0
 11
-0.749308
 21
-2.940131
 31
0.0
  0
LINE
  5
117
100
AcDbEntity
  8
ROHR
 62
     7
100
AcDbLine
 10
0.573953
 20
-5.32896
 30
0.0
 11
1.046965
 21
-4.855776
 31
0.0
  0
LINE
  5
116
100
AcDbEntity
  8
ROHR
 62
     7
100
AcDbLine
 10
0.737939
 20
-4.104401
 30
0.0
 11
1.358401
 21
-3.483594
 31
0.0
  0
LINE
  5
115
100
AcDbEntity
  8
ROHR
 62
     7
100
AcDbLine
 10
0.47749
 20
-5.955623
 30
0.0
 11
0.862996
 21
-5.570117
 31
0.0
  0
LINE
  5
114
100
AcDbEntity
  8
ROHR
 62
     7
100
AcDbLine
 10
-0.532267
 20
-5.90498
 30
0.0
 11
-0.373104
 21
-5.745816
 31
0.0
  0
LINE
  5
113
100
AcDbEntity
  8
ROHR
 62
     7
100
AcDbLine
 10
-0.639754
 20
-5.482094
 30
0.0
 11
-0.445451
 21
-5.287791
 31
0.0
  0
LINE
  5
112
100
AcDbEntity
  8
ROHR
 62
     7
100
AcDbLine
 10
-0.745174
 20
-5.057314
 30
0.0
 11
-0.514353
 21
-4.826148
 31
0.0
  0
LINE
  5
111
100
AcDbEntity
  8
ROHR
 62
     7
100
AcDbLine
 10
-0.849216
 20
-4.630811
 30
0.0
 11
-0.578776
 21
-4.360716
 31
0.0
  0
LINE
  5
110
100
AcDbEntity
  8
ROHR
 62
     7
100
AcDbLine
 10
-0.950846
 20
-4.202069
 30
0.0
 11
-0.639754
 21
-3.891321
 31
0.0
  0
LINE
  5
10F
100
AcDbEntity
  8
ROHR
 62
     7
100
AcDbLine
 10
-1.050754
 20
-3.771604
 30
0.0
 11
-0.696598
 21
-3.417621
 31
0.0
  0
LINE
  5
10E
100
AcDbEntity
  8
ROHR
 62
     7
100
AcDbLine
 10
-0.422713
 20
-6.325626
 30
0.0
 11
-0.297312
 21
-6.19988
 31
0.0
  0
LINE
  5
10D
100
AcDbEntity
  8
ROHR
 62
     7
100
AcDbLine
 10
0.660425
 20
-4.712115
 30
0.0
 11
1.21164
 21
-4.160728
 31
0.0
  0
LINE
  5
10C
100
AcDbEntity
  8
ROHR
 62
     7
100
AcDbLine
 10
0.866442
 20
-2.915154
 30
0.0
 11
1.606104
 21
-2.175836
 31
0.0
  0
LINE
  5
10B
100
AcDbEntity
  8
ROHR
 62
     7
100
AcDbLine
 10
0.918807
 20
-2.332933
 30
0.0
 11
1.708423
 21
-1.543144
 31
0.0
  0
LINE
  5
10A
100
AcDbEntity
  8
ROHR
 62
     7
100
AcDbLine
 10
0.999767
 20
-1.190883
 30
0.0
 11
1.875165
 21
-0.315485
 31
0.0
  0
LINE
  5
109
100
AcDbEntity
  8
ROHR
 62
     7
100
AcDbLine
 10
0.96256
 20
-1.758291
 30
0.0
 11
1.797651
 21
-0.923199
 31
0.0
  0
LINE
  5
108
100
AcDbEntity
  8
ROHR
 62
     7
100
AcDbLine
 10
-1.244368
 20
-2.904818
 30
0.0
 11
-0.797884
 21
-2.458506
 31
0.0
  0
LINE
  5
107
100
AcDbEntity
  8
ROHR
 62
     7
100
AcDbLine
 10
-1.338075
 20
-2.468325
 30
0.0
 11
-0.842326
 21
-1.972576
 31
0.0
  0
LINE
  5
106
100
AcDbEntity
  8
ROHR
 62
     7
100
AcDbLine
 10
-1.430059
 20
-2.029592
 30
0.0
 11
-0.882289
 21
-1.482166
 31
0.0
  0
LINE
  5
105
100
AcDbEntity
  8
ROHR
 62
     7
100
AcDbLine
 10
-1.688441
 20
-0.697201
 30
0.0
 11
-0.974618
 21
0.01645
 31
0.0
  0
LINE
  5
104
100
AcDbEntity
  8
ROHR
 62
     7
100
AcDbLine
 10
-1.607137
 20
-1.146269
 30
0.0
 11
-0.948779
 21
-0.487567
 31
0.0
  0
LINE
  5
103
100
AcDbEntity
  8
ROHR
 62
     7
100
AcDbLine
 10
-1.518254
 20
-1.596027
 30
0.0
 11
-0.917429
 21
-0.99503
 31
0.0
  0
LINE
  5
102
100
AcDbEntity
  8
ROHR
 62
     7
100
AcDbLine
 10
0.693842
 20
6.457918
 30
0.0
 11
1.544436
 21
7.308856
 31
0.0
  0
LINE
  5
101
100
AcDbEntity
  8
ROHR
 62
     7
100
AcDbLine
 10
0.868164
 20
6.102212
 30
0.0
 11
1.772846
 21
7.007066
 31
0.0
  0
LINE
  5
100
100
AcDbEntity
  8
ROHR
 62
     7
100
AcDbLine
 10
0.916051
 20
5.62007
 30
0.0
 11
1.950269
 21
6.653771
 31
0.0
  0
LINE
  5
FF
100
AcDbEntity
  8
ROHR
 62
     7
100
AcDbLine
 10
-2.054655
 20
6.361283
 30
0.0
 11
-0.475079
 21
7.941031
 31
0.0
  0
LINE
  5
FE
100
AcDbEntity
  8
ROHR
 62
     7
100
AcDbLine
 10
-2.112188
 20
5.773205
 30
0.0
 11
0.10542
 21
7.990641
 31
0.0
  0
LINE
  5
FD
100
AcDbEntity
  8
ROHR
 62
     7
100
AcDbLine
 10
-2.129758
 20
5.225435
 30
0.0
 11
0.560517
 21
7.915538
 31
0.0
  0
LINE
  5
FC
100
AcDbEntity
  8
ROHR
 62
     7
100
AcDbLine
 10
1.059711
 20
3.111869
 30
0.0
 11
2.137337
 21
4.18915
 31
0.0
  0
LINE
  5
FB
100
AcDbEntity
  8
ROHR
 62
     7
100
AcDbLine
 10
1.073147
 20
2.594932
 30
0.0
 11
2.134581
 21
3.656366
 31
0.0
  0
LINE
  5
FA
100
AcDbEntity
  8
ROHR
 62
     7
100
AcDbLine
 10
-2.105987
 20
3.127888
 30
0.0
 11
-0.995288
 21
4.238415
 31
0.0
  0
LINE
  5
F9
100
AcDbEntity
  8
ROHR
 62
     7
100
AcDbLine
 10
-2.079115
 20
2.62456
 30
0.0
 11
-1.012858
 21
3.690645
 31
0.0
  0
LINE
  5
F8
100
AcDbEntity
  8
ROHR
 62
     7
100
AcDbLine
 10
1.081071
 20
2.072139
 30
0.0
 11
2.124246
 21
3.115486
 31
0.0
  0
LINE
  5
F7
100
AcDbEntity
  8
ROHR
 62
     7
100
AcDbLine
 10
1.083138
 20
1.543833
 30
0.0
 11
2.105642
 21
2.566682
 31
0.0
  0
LINE
  5
F6
100
AcDbEntity
  8
ROHR
 62
     7
100
AcDbLine
 10
1.079004
 20
1.009499
 30
0.0
 11
2.078426
 21
2.009094
 31
0.0
  0
LINE
  5
F5
100
AcDbEntity
  8
ROHR
 62
     7
100
AcDbLine
 10
1.069013
 20
0.469136
 30
0.0
 11
2.042597
 21
1.44272
 31
0.0
  0
LINE
  5
F4
100
AcDbEntity
  8
ROHR
 62
     7
100
AcDbLine
 10
-2.043975
 20
2.129327
 30
0.0
 11
-1.023882
 21
3.14942
 31
0.0
  0
LINE
  5
F3
100
AcDbEntity
  8
ROHR
 62
     7
100
AcDbLine
 10
-2.001945
 20
1.641157
 30
0.0
 11
-1.029395
 21
2.613536
 31
0.0
  0
LINE
  5
F2
100
AcDbEntity
  8
ROHR
 62
     7
100
AcDbLine
 10
-1.952336
 20
1.160394
 30
0.0
 11
-1.02905
 21
2.083508
 31
0.0
  0
LINE
  5
F1
100
AcDbEntity
  8
ROHR
 62
     7
100
AcDbLine
 10
-1.896181
 20
0.686177
 30
0.0
 11
-1.023193
 21
1.558992
 31
0.0
  0
LINE
  5
F0
100
AcDbEntity
  8
ROHR
 62
     7
100
AcDbLine
 10
-1.833135
 20
0.21885
 30
0.0
 11
-1.012514
 21
1.039644
 31
0.0
  0
LINE
  5
EF
100
AcDbEntity
  8
ROHR
 62
     7
100
AcDbLine
 10
0.95498
 20
5.128283
 30
0.0
 11
2.064301
 21
6.237604
 31
0.0
  0
LINE
  5
EE
100
AcDbEntity
  8
ROHR
 62
     7
100
AcDbLine
 10
0.988398
 20
4.631672
 30
0.0
 11
2.101164
 21
5.744094
 31
0.0
  0
LINE
  5
ED
100
AcDbEntity
  8
ROHR
 62
     7
100
AcDbLine
 10
1.017337
 20
4.130239
 30
0.0
 11
2.120112
 21
5.232669
 31
0.0
  0
LINE
  5
EC
100
AcDbEntity
  8
ROHR
 62
     7
100
AcDbLine
 10
1.041108
 20
3.62381
 30
0.0
 11
2.13217
 21
4.714699
 31
0.0
  0
LINE
  5
EB
100
AcDbEntity
  8
ROHR
 62
     7
100
AcDbLine
 10
-2.137337
 20
4.687483
 30
0.0
 11
-0.907094
 21
5.917899
 31
0.0
  0
LINE
  5
EA
100
AcDbEntity
  8
ROHR
 62
     7
100
AcDbLine
 10
-2.135959
 20
4.158833
 30
0.0
 11
-0.942234
 21
5.352386
 31
0.0
  0
LINE
  5
E9
100
AcDbEntity
  8
ROHR
 62
     7
100
AcDbLine
 10
-2.124935
 20
3.638968
 30
0.0
 11
-0.972206
 21
4.792214
 31
0.0
  0
LINE
  5
E8
100
AcDbEntity
  8
ROHR
 62
     7
100
AcDbLine
 10
0.401009
 20
6.695629
 30
0.0
 11
1.267451
 21
7.562243
 31
0.0
  0
LINE
  5
E7
100
AcDbEntity
  8
ROHR
 62
     7
100
AcDbLine
 10
-0.031695
 20
6.793298
 30
0.0
 11
0.941889
 21
7.766882
 31
0.0
  0
ENDBLK
  5
124
100
AcDbEntity
  8
ROHR
100
AcDbBlockEnd
  0
BLOCK
  5
127
100
AcDbEntity
  8
ROHR
 62
     7
100
AcDbBlockBegin
  2
AI9-BLK3
 70
     0
 10
0.0
 20
0.0
 30
0.0
  3
AI9-BLK3
  1

  0
LINE
  5
164
100
AcDbEntity
  8
ROHR
 62
     7
100
AcDbLine
 10
2.044147
 20
-2.129241
 30
0.0
 11
1.024055
 21
-3.149334
 31
0.0
  0
LINE
  5
163
100
AcDbEntity
  8
ROHR
 62
     7
100
AcDbLine
 10
-1.080726
 20
-2.072397
 30
0.0
 11
-2.124074
 21
-3.115572
 31
0.0
  0
LINE
  5
162
100
AcDbEntity
  8
ROHR
 62
     7
100
AcDbLine
 10
-1.082794
 20
-1.543575
 30
0.0
 11
-2.10547
 21
-2.566768
 31
0.0
  0
LINE
  5
161
100
AcDbEntity
  8
ROHR
 62
     7
100
AcDbLine
 10
2.001773
 20
-1.641416
 30
0.0
 11
1.029395
 21
-2.613277
 31
0.0
  0
LINE
  5
160
100
AcDbEntity
  8
ROHR
 62
     7
100
AcDbLine
 10
-0.988742
 20
-4.631759
 30
0.0
 11
-2.101164
 21
-5.743835
 31
0.0
  0
LINE
  5
15F
100
AcDbEntity
  8
ROHR
 62
     7
100
AcDbLine
 10
-0.916395
 20
-5.619812
 30
0.0
 11
-1.950269
 21
-6.65403
 31
0.0
  0
LINE
  5
15E
100
AcDbEntity
  8
ROHR
 62
     7
100
AcDbLine
 10
-0.95498
 20
-5.128541
 30
0.0
 11
-2.064129
 21
-6.237518
 31
0.0
  0
LINE
  5
15D
100
AcDbEntity
  8
ROHR
 62
     7
100
AcDbLine
 10
2.12993
 20
-5.225693
 30
0.0
 11
-0.560345
 21
-7.915279
 31
0.0
  0
LINE
  5
15C
100
AcDbEntity
  8
ROHR
 62
     7
100
AcDbLine
 10
2.137337
 20
-4.687569
 30
0.0
 11
0.907266
 21
-5.918157
 31
0.0
  0
LINE
  5
15B
100
AcDbEntity
  8
ROHR
 62
     7
100
AcDbLine
 10
-0.868164
 20
-6.102125
 30
0.0
 11
-1.773018
 21
-7.006807
 31
0.0
  0
LINE
  5
15A
100
AcDbEntity
  8
ROHR
 62
     7
100
AcDbLine
 10
-0.69367
 20
-6.458004
 30
0.0
 11
-1.544264
 21
-7.308598
 31
0.0
  0
LINE
  5
159
100
AcDbEntity
  8
ROHR
 62
     7
100
AcDbLine
 10
-0.401009
 20
-6.695715
 30
0.0
 11
-1.267795
 21
-7.562501
 31
0.0
  0
LINE
  5
158
100
AcDbEntity
  8
ROHR
 62
     7
100
AcDbLine
 10
2.054655
 20
-6.360852
 30
0.0
 11
0.474906
 21
-7.941117
 31
0.0
  0
LINE
  5
157
100
AcDbEntity
  8
ROHR
 62
     7
100
AcDbLine
 10
2.11236
 20
-5.773463
 30
0.0
 11
-0.105075
 21
-7.990727
 31
0.0
  0
LINE
  5
156
100
AcDbEntity
  8
ROHR
 62
     7
100
AcDbLine
 10
0.031523
 20
-6.793556
 30
0.0
 11
-0.942061
 21
-7.76714
 31
0.0
  0
LINE
  5
155
100
AcDbEntity
  8
ROHR
 62
     7
100
AcDbLine
 10
-1.04128
 20
-3.623724
 30
0.0
 11
-2.132342
 21
-4.714441
 31
0.0
  0
LINE
  5
154
100
AcDbEntity
  8
ROHR
 62
     7
100
AcDbLine
 10
-1.060056
 20
-3.112127
 30
0.0
 11
-2.137337
 21
-4.189064
 31
0.0
  0
LINE
  5
153
100
AcDbEntity
  8
ROHR
 62
     7
100
AcDbLine
 10
-1.073319
 20
-2.594674
 30
0.0
 11
-2.134409
 21
-3.656108
 31
0.0
  0
LINE
  5
152
100
AcDbEntity
  8
ROHR
 62
     7
100
AcDbLine
 10
-1.017509
 20
-4.130153
 30
0.0
 11
-2.120284
 21
-5.232928
 31
0.0
  0
LINE
  5
151
100
AcDbEntity
  8
ROHR
 62
     7
100
AcDbLine
 10
2.125279
 20
-3.639227
 30
0.0
 11
0.972034
 21
-4.791956
 31
0.0
  0
LINE
  5
150
100
AcDbEntity
  8
ROHR
 62
     7
100
AcDbLine
 10
2.106159
 20
-3.12763
 30
0.0
 11
0.995633
 21
-4.237984
 31
0.0
  0
LINE
  5
14F
100
AcDbEntity
  8
ROHR
 62
     7
100
AcDbLine
 10
2.135787
 20
-4.159092
 30
0.0
 11
0.942061
 21
-5.352128
 31
0.0
  0
LINE
  5
14E
100
AcDbEntity
  8
ROHR
 62
     7
100
AcDbLine
 10
2.078943
 20
-2.624646
 30
0.0
 11
1.012858
 21
-3.690903
 31
0.0
  0
LINE
  5
14D
100
AcDbEntity
  8
ROHR
 62
     7
100
AcDbLine
 10
-0.737939
 20
4.104315
 30
0.0
 11
-1.358746
 21
3.483508
 31
0.0
  0
LINE
  5
14C
100
AcDbEntity
  8
ROHR
 62
     7
100
AcDbLine
 10
0.950846
 20
4.202155
 30
0.0
 11
0.639754
 21
3.891063
 31
0.0
  0
LINE
  5
14B
100
AcDbEntity
  8
ROHR
 62
     7
100
AcDbLine
 10
-0.999594
 20
1.191142
 30
0.0
 11
-1.874993
 21
0.315743
 31
0.0
  0
LINE
  5
14A
100
AcDbEntity
  8
ROHR
 62
     7
100
AcDbLine
 10
1.607137
 20
1.146011
 30
0.0
 11
0.948779
 21
0.487653
 31
0.0
  0
LINE
  5
149
100
AcDbEntity
  8
ROHR
 62
     7
100
AcDbLine
 10
-1.079004
 20
-1.009241
 30
0.0
 11
-2.078598
 21
-2.009352
 31
0.0
  0
LINE
  5
148
100
AcDbEntity
  8
ROHR
 62
     7
100
AcDbLine
 10
-1.029395
 20
0.630969
 30
0.0
 11
-1.941139
 21
-0.280603
 31
0.0
  0
LINE
  5
147
100
AcDbEntity
  8
ROHR
 62
     7
100
AcDbLine
 10
-1.052304
 20
0.077342
 30
0.0
 11
-1.996777
 21
-0.866614
 31
0.0
  0
LINE
  5
146
100
AcDbEntity
  8
ROHR
 62
     7
100
AcDbLine
 10
-1.068841
 20
-0.469394
 30
0.0
 11
-2.042425
 21
-1.442978
 31
0.0
  0
LINE
  5
145
100
AcDbEntity
  8
ROHR
 62
     7
100
AcDbLine
 10
1.952336
 20
-1.160136
 30
0.0
 11
1.029222
 21
-2.083766
 31
0.0
  0
LINE
  5
144
100
AcDbEntity
  8
ROHR
 62
     7
100
AcDbLine
 10
1.764061
 20
0.242362
 30
0.0
 11
0.996149
 21
-0.525549
 31
0.0
  0
LINE
  5
143
100
AcDbEntity
  8
ROHR
 62
     7
100
AcDbLine
 10
1.688614
 20
0.697115
 30
0.0
 11
0.974618
 21
-0.016709
 31
0.0
  0
LINE
  5
142
100
AcDbEntity
  8
ROHR
 62
     7
100
AcDbLine
 10
1.833308
 20
-0.218591
 30
0.0
 11
1.012341
 21
-1.039902
 31
0.0
  0
LINE
  5
141
100
AcDbEntity
  8
ROHR
 62
     7
100
AcDbLine
 10
1.896008
 20
-0.686435
 30
0.0
 11
1.023538
 21
-1.559078
 31
0.0
  0
LINE
  5
140
100
AcDbEntity
  8
ROHR
 62
     7
100
AcDbLine
 10
-0.962732
 20
1.758549
 30
0.0
 11
-1.797479
 21
0.923458
 31
0.0
  0
LINE
  5
13F
100
AcDbEntity
  8
ROHR
 62
     7
100
AcDbLine
 10
-0.806325
 20
3.505557
 30
0.0
 11
-1.489832
 21
2.822394
 31
0.0
  0
LINE
  5
13E
100
AcDbEntity
  8
ROHR
 62
     7
100
AcDbLine
 10
-0.866269
 20
2.915068
 30
0.0
 11
-1.605759
 21
2.176095
 31
0.0
  0
LINE
  5
13D
100
AcDbEntity
  8
ROHR
 62
     7
100
AcDbLine
 10
-0.918462
 20
2.333191
 30
0.0
 11
-1.708078
 21
1.542886
 31
0.0
  0
LINE
  5
13C
100
AcDbEntity
  8
ROHR
 62
     7
100
AcDbLine
 10
1.518254
 20
1.596285
 30
0.0
 11
0.917257
 21
0.995116
 31
0.0
  0
LINE
  5
13B
100
AcDbEntity
  8
ROHR
 62
     7
100
AcDbLine
 10
1.050582
 20
3.771863
 30
0.0
 11
0.696943
 21
3.417707
 31
0.0
  0
LINE
  5
13A
100
AcDbEntity
  8
ROHR
 62
     7
100
AcDbLine
 10
1.244368
 20
2.904732
 30
0.0
 11
0.798229
 21
2.458592
 31
0.0
  0
LINE
  5
139
100
AcDbEntity
  8
ROHR
 62
     7
100
AcDbLine
 10
1.148595
 20
3.339159
 30
0.0
 11
0.749653
 21
2.940217
 31
0.0
  0
LINE
  5
138
100
AcDbEntity
  8
ROHR
 62
     7
100
AcDbLine
 10
1.338247
 20
2.468583
 30
0.0
 11
0.842326
 21
1.972489
 31
0.0
  0
LINE
  5
137
100
AcDbEntity
  8
ROHR
 62
     7
100
AcDbLine
 10
1.429887
 20
2.029678
 30
0.0
 11
0.882461
 21
1.481908
 31
0.0
  0
LINE
  5
136
100
AcDbEntity
  8
ROHR
 62
     7
100
AcDbLine
 10
-0.574125
 20
5.329046
 30
0.0
 11
-1.047137
 21
4.856034
 31
0.0
  0
LINE
  5
135
100
AcDbEntity
  8
ROHR
 62
     7
100
AcDbLine
 10
-0.660597
 20
4.712029
 30
0.0
 11
-1.211812
 21
4.160814
 31
0.0
  0
LINE
  5
134
100
AcDbEntity
  8
ROHR
 62
     7
100
AcDbLine
 10
-0.253215
 20
7.240902
 30
0.0
 11
-0.42857
 21
7.065374
 31
0.0
  0
LINE
  5
133
100
AcDbEntity
  8
ROHR
 62
     7
100
AcDbLine
 10
-0.477662
 20
5.955709
 30
0.0
 11
-0.863169
 21
5.570203
 31
0.0
  0
LINE
  5
132
100
AcDbEntity
  8
ROHR
 62
     7
100
AcDbLine
 10
0.198265
 20
7.161837
 30
0.0
 11
0.134186
 21
7.097758
 31
0.0
  0
LINE
  5
131
100
AcDbEntity
  8
ROHR
 62
     7
100
AcDbLine
 10
0.422713
 20
6.325712
 30
0.0
 11
0.297139
 21
6.200138
 31
0.0
  0
LINE
  5
130
100
AcDbEntity
  8
ROHR
 62
     7
100
AcDbLine
 10
-0.370692
 20
6.592879
 30
0.0
 11
-0.657841
 21
6.305731
 31
0.0
  0
LINE
  5
12F
100
AcDbEntity
  8
ROHR
 62
     7
100
AcDbLine
 10
0.639754
 20
5.482008
 30
0.0
 11
0.445451
 21
5.288049
 31
0.0
  0
LINE
  5
12E
100
AcDbEntity
  8
ROHR
 62
     7
100
AcDbLine
 10
0.532267
 20
5.904721
 30
0.0
 11
0.373104
 21
5.745903
 31
0.0
  0
LINE
  5
12D
100
AcDbEntity
  8
ROHR
 62
     7
100
AcDbLine
 10
0.849044
 20
4.630725
 30
0.0
 11
0.579121
 21
4.36063
 31
0.0
  0
LINE
  5
12C
100
AcDbEntity
  8
ROHR
 62
     7
100
AcDbLine
 10
0.311437
 20
6.744808
 30
0.0
 11
0.217386
 21
6.650757
 31
0.0
  0
LINE
  5
12B
100
AcDbEntity
  8
ROHR
 62
     7
100
AcDbLine
 10
0.745519
 20
5.057572
 30
0.0
 11
0.514181
 21
4.826407
 31
0.0
  0
LINE
  5
12A
100
AcDbEntity
  8
ROHR
 62
     7
100
AcDbLine
 10
-0.123679
 20
7.900465
 30
0.0
 11
-0.172772
 21
7.851717
 31
0.0
  0
LINE
  5
129
100
AcDbEntity
  8
ROHR
 62
     7
100
AcDbLine
 10
-0.03359
 20
7.990727
 30
0.0
 11
-0.042547
 21
7.981597
 31
0.0
  0
LINE
  5
128
100
AcDbEntity
  8
ROHR
 62
     7
100
AcDbLine
 10
0.083199
 20
7.577315
 30
0.0
 11
0.04737
 21
7.541314
 31
0.0
  0
ENDBLK
  5
165
100
AcDbEntity
  8
ROHR
100
AcDbBlockEnd
  0
ENDSEC
  0
SECTION
  2
ENTITIES
  0
INSERT
  5
126
100
AcDbEntity
  8
ROHR
 62
     7
100
AcDbBlockReference
  2
AI9-BLK3
 10
94.455044
 20
142.850368
 30
0.0
  0
INSERT
  5
E5
100
AcDbEntity
  8
ROHR
  6
AI9-LType2
 62
     7
100
AcDbBlockReference
  2
AI9-BLK2
 10
166.37813
 20
153.308902
 30
0.0
  0
LINE
  5
E2
100
AcDbEntity
  8
GETRENNT
  6
AI9-LType2
 62
     7
100
AcDbLine
 10
100.699969
 20
208.014004
 30
0.0
 11
159.499997
 21
208.014004
 31
0.0
  0
LINE
  5
E1
100
AcDbEntity
  8
GETRENNT
  6
AI9-LType2
 62
     7
100
AcDbLine
 10
100.699969
 20
88.014266
 30
0.0
 11
159.499997
 21
88.014266
 31
0.0
  0
LINE
  5
DE
100
AcDbEntity
  8
SCHRAFUR
 62
     7
100
AcDbLine
 10
100.699969
 20
205.828436
 30
0.0
 11
102.88571
 21
208.014004
 31
0.0
  0
LINE
  5
DD
100
AcDbEntity
  8
SCHRAFUR
 62
     7
100
AcDbLine
 10
100.699969
 20
188.586249
 30
0.0
 11
120.127724
 21
208.014004
 31
0.0
  0
LINE
  5
DC
100
AcDbEntity
  8
SCHRAFUR
 62
     7
100
AcDbLine
 10
101.369868
 20
172.014134
 30
0.0
 11
137.370082
 21
208.014004
 31
0.0
  0
LINE
  5
DB
100
AcDbEntity
  8
SCHRAFUR
 62
     7
100
AcDbLine
 10
118.611882
 20
172.014134
 30
0.0
 11
154.611751
 21
208.014004
 31
0.0
  0
LINE
  5
DA
100
AcDbEntity
  8
SCHRAFUR
 62
     7
100
AcDbLine
 10
135.85424
 20
172.014134
 30
0.0
 11
159.499997
 21
195.660064
 31
0.0
  0
LINE
  5
D9
100
AcDbEntity
  8
SCHRAFUR
 62
     7
100
AcDbLine
 10
100.699969
 20
119.617505
 30
0.0
 11
105.096083
 21
124.014136
 31
0.0
  0
LINE
  5
D8
100
AcDbEntity
  8
SCHRAFUR
 62
     7
100
AcDbLine
 10
153.096254
 20
172.014134
 30
0.0
 11
159.499997
 21
178.417878
 31
0.0
  0
LINE
  5
D7
100
AcDbEntity
  8
SCHRAFUR
 62
     7
100
AcDbLine
 10
100.699969
 20
102.375836
 30
0.0
 11
122.338441
 21
124.014136
 31
0.0
  0
LINE
  5
D6
100
AcDbEntity
  8
SCHRAFUR
 62
     7
100
AcDbLine
 10
103.580241
 20
88.014266
 30
0.0
 11
139.580111
 21
124.014136
 31
0.0
  0
LINE
  5
D5
100
AcDbEntity
  8
SCHRAFUR
 62
     7
100
AcDbLine
 10
120.822599
 20
88.014266
 30
0.0
 11
156.822469
 21
124.014136
 31
0.0
  0
LINE
  5
D4
100
AcDbEntity
  8
SCHRAFUR
 62
     7
100
AcDbLine
 10
138.064613
 20
88.014266
 30
0.0
 11
159.499997
 21
109.449306
 31
0.0
  0
LINE
  5
D3
100
AcDbEntity
  8
SCHRAFUR
 62
     7
100
AcDbLine
 10
155.306283
 20
88.014266
 30
0.0
 11
159.499997
 21
92.207292
 31
0.0
  0
LINE
  5
D2
100
AcDbEntity
  8
SCHRAFUR
 62
     7
100
AcDbLine
 10
100.699969
 20
197.207256
 30
0.0
 11
100.963174
 21
197.470806
 31
0.0
  0
LINE
  5
D1
100
AcDbEntity
  8
SCHRAFUR
 62
     7
100
AcDbLine
 10
103.118254
 20
199.625886
 30
0.0
 11
107.429102
 21
203.936561
 31
0.0
  0
LINE
  5
D0
100
AcDbEntity
  8
SCHRAFUR
 62
     7
100
AcDbLine
 10
109.584009
 20
206.091641
 30
0.0
 11
111.506372
 21
208.014004
 31
0.0
  0
LINE
  5
CF
100
AcDbEntity
  8
SCHRAFUR
 62
     7
100
AcDbLine
 10
100.699969
 20
179.96507
 30
0.0
 11
103.118254
 21
182.383872
 31
0.0
  0
LINE
  5
CE
100
AcDbEntity
  8
SCHRAFUR
 62
     7
100
AcDbLine
 10
105.27385
 20
184.538951
 30
0.0
 11
109.584009
 21
188.849627
 31
0.0
  0
LINE
  5
CD
100
AcDbEntity
  8
SCHRAFUR
 62
     7
100
AcDbLine
 10
111.739605
 20
191.004706
 30
0.0
 11
116.049764
 21
195.315382
 31
0.0
  0
LINE
  5
CC
100
AcDbEntity
  8
SCHRAFUR
 62
     7
100
AcDbLine
 10
118.20536
 20
197.470806
 30
0.0
 11
122.515519
 21
201.781137
 31
0.0
  0
LINE
  5
CB
100
AcDbEntity
  8
SCHRAFUR
 62
     7
100
AcDbLine
 10
124.671115
 20
203.936561
 30
0.0
 11
128.74873
 21
208.014004
 31
0.0
  0
LINE
  5
CA
100
AcDbEntity
  8
SCHRAFUR
 62
     7
100
AcDbLine
 10
109.990875
 20
172.014134
 30
0.0
 11
111.739605
 21
173.762693
 31
0.0
  0
LINE
  5
C9
100
AcDbEntity
  8
SCHRAFUR
 62
     7
100
AcDbLine
 10
113.894857
 20
175.918117
 30
0.0
 11
118.20536
 21
180.228448
 31
0.0
  0
LINE
  5
C8
100
AcDbEntity
  8
SCHRAFUR
 62
     7
100
AcDbLine
 10
120.360612
 20
182.383872
 30
0.0
 11
124.671115
 21
186.694375
 31
0.0
  0
LINE
  5
C7
100
AcDbEntity
  8
SCHRAFUR
 62
     7
100
AcDbLine
 10
126.826367
 20
188.849627
 30
0.0
 11
131.136871
 21
193.16013
 31
0.0
  0
LINE
  5
C6
100
AcDbEntity
  8
SCHRAFUR
 62
     7
100
AcDbLine
 10
133.292122
 20
195.315382
 30
0.0
 11
137.602626
 21
199.625886
 31
0.0
  0
LINE
  5
C5
100
AcDbEntity
  8
SCHRAFUR
 62
     7
100
AcDbLine
 10
139.757878
 20
201.781137
 30
0.0
 11
144.068381
 21
206.091641
 31
0.0
  0
LINE
  5
C4
100
AcDbEntity
  8
SCHRAFUR
 62
     7
100
AcDbLine
 10
128.981963
 20
173.762693
 30
0.0
 11
133.292122
 21
178.073196
 31
0.0
  0
LINE
  5
C3
100
AcDbEntity
  8
SCHRAFUR
 62
     7
100
AcDbLine
 10
135.447719
 20
180.228448
 30
0.0
 11
139.757878
 21
184.538951
 31
0.0
  0
LINE
  5
C2
100
AcDbEntity
  8
SCHRAFUR
 62
     7
100
AcDbLine
 10
141.913474
 20
186.694375
 30
0.0
 11
146.223633
 21
191.004706
 31
0.0
  0
LINE
  5
C1
100
AcDbEntity
  8
SCHRAFUR
 62
     7
100
AcDbLine
 10
148.379229
 20
193.16013
 30
0.0
 11
152.689388
 21
197.470806
 31
0.0
  0
LINE
  5
C0
100
AcDbEntity
  8
SCHRAFUR
 62
     7
100
AcDbLine
 10
154.844984
 20
199.625886
 30
0.0
 11
159.155143
 21
203.936561
 31
0.0
  0
LINE
  5
BF
100
AcDbEntity
  8
SCHRAFUR
 62
     7
100
AcDbLine
 10
144.474902
 20
172.014134
 30
0.0
 11
148.379229
 21
175.918117
 31
0.0
  0
LINE
  5
BE
100
AcDbEntity
  8
SCHRAFUR
 62
     7
100
AcDbLine
 10
150.534136
 20
178.073196
 30
0.0
 11
154.844984
 21
182.383872
 31
0.0
  0
LINE
  5
BD
100
AcDbEntity
  8
SCHRAFUR
 62
     7
100
AcDbLine
 10
157.000236
 20
184.538951
 30
0.0
 11
159.499997
 21
187.038885
 31
0.0
  0
LINE
  5
BC
100
AcDbEntity
  8
SCHRAFUR
 62
     7
100
AcDbLine
 10
100.963174
 20
111.260048
 30
0.0
 11
105.27385
 21
115.570896
 31
0.0
  0
LINE
  5
BB
100
AcDbEntity
  8
SCHRAFUR
 62
     7
100
AcDbLine
 10
107.429102
 20
117.725803
 30
0.0
 11
111.739605
 21
122.036651
 31
0.0
  0
LINE
  5
BA
100
AcDbEntity
  8
SCHRAFUR
 62
     7
100
AcDbLine
 10
100.699969
 20
93.754484
 30
0.0
 11
100.963174
 21
94.018034
 31
0.0
  0
LINE
  5
B9
100
AcDbEntity
  8
SCHRAFUR
 62
     7
100
AcDbLine
 10
103.118254
 20
96.17363
 30
0.0
 11
107.429102
 21
100.483789
 31
0.0
  0
LINE
  5
B8
100
AcDbEntity
  8
SCHRAFUR
 62
     7
100
AcDbLine
 10
109.584009
 20
102.639385
 30
0.0
 11
113.894857
 21
106.949544
 31
0.0
  0
LINE
  5
B7
100
AcDbEntity
  8
SCHRAFUR
 62
     7
100
AcDbLine
 10
116.049764
 20
109.105141
 30
0.0
 11
120.360612
 21
113.415299
 31
0.0
  0
LINE
  5
B6
100
AcDbEntity
  8
SCHRAFUR
 62
     7
100
AcDbLine
 10
122.515519
 20
115.570896
 30
0.0
 11
126.826367
 21
119.881055
 31
0.0
  0
LINE
  5
B5
100
AcDbEntity
  8
SCHRAFUR
 62
     7
100
AcDbLine
 10
128.981963
 20
122.036651
 30
0.0
 11
130.959448
 21
124.014136
 31
0.0
  0
LINE
  5
B4
100
AcDbEntity
  8
SCHRAFUR
 62
     7
100
AcDbLine
 10
112.201592
 20
88.014266
 30
0.0
 11
116.049764
 21
91.862782
 31
0.0
  0
LINE
  5
B3
100
AcDbEntity
  8
SCHRAFUR
 62
     7
100
AcDbLine
 10
118.20536
 20
94.018034
 30
0.0
 11
122.515519
 21
98.328537
 31
0.0
  0
LINE
  5
B2
100
AcDbEntity
  8
SCHRAFUR
 62
     7
100
AcDbLine
 10
124.671115
 20
100.483789
 30
0.0
 11
128.981963
 21
104.794293
 31
0.0
  0
LINE
  5
B1
100
AcDbEntity
  8
SCHRAFUR
 62
     7
100
AcDbLine
 10
131.136871
 20
106.949544
 30
0.0
 11
135.447719
 21
111.260048
 31
0.0
  0
LINE
  5
B0
100
AcDbEntity
  8
SCHRAFUR
 62
     7
100
AcDbLine
 10
137.602626
 20
113.415299
 30
0.0
 11
141.913474
 21
117.725803
 31
0.0
  0
LINE
  5
AF
100
AcDbEntity
  8
SCHRAFUR
 62
     7
100
AcDbLine
 10
144.068381
 20
119.881055
 30
0.0
 11
148.201462
 21
124.014136
 31
0.0
  0
LINE
  5
AE
100
AcDbEntity
  8
SCHRAFUR
 62
     7
100
AcDbLine
 10
129.443262
 20
88.014266
 30
0.0
 11
131.136871
 21
89.707875
 31
0.0
  0
LINE
  5
AD
100
AcDbEntity
  8
SCHRAFUR
 62
     7
100
AcDbLine
 10
133.292122
 20
91.862782
 30
0.0
 11
137.602626
 21
96.17363
 31
0.0
  0
LINE
  5
AC
100
AcDbEntity
  8
SCHRAFUR
 62
     7
100
AcDbLine
 10
139.757878
 20
98.328537
 30
0.0
 11
144.068381
 21
102.639385
 31
0.0
  0
LINE
  5
AB
100
AcDbEntity
  8
SCHRAFUR
 62
     7
100
AcDbLine
 10
146.223633
 20
104.794293
 30
0.0
 11
150.534136
 21
109.105141
 31
0.0
  0
LINE
  5
AA
100
AcDbEntity
  8
SCHRAFUR
 62
     7
100
AcDbLine
 10
152.689388
 20
111.260048
 30
0.0
 11
157.000236
 21
115.570896
 31
0.0
  0
LINE
  5
A9
100
AcDbEntity
  8
SCHRAFUR
 62
     7
100
AcDbLine
 10
159.155143
 20
117.725803
 30
0.0
 11
159.499997
 21
118.070312
 31
0.0
  0
LINE
  5
A8
100
AcDbEntity
  8
SCHRAFUR
 62
     7
100
AcDbLine
 10
148.379229
 20
89.707875
 30
0.0
 11
152.689388
 21
94.018034
 31
0.0
  0
LINE
  5
A7
100
AcDbEntity
  8
SCHRAFUR
 62
     7
100
AcDbLine
 10
154.844984
 20
96.17363
 30
0.0
 11
159.155143
 21
100.483789
 31
0.0
  0
HATCH
  5
A5
100
AcDbEntity
  8
EBENE_1
 62
   152
100
AcDbHatch
 10
0.0
 20
0.0
 30
0.0
210
0.0
220
0.0
230
1.0
  2
SOLID
 70
     1
 71
     0
 91
        1
 92
        1
 93
        1
 72
     4
 94
        3
 73
     0
 74
     0
 95
       23
 96
       19
 40
0.0
 40
0.0
 40
0.0
 40
0.0
 40
1.0
 40
1.0
 40
1.0
 40
2.0
 40
2.0
 40
2.0
 40
3.0
 40
3.0
 40
3.0
 40
4.0
 40
4.0
 40
4.0
 40
5.0
 40
5.0
 40
5.0
 40
6.0
 40
6.0
 40
6.0
 40
6.0
 10
84.001246473524304
 20
128.05488823784722
 10
84.001246473524304
 20
128.05488823784722
 10
83.576121690538187
 20
128.31671549479165
 10
82.998206922743051
 20
128.59370117187498
 10
78.231572808159711
 20
130.87332085503471
 10
79.3939480251736
 20
126.25344780815971
 10
74.675889756944443
 20
129.15697428385417
 10
74.010641818576389
 20
129.56625162760415
 10
73.39672580295138
 20
128.56889648437499
 10
74.061973741319434
 20
128.15927463107639
 10
74.061973741319434
 20
128.15927463107639
 10
74.487098524305551
 20
127.89710286458332
 10
75.064841037326389
 20
127.62080620659721
 10
79.825446234809021
 20
125.34222005208332
 10
78.668410915798603
 20
129.95348036024305
 10
83.387330457899296
 20
127.05684407552083
 10
84.05257839626735
 20
126.64756673177082
 10
84.666494411892359
 20
127.64595540364583
 10
84.001246473524304
 20
128.05488823784722
 97
        0
 75
     0
 76
     1
 98
        1
 10
0.0
 20
0.0
  0
HATCH
  5
A4
100
AcDbEntity
  8
EBENE_1
 62
   152
100
AcDbHatch
 10
0.0
 20
0.0
 30
0.0
210
0.0
220
0.0
230
1.0
  2
SOLID
 70
     1
 71
     0
 91
        1
 92
        1
 93
        1
 72
     4
 94
        3
 73
     0
 74
     0
 95
       23
 96
       19
 40
0.0
 40
0.0
 40
0.0
 40
0.0
 40
1.0
 40
1.0
 40
1.0
 40
2.0
 40
2.0
 40
2.0
 40
3.0
 40
3.0
 40
3.0
 40
4.0
 40
4.0
 40
4.0
 40
5.0
 40
5.0
 40
5.0
 40
6.0
 40
6.0
 40
6.0
 40
6.0
 10
84.001246473524304
 20
122.54411349826388
 10
84.001246473524304
 20
122.54411349826388
 10
83.576121690538187
 20
122.80594075520833
 10
82.998206922743051
 20
123.08189290364582
 10
78.231572808159711
 20
125.36254611545138
 10
79.3939480251736
 20
120.74267306857638
 10
74.675889756944443
 20
123.64619954427083
 10
74.010641818576389
 20
124.05547688802082
 10
73.39672580295138
 20
123.05777723524305
 10
74.061973741319434
 20
122.64849989149305
 10
74.061973741319434
 20
122.64849989149305
 10
74.487098524305551
 20
122.38632812499999
 10
75.064841037326389
 20
122.11003146701388
 10
79.825446234809021
 20
119.83110080295138
 10
78.668410915798603
 20
124.44270562065971
 10
83.387330457899296
 20
121.54606933593749
 10
84.05257839626735
 20
121.13679199218748
 10
84.666494411892359
 20
122.13483615451388
 10
84.001246473524304
 20
122.54411349826388
 97
        0
 75
     0
 76
     1
 98
        1
 10
0.0
 20
0.0
  0
HATCH
  5
A3
100
AcDbEntity
  8
EBENE_1
 62
   152
100
AcDbHatch
 10
0.0
 20
0.0
 30
0.0
210
0.0
220
0.0
230
1.0
  2
SOLID
 70
     1
 71
     0
 91
        1
 92
        1
 93
        1
 72
     4
 94
        3
 73
     0
 74
     0
 95
       23
 96
       19
 40
0.0
 40
0.0
 40
0.0
 40
0.0
 40
1.0
 40
1.0
 40
1.0
 40
2.0
 40
2.0
 40
2.0
 40
3.0
 40
3.0
 40
3.0
 40
4.0
 40
4.0
 40
4.0
 40
5.0
 40
5.0
 40
5.0
 40
6.0
 40
6.0
 40
6.0
 40
6.0
 10
84.001246473524304
 20
125.29950086805555
 10
84.001246473524304
 20
125.29950086805555
 10
83.576121690538187
 20
125.56132812499999
 10
82.998206922743051
 20
125.83796929253471
 10
78.231572808159711
 20
128.11793348524304
 10
79.3939480251736
 20
123.49806043836804
 10
74.675889756944443
 20
126.40158691406249
 10
74.010641818576389
 20
126.81086425781248
 10
73.39672580295138
 20
125.81350911458333
 10
74.061973741319434
 20
125.40388726128471
 10
74.061973741319434
 20
125.40388726128471
 10
74.487098524305551
 20
125.14171549479165
 10
75.064841037326389
 20
124.86541883680555
 10
79.825446234809021
 20
122.58683268229166
 10
78.668410915798603
 20
127.19809299045137
 10
83.387330457899296
 20
124.30145670572915
 10
84.05257839626735
 20
123.89217936197916
 10
84.666494411892359
 20
124.89056803385415
 10
84.001246473524304
 20
125.29950086805555
 97
        0
 75
     0
 76
     1
 98
        1
 10
0.0
 20
0.0
  0
HATCH
  5
A2
100
AcDbEntity
  8
EBENE_1
 62
   152
100
AcDbHatch
 10
0.0
 20
0.0
 30
0.0
210
0.0
220
0.0
230
1.0
  2
SOLID
 70
     1
 71
     0
 91
        1
 92
        1
 93
        1
 72
     4
 94
        3
 73
     0
 74
     0
 95
       23
 96
       19
 40
0.0
 40
0.0
 40
0.0
 40
0.0
 40
1.0
 40
1.0
 40
1.0
 40
2.0
 40
2.0
 40
2.0
 40
3.0
 40
3.0
 40
3.0
 40
4.0
 40
4.0
 40
4.0
 40
5.0
 40
5.0
 40
5.0
 40
6.0
 40
6.0
 40
6.0
 40
6.0
 10
84.001246473524304
 20
130.80545247395833
 10
84.001246473524304
 20
130.80545247395833
 10
83.576121690538187
 20
131.06762424045138
 10
82.998206922743051
 20
131.34392089843749
 10
78.231572808159711
 20
133.62388509114581
 10
79.3939480251736
 20
129.00401204427081
 10
74.675889756944443
 20
131.90822753906249
 10
74.010641818576389
 20
132.31716037326387
 10
73.39672580295138
 20
131.31980523003472
 10
74.061973741319434
 20
130.90983886718749
 10
74.061973741319434
 20
130.90983886718749
 10
74.487098524305551
 20
130.64801161024303
 10
75.064841037326389
 20
130.37137044270833
 10
79.825446234809021
 20
128.09312879774305
 10
78.668410915798603
 20
132.70404459635415
 10
83.387330457899296
 20
129.80809733072917
 10
84.05257839626735
 20
129.39847547743054
 10
84.666494411892359
 20
130.39686414930554
 10
84.001246473524304
 20
130.80545247395833
 97
        0
 75
     0
 76
     1
 98
        1
 10
0.0
 20
0.0
  0
HATCH
  5
A0
100
AcDbEntity
  8
SCHRAFFUR
 62
     7
100
AcDbHatch
 10
0.0
 20
0.0
 30
0.0
210
0.0
220
0.0
230
1.0
  2
SOLID
 70
     1
 71
     0
 91
        4
 92
        1
 93
        1
 72
     4
 94
        3
 73
     0
 74
     0
 95
       20
 96
       16
 40
0.0
 40
0.0
 40
0.0
 40
0.0
 40
1.0
 40
1.0
 40
1.0
 40
2.0
 40
2.0
 40
2.0
 40
3.0
 40
3.0
 40
3.0
 40
4.0
 40
4.0
 40
4.0
 40
5.0
 40
5.0
 40
5.0
 40
5.0
 10
103.81967502170139
 20
171.53406032986109
 10
103.81967502170139
 20
171.53406032986109
 10
103.81967502170139
 20
172.01413438585067
 10
103.81967502170139
 20
172.01413438585067
 10
103.81967502170139
 20
172.01413438585067
 10
108.61972656249999
 20
172.01413438585067
 10
108.61972656249999
 20
172.01413438585067
 10
108.61972656249999
 20
172.01413438585067
 10
108.61972656249999
 20
166.6876722547743
 10
108.61972656249999
 20
166.6876722547743
 10
108.61972656249999
 20
166.6876722547743
 10
103.81967502170139
 20
166.6876722547743
 10
103.81967502170139
 20
166.6876722547743
 10
103.81967502170139
 20
166.6876722547743
 10
103.81967502170139
 20
171.53406032986109
 10
103.81967502170139
 20
171.53406032986109
 97
        0
 92
        1
 93
        1
 72
     4
 94
        3
 73
     0
 74
     0
 95
       17
 96
       13
 40
0.0
 40
0.0
 40
0.0
 40
0.0
 40
1.0
 40
1.0
 40
1.0
 40
2.0
 40
2.0
 40
2.0
 40
3.0
 40
3.0
 40
3.0
 40
4.0
 40
4.0
 40
4.0
 40
4.0
 10
103.81967502170139
 20
166.6876722547743
 10
103.81967502170139
 20
166.6876722547743
 10
108.61972656249999
 20
166.6876722547743
 10
108.61972656249999
 20
166.6876722547743
 10
108.61972656249999
 20
166.6876722547743
 10
108.61972656249999
 20
148.01404893663192
 10
108.61972656249999
 20
148.01404893663192
 10
108.61972656249999
 20
148.01404893663192
 10
103.81967502170139
 20
148.01404893663192
 10
103.81967502170139
 20
148.01404893663192
 10
103.81967502170139
 20
148.01404893663192
 10
103.81967502170139
 20
166.6876722547743
 10
103.81967502170139
 20
166.6876722547743
 97
        0
 92
        1
 93
        1
 72
     4
 94
        3
 73
     0
 74
     0
 95
       17
 96
       13
 40
0.0
 40
0.0
 40
0.0
 40
0.0
 40
1.0
 40
1.0
 40
1.0
 40
2.0
 40
2.0
 40
2.0
 40
3.0
 40
3.0
 40
3.0
 40
4.0
 40
4.0
 40
4.0
 40
4.0
 10
103.81967502170139
 20
148.01404893663192
 10
103.81967502170139
 20
148.01404893663192
 10
108.61972656249999
 20
148.01404893663192
 10
108.61972656249999
 20
148.01404893663192
 10
108.61972656249999
 20
148.01404893663192
 10
108.61972656249999
 20
129.34059787326387
 10
108.61972656249999
 20
129.34059787326387
 10
108.61972656249999
 20
129.34059787326387
 10
103.81967502170139
 20
129.34059787326387
 10
103.81967502170139
 20
129.34059787326387
 10
103.81967502170139
 20
129.34059787326387
 10
103.81967502170139
 20
148.01404893663192
 10
103.81967502170139
 20
148.01404893663192
 97
        0
 92
        1
 93
        1
 72
     4
 94
        3
 73
     0
 74
     0
 95
       17
 96
       13
 40
0.0
 40
0.0
 40
0.0
 40
0.0
 40
1.0
 40
1.0
 40
1.0
 40
2.0
 40
2.0
 40
2.0
 40
3.0
 40
3.0
 40
3.0
 40
4.0
 40
4.0
 40
4.0
 40
4.0
 10
103.81967502170139
 20
129.34059787326387
 10
103.81967502170139
 20
129.34059787326387
 10
108.61972656249999
 20
129.34059787326387
 10
108.61972656249999
 20
129.34059787326387
 10
108.61972656249999
 20
129.34059787326387
 10
108.61972656249999
 20
124.01413574218749
 10
108.61972656249999
 20
124.01413574218749
 10
108.61972656249999
 20
124.01413574218749
 10
103.81967502170139
 20
124.01413574218749
 10
103.81967502170139
 20
124.01413574218749
 10
103.81967502170139
 20
124.01413574218749
 10
103.81967502170139
 20
129.34059787326387
 10
103.81967502170139
 20
129.34059787326387
 97
        0
 75
     0
 76
     1
 98
        1
 10
0.0
 20
0.0
  0
LINE
  5
9E
100
AcDbEntity
  8
MITTELLINIE
  6
AI9-LType1
 62
     7
100
AcDbLine
 10
170.297271
 20
148.014049
 30
0.0
 11
89.817601
 21
148.014049
 31
0.0
  0
LINE
  5
9C
100
AcDbEntity
  8
MITTELLINIE
 62
     7
100
AcDbLine
 10
99.976499
 20
166.687672
 30
0.0
 11
113.140036
 21
166.687672
 31
0.0
  0
LINE
  5
9B
100
AcDbEntity
  8
MITTELLINIE
 62
     7
100
AcDbLine
 10
99.795631
 20
129.340598
 30
0.0
 11
113.140036
 21
129.340598
 31
0.0
  0
LINE
  5
99
100
AcDbEntity
  8
OBJEKT
 62
     7
100
AcDbLine
 10
159.499997
 20
172.014134
 30
0.0
 11
100.699969
 21
172.014134
 31
0.0
  0
LINE
  5
98
100
AcDbEntity
  8
OBJEKT
 62
     7
100
AcDbLine
 10
100.699969
 20
172.014134
 30
0.0
 11
100.699969
 21
174.781924
 31
0.0
  0
LINE
  5
96
100
AcDbEntity
  8
AM_8
 62
     7
100
AcDbLine
 10
109.413477
 20
174.145615
 30
0.0
 11
82.587552
 21
186.684384
 31
0.0
  0
LINE
  5
95
100
AcDbEntity
  8
AM_8
 62
     7
100
AcDbLine
 10
105.190134
 20
164.363783
 30
0.0
 11
60.299334
 21
162.1305
 31
0.0
  0
LINE
  5
93
100
AcDbEntity
  8
AM_0
 62
     7
100
AcDbLine
 10
159.499997
 20
208.014004
 30
0.0
 11
159.499997
 21
172.014134
 31
0.0
  0
LINE
  5
92
100
AcDbEntity
  8
AM_0
 62
     7
100
AcDbLine
 10
159.499997
 20
124.014136
 30
0.0
 11
159.499997
 21
88.014266
 31
0.0
  0
LINE
  5
91
100
AcDbEntity
  8
AM_0
 62
     7
100
AcDbLine
 10
100.699969
 20
88.014266
 30
0.0
 11
100.699969
 21
124.014136
 31
0.0
  0
LINE
  5
90
100
AcDbEntity
  8
AM_0
 62
     7
100
AcDbLine
 10
100.699969
 20
172.014134
 30
0.0
 11
100.699969
 21
208.014004
 31
0.0
  0
LINE
  5
8F
100
AcDbEntity
  8
AM_0
 62
     7
100
AcDbLine
 10
159.499997
 20
172.014134
 30
0.0
 11
100.699969
 21
172.014134
 31
0.0
  0
LINE
  5
8E
100
AcDbEntity
  8
AM_0
 62
     7
100
AcDbLine
 10
159.499997
 20
124.014136
 30
0.0
 11
100.699969
 21
124.014136
 31
0.0
  0
LINE
  5
8D
100
AcDbEntity
  8
AM_0
 62
     7
100
AcDbLine
 10
159.499997
 20
172.014134
 30
0.0
 11
159.499997
 21
161.214105
 31
0.0
  0
LINE
  5
8C
100
AcDbEntity
  8
AM_0
 62
     7
100
AcDbLine
 10
159.499997
 20
134.814166
 30
0.0
 11
159.499997
 21
124.014136
 31
0.0
  0
LINE
  5
8B
100
AcDbEntity
  8
AM_0
 62
     7
100
AcDbLine
 10
100.699969
 20
124.014136
 30
0.0
 11
100.699969
 21
134.814166
 31
0.0
  0
LINE
  5
8A
100
AcDbEntity
  8
AM_0
 62
     7
100
AcDbLine
 10
100.699969
 20
161.214105
 30
0.0
 11
100.699969
 21
172.014134
 31
0.0
  0
LINE
  5
89
100
AcDbEntity
  8
AM_0
 62
     7
100
AcDbLine
 10
101.899896
 20
161.214105
 30
0.0
 11
94.418871
 21
161.214105
 31
0.0
  0
LINE
  5
88
100
AcDbEntity
  8
AM_0
 62
     7
100
AcDbLine
 10
166.296826
 20
161.214105
 30
0.0
 11
110.540023
 21
161.214105
 31
0.0
  0
LINE
  5
87
100
AcDbEntity
  8
AM_0
 62
     7
100
AcDbLine
 10
166.296826
 20
134.814166
 30
0.0
 11
110.540023
 21
134.814166
 31
0.0
  0
LINE
  5
86
100
AcDbEntity
  8
AM_0
 62
     7
100
AcDbLine
 10
101.899896
 20
134.814166
 30
0.0
 11
94.418871
 21
134.814166
 31
0.0
  0
SPLINE
  5
85
100
AcDbEntity
  8
AM_0
 62
     7
100
AcDbSpline
210
0.0
220
0.0
230
1.0
 70
     8
 71
     3
 72
     8
 73
     4
 74
     0
 42
0.00000001
 43
0.00000001
 40
0.0
 40
0.0
 40
0.0
 40
0.0
 40
1.0
 40
1.0
 40
1.0
 40
1.0
 10
166.37950846354164
 20
145.08433973524305
 30
0.0
 10
167.96046278211804
 20
149.64289008246527
 30
0.0
 10
168.64362521701386
 20
154.46464572482637
 30
0.0
 10
168.39041069878471
 20
159.28295627170138
 30
0.0
  0
SPLINE
  5
84
100
AcDbEntity
  8
AM_0
 62
     7
100
AcDbSpline
210
0.0
220
0.0
230
1.0
 70
     8
 71
     3
 72
     8
 73
     4
 74
     0
 42
0.00000001
 43
0.00000001
 40
0.0
 40
0.0
 40
0.0
 40
0.0
 40
1.0
 40
1.0
 40
1.0
 40
1.0
 10
164.70725911458331
 20
152.02103949652778
 30
0.0
 10
165.16476779513889
 20
149.68578152126736
 30
0.0
 10
165.72218424479166
 20
147.3711941189236
 30
0.0
 10
166.37950846354164
 20
145.08433973524305
 30
0.0
  0
SPLINE
  5
83
100
AcDbEntity
  8
AM_0
 62
     7
100
AcDbSpline
210
0.0
220
0.0
230
1.0
 70
     8
 71
     3
 72
     8
 73
     4
 74
     0
 42
0.00000001
 43
0.00000001
 40
0.0
 40
0.0
 40
0.0
 40
0.0
 40
1.0
 40
1.0
 40
1.0
 40
1.0
 10
164.20703124999997
 20
159.32326388888887
 30
0.0
 10
164.07267252604166
 20
156.72359483506943
 30
0.0
 10
164.27076551649304
 20
154.11755235460069
 30
0.0
 10
164.79717610677082
 20
151.56835394965276
 30
0.0
  0
SPLINE
  5
82
100
AcDbEntity
  8
AM_0
 62
     7
100
AcDbSpline
210
0.0
220
0.0
230
1.0
 70
     8
 71
     3
 72
     8
 73
     4
 74
     0
 42
0.00000001
 43
0.00000001
 40
0.0
 40
0.0
 40
0.0
 40
0.0
 40
1.0
 40
1.0
 40
1.0
 40
1.0
 10
166.37950846354164
 20
145.08433973524305
 30
0.0
 10
167.34137912326386
 20
149.69508327907985
 30
0.0
 10
167.61664225260415
 20
154.42278781467013
 30
0.0
 10
167.19702962239583
 20
159.11414659288192
 30
0.0
  0
SPLINE
  5
81
100
AcDbEntity
  8
AM_0
 62
     7
100
AcDbSpline
210
0.0
220
0.0
230
1.0
 70
     8
 71
     3
 72
     8
 73
     4
 74
     0
 42
0.00000001
 43
0.00000001
 40
0.0
 40
0.0
 40
0.0
 40
0.0
 40
1.0
 40
1.0
 40
1.0
 40
1.0
 10
165.39662272135416
 20
159.11414659288192
 30
0.0
 10
165.06899414062499
 20
154.41451958550346
 30
0.0
 10
165.39972330729165
 20
149.69232720269096
 30
0.0
 10
166.37950846354164
 20
145.08433973524305
 30
0.0
  0
SPLINE
  5
80
100
AcDbEntity
  8
AM_0
 62
     7
100
AcDbSpline
210
0.0
220
0.0
230
1.0
 70
     8
 71
     3
 72
    11
 73
     7
 74
     0
 42
0.00000001
 43
0.00000001
 40
0.0
 40
0.0
 40
0.0
 40
0.0
 40
1.0
 40
1.0
 40
1.0
 40
2.0
 40
2.0
 40
2.0
 40
2.0
 10
167.19702962239583
 20
159.11414659288192
 30
0.0
 10
167.19702962239583
 20
159.61110161675344
 30
0.0
 10
166.79395345052083
 20
160.01417778862844
 30
0.0
 10
166.29682617187498
 20
160.01417778862844
 30
0.0
 10
165.79969889322916
 20
160.01417778862844
 30
0.0
 10
165.39662272135416
 20
159.61110161675344
 30
0.0
 10
165.39662272135416
 20
159.11414659288192
 30
0.0
  0
SPLINE
  5
7F
100
AcDbEntity
  8
AM_0
 62
     7
100
AcDbSpline
210
0.0
220
0.0
230
1.0
 70
     8
 71
     3
 72
    11
 73
     7
 74
     0
 42
0.00000001
 43
0.00000001
 40
0.0
 40
0.0
 40
0.0
 40
0.0
 40
1.0
 40
1.0
 40
1.0
 40
2.0
 40
2.0
 40
2.0
 40
2.0
 10
168.39661187065971
 20
159.15858832465275
 30
0.0
 10
168.37215169270831
 20
160.31803521050347
 30
0.0
 10
167.41200358072916
 20
161.23804796006942
 30
0.0
 10
166.25238444010415
 20
161.21358778211805
 30
0.0
 10
165.10792371961804
 20
161.18947211371525
 30
0.0
 10
164.19359537760414
 20
160.25257839626735
 30
0.0
 10
164.19669596354166
 20
159.10777316623262
 30
0.0
  0
SPLINE
  5
7E
100
AcDbEntity
  8
AM_0
 62
     7
100
AcDbSpline
210
0.0
220
0.0
230
1.0
 70
     8
 71
     3
 72
     8
 73
     4
 74
     0
 42
0.00000001
 43
0.00000001
 40
0.0
 40
0.0
 40
0.0
 40
0.0
 40
1.0
 40
1.0
 40
1.0
 40
1.0
 10
166.37950846354164
 20
145.08433973524305
 30
0.0
 10
166.94140353732638
 20
142.55874023437499
 30
0.0
 10
167.57943522135415
 20
140.05139973958333
 30
0.0
 10
168.29360351562499
 20
137.56541883680555
 30
0.0
  0
LINE
  5
7D
100
AcDbEntity
  8
AM_0
 62
     7
100
AcDbLine
 10
103.819675
 20
172.014134
 30
0.0
 11
103.819675
 21
124.014136
 31
0.0
  0
SPLINE
  5
7C
100
AcDbEntity
  8
AM_0
 62
     7
100
AcDbSpline
210
0.0
220
0.0
230
1.0
 70
     8
 71
     3
 72
     8
 73
     4
 74
     0
 42
0.00000001
 43
0.00000001
 40
0.0
 40
0.0
 40
0.0
 40
0.0
 40
1.0
 40
1.0
 40
1.0
 40
1.0
 10
94.336188422309021
 20
150.94410264756942
 30
0.0
 10
92.755406358506931
 20
146.3855523003472
 30
0.0
 10
92.072588433159709
 20
141.56345214843748
 30
0.0
 10
92.32580295138888
 20
136.74514160156249
 30
0.0
  0
SPLINE
  5
7B
100
AcDbEntity
  8
AM_0
 62
     7
100
AcDbSpline
210
0.0
220
0.0
230
1.0
 70
     8
 71
     3
 72
     8
 73
     4
 74
     0
 42
0.00000001
 43
0.00000001
 40
0.0
 40
0.0
 40
0.0
 40
0.0
 40
1.0
 40
1.0
 40
1.0
 40
1.0
 10
94.336188422309021
 20
150.94410264756942
 30
0.0
 10
93.774982367621519
 20
153.46901312934025
 30
0.0
 10
93.136606174045127
 20
155.97669813368054
 30
0.0
 10
92.422610134548606
 20
158.46285129123262
 30
0.0
  0
SPLINE
  5
7A
100
AcDbEntity
  8
AM_0
 62
     7
100
AcDbSpline
210
0.0
220
0.0
230
1.0
 70
     8
 71
     3
 72
     8
 73
     4
 74
     0
 42
0.00000001
 43
0.00000001
 40
0.0
 40
0.0
 40
0.0
 40
0.0
 40
1.0
 40
1.0
 40
1.0
 40
1.0
 10
167.50502115885416
 20
135.19657118055554
 30
0.0
 10
168.14029676649304
 20
135.85079481336805
 30
0.0
 10
168.42245008680555
 20
136.76960177951386
 30
0.0
 10
168.26432020399304
 20
137.66704915364582
 30
0.0
  0
LINE
  5
79
100
AcDbEntity
  8
AM_0
 62
     7
100
AcDbLine
 10
101.899896
 20
124.494382
 30
0.0
 11
101.899896
 21
171.53406
 31
0.0
  0
SPLINE
  5
78
100
AcDbEntity
  8
AM_0
 62
     7
100
AcDbSpline
210
0.0
220
0.0
230
1.0
 70
     8
 71
     3
 72
     8
 73
     4
 74
     0
 42
0.00000001
 43
0.00000001
 40
0.0
 40
0.0
 40
0.0
 40
0.0
 40
1.0
 40
1.0
 40
1.0
 40
1.0
 10
166.29682617187498
 20
134.81416558159722
 30
0.0
 10
166.72953016493054
 20
134.81416558159722
 30
0.0
 10
167.15155436197915
 20
134.94783528645831
 30
0.0
 10
167.50502115885416
 20
135.19657118055554
 30
0.0
  0
SPLINE
  5
77
100
AcDbEntity
  8
AM_0
 62
     7
100
AcDbSpline
210
0.0
220
0.0
230
1.0
 70
     8
 71
     3
 72
     8
 73
     4
 74
     0
 42
0.00000001
 43
0.00000001
 40
0.0
 40
0.0
 40
0.0
 40
0.0
 40
1.0
 40
1.0
 40
1.0
 40
1.0
 10
94.418870713975693
 20
161.21410454644095
 30
0.0
 10
93.986683485243049
 20
161.21410454644095
 30
0.0
 10
93.564659288194434
 20
161.08077935112846
 30
0.0
 10
93.211020236545124
 20
160.83169894748264
 30
0.0
  0
SPLINE
  5
76
100
AcDbEntity
  8
AM_0
 62
     7
100
AcDbSpline
210
0.0
220
0.0
230
1.0
 70
     8
 71
     3
 72
     8
 73
     4
 74
     0
 42
0.00000001
 43
0.00000001
 40
0.0
 40
0.0
 40
0.0
 40
0.0
 40
1.0
 40
1.0
 40
1.0
 40
1.0
 10
93.211020236545124
 20
160.83169894748264
 30
0.0
 10
92.575916883680549
 20
160.17764756944442
 30
0.0
 10
92.293763563368046
 20
159.25884060329861
 30
0.0
 10
92.451548936631937
 20
158.36122097439235
 30
0.0
  0
SPLINE
  5
75
100
AcDbEntity
  8
AM_0
 62
     7
100
AcDbSpline
210
0.0
220
0.0
230
1.0
 70
     8
 71
     3
 72
     8
 73
     4
 74
     0
 42
0.00000001
 43
0.00000001
 40
0.0
 40
0.0
 40
0.0
 40
0.0
 40
1.0
 40
1.0
 40
1.0
 40
1.0
 10
95.319074164496513
 20
136.91429578993055
 30
0.0
 10
95.646702745225681
 20
141.61375054253472
 30
0.0
 10
95.315973578559024
 20
146.33594292534721
 30
0.0
 10
94.336188422309021
 20
150.94410264756942
 30
0.0
  0
SPLINE
  5
74
100
AcDbEntity
  8
AM_0
 62
     7
100
AcDbSpline
210
0.0
220
0.0
230
1.0
 70
     8
 71
     3
 72
     8
 73
     4
 74
     0
 42
0.00000001
 43
0.00000001
 40
0.0
 40
0.0
 40
0.0
 40
0.0
 40
1.0
 40
1.0
 40
1.0
 40
1.0
 10
96.508493381076377
 20
136.704833984375
 30
0.0
 10
96.643541124131929
 20
139.30484754774304
 30
0.0
 10
96.445103624131931
 20
141.91071777343748
 30
0.0
 10
95.918865288628467
 20
144.46008843315971
 30
0.0
  0
SPLINE
  5
73
100
AcDbEntity
  8
AM_0
 62
     7
100
AcDbSpline
210
0.0
220
0.0
230
1.0
 70
     8
 71
     3
 72
     8
 73
     4
 74
     0
 42
0.00000001
 43
0.00000001
 40
0.0
 40
0.0
 40
0.0
 40
0.0
 40
1.0
 40
1.0
 40
1.0
 40
1.0
 10
94.336188422309021
 20
150.94410264756942
 30
0.0
 10
93.374834526909709
 20
146.33318684895832
 30
0.0
 10
93.099399142795136
 20
141.60548231336804
 30
0.0
 10
93.519184027777769
 20
136.91429578993055
 30
0.0
  0
SPLINE
  5
72
100
AcDbEntity
  8
AM_0
 62
     7
100
AcDbSpline
210
0.0
220
0.0
230
1.0
 70
     8
 71
     3
 72
     8
 73
     4
 74
     0
 42
0.00000001
 43
0.00000001
 40
0.0
 40
0.0
 40
0.0
 40
0.0
 40
1.0
 40
1.0
 40
1.0
 40
1.0
 10
96.008782280815964
 20
144.00740288628472
 30
0.0
 10
95.551445855034714
 20
146.34248860677081
 30
0.0
 10
94.993512641059013
 20
148.65690375434028
 30
0.0
 10
94.336188422309021
 20
150.94410264756942
 30
0.0
  0
POLYLINE
  5
6C
100
AcDbEntity
  8
AM_0
 62
     7
100
AcDb2dPolyline
 66
     1
 10
0.0
 20
0.0
 30
0.0
 70
     1
  0
VERTEX
  5
6D
100
AcDbEntity
  8
AM_0
 62
     7
100
AcDbVertex
100
AcDb2dVertex
 10
110.540023
 20
168.99158
 30
0.0
  0
VERTEX
  5
6E
100
AcDbEntity
  8
AM_0
 62
     7
100
AcDbVertex
100
AcDb2dVertex
 10
110.540023
 20
164.383592
 30
0.0
  0
VERTEX
  5
6F
100
AcDbEntity
  8
AM_0
 62
     7
100
AcDbVertex
100
AcDb2dVertex
 10
111.01958
 20
164.383592
 30
0.0
  0
VERTEX
  5
70
100
AcDbEntity
  8
AM_0
 62
     7
100
AcDbVertex
100
AcDb2dVertex
 10
111.01958
 20
168.99158
 30
0.0
  0
SEQEND
  5
71
100
AcDbEntity
  8
AM_0
 62
     7
  0
SPLINE
  5
6B
100
AcDbEntity
  8
AM_0
 62
     7
100
AcDbSpline
210
0.0
220
0.0
230
1.0
 70
     8
 71
     3
 72
    11
 73
     7
 74
     0
 42
0.00000001
 43
0.00000001
 40
0.0
 40
0.0
 40
0.0
 40
0.0
 40
1.0
 40
1.0
 40
1.0
 40
2.0
 40
2.0
 40
2.0
 40
2.0
 10
93.519184027777769
 20
136.91429578993055
 30
0.0
 10
93.519184027777769
 20
136.4171685112847
 30
0.0
 10
93.92208794487847
 20
136.0140923394097
 30
0.0
 10
94.418870713975693
 20
136.0140923394097
 30
0.0
 10
94.915997992621513
 20
136.0140923394097
 30
0.0
 10
95.319074164496513
 20
136.4171685112847
 30
0.0
 10
95.319074164496513
 20
136.91429578993055
 30
0.0
  0
SPLINE
  5
6A
100
AcDbEntity
  8
AM_0
 62
     7
100
AcDbSpline
210
0.0
220
0.0
230
1.0
 70
     8
 71
     3
 72
    11
 73
     7
 74
     0
 42
0.00000001
 43
0.00000001
 40
0.0
 40
0.0
 40
0.0
 40
0.0
 40
1.0
 40
1.0
 40
1.0
 40
2.0
 40
2.0
 40
2.0
 40
2.0
 10
92.319601779513874
 20
136.86985405815972
 30
0.0
 10
92.344061957465271
 20
135.71023491753471
 30
0.0
 10
93.304037814670124
 20
134.79039442274305
 30
0.0
 10
94.463656955295136
 20
134.81451009114582
 30
0.0
 10
95.608289930555543
 20
134.83897026909722
 30
0.0
 10
96.522618272569431
 20
135.77569173177082
 30
0.0
 10
96.519000922309019
 20
136.92049696180555
 30
0.0
  0
LINE
  5
69
100
AcDbEntity
  8
AM_0
 62
     7
100
AcDbLine
 10
108.619727
 20
124.494382
 30
0.0
 11
108.619727
 21
171.53406
 31
0.0
  0
LINE
  5
68
100
AcDbEntity
  8
AM_0
 62
     7
100
AcDbLine
 10
110.540023
 20
171.53406
 30
0.0
 11
110.540023
 21
124.494382
 31
0.0
  0
LINE
  5
67
100
AcDbEntity
  8
AM_0
 62
     7
100
AcDbLine
 10
108.619727
 20
124.014136
 30
0.0
 11
108.619727
 21
172.014134
 31
0.0
  0
LINE
  5
66
100
AcDbEntity
  8
AM_0
 62
     7
100
AcDbLine
 10
110.540023
 20
124.494382
 30
0.0
 11
108.619727
 21
124.494382
 31
0.0
  0
LINE
  5
65
100
AcDbEntity
  8
AM_0
 62
     7
100
AcDbLine
 10
108.619727
 20
171.53406
 30
0.0
 11
110.540023
 21
171.53406
 31
0.0
  0
LINE
  5
64
100
AcDbEntity
  8
AM_0
 62
     7
100
AcDbLine
 10
108.619727
 20
172.014134
 30
0.0
 11
103.819675
 21
172.014134
 31
0.0
  0
LINE
  5
63
100
AcDbEntity
  8
AM_0
 62
     7
100
AcDbLine
 10
103.819675
 20
124.014136
 30
0.0
 11
108.619727
 21
124.014136
 31
0.0
  0
LINE
  5
62
100
AcDbEntity
  8
AM_0
 62
     7
100
AcDbLine
 10
103.819675
 20
171.53406
 30
0.0
 11
103.819675
 21
124.494382
 31
0.0
  0
LINE
  5
61
100
AcDbEntity
  8
AM_0
 62
     7
100
AcDbLine
 10
101.899896
 20
171.53406
 30
0.0
 11
103.819675
 21
171.53406
 31
0.0
  0
LINE
  5
60
100
AcDbEntity
  8
AM_0
 62
     7
100
AcDbLine
 10
103.819675
 20
124.494382
 30
0.0
 11
101.899896
 21
124.494382
 31
0.0
  0
POLYLINE
  5
5A
100
AcDbEntity
  8
AM_0
 62
     7
100
AcDb2dPolyline
 66
     1
 10
0.0
 20
0.0
 30
0.0
 70
     1
  0
VERTEX
  5
5B
100
AcDbEntity
  8
AM_0
 62
     7
100
AcDbVertex
100
AcDb2dVertex
 10
110.540023
 20
127.036863
 30
0.0
  0
VERTEX
  5
5C
100
AcDbEntity
  8
AM_0
 62
     7
100
AcDbVertex
100
AcDb2dVertex
 10
110.540023
 20
131.644678
 30
0.0
  0
VERTEX
  5
5D
100
AcDbEntity
  8
AM_0
 62
     7
100
AcDbVertex
100
AcDb2dVertex
 10
111.01958
 20
131.644678
 30
0.0
  0
VERTEX
  5
5E
100
AcDbEntity
  8
AM_0
 62
     7
100
AcDbVertex
100
AcDb2dVertex
 10
111.01958
 20
127.036863
 30
0.0
  0
SEQEND
  5
5F
100
AcDbEntity
  8
AM_0
 62
     7
  0
LINE
  5
59
100
AcDbEntity
  8
AM_0
 62
     7
100
AcDbLine
 10
110.283708
 20
166.687672
 30
0.0
 11
113.034961
 21
166.687672
 31
0.0
  0
LINE
  5
58
100
AcDbEntity
  8
AM_0
 62
     7
100
AcDbLine
 10
111.01958
 20
165.688767
 30
0.0
 11
111.01958
 21
167.686578
 31
0.0
  0
LINE
  5
57
100
AcDbEntity
  8
AM_0
 62
     7
100
AcDbLine
 10
112.219507
 20
165.688767
 30
0.0
 11
112.219507
 21
167.686578
 31
0.0
  0
SPLINE
  5
56
100
AcDbEntity
  8
AM_0
 62
     7
100
AcDbSpline
210
0.0
220
0.0
230
1.0
 70
     8
 71
     3
 72
     8
 73
     4
 74
     0
 42
0.00000001
 43
0.00000001
 40
0.0
 40
0.0
 40
0.0
 40
0.0
 40
1.0
 40
1.0
 40
1.0
 40
1.0
 10
112.10547417534721
 20
167.35378146701387
 30
0.0
 10
112.25774739583332
 20
166.92280002170136
 30
0.0
 10
112.25774739583332
 20
166.45254448784721
 30
0.0
 10
112.10547417534721
 20
166.02156304253469
 30
0.0
  0
SPLINE
  5
55
100
AcDbEntity
  8
AM_0
 62
     7
100
AcDbSpline
210
0.0
220
0.0
230
1.0
 70
     8
 71
     3
 72
     8
 73
     4
 74
     0
 42
0.00000001
 43
0.00000001
 40
0.0
 40
0.0
 40
0.0
 40
0.0
 40
1.0
 40
1.0
 40
1.0
 40
1.0
 10
111.13395724826388
 20
166.02156304253469
 30
0.0
 10
110.98202853732639
 20
166.45254448784721
 30
0.0
 10
110.98202853732639
 20
166.92280002170136
 30
0.0
 10
111.13395724826388
 20
167.35378146701387
 30
0.0
  0
LINE
  5
54
100
AcDbEntity
  8
AM_0
 62
     7
100
AcDbLine
 10
112.105474
 20
165.355626
 30
0.0
 11
111.133957
 21
165.355626
 31
0.0
  0
SPLINE
  5
53
100
AcDbEntity
  8
AM_0
 62
     7
100
AcDbSpline
210
0.0
220
0.0
230
1.0
 70
     8
 71
     3
 72
     8
 73
     4
 74
     0
 42
0.00000001
 43
0.00000001
 40
0.0
 40
0.0
 40
0.0
 40
0.0
 40
1.0
 40
1.0
 40
1.0
 40
1.0
 10
112.10547417534721
 20
166.02156304253469
 30
0.0
 10
112.25774739583332
 20
165.8258816189236
 30
0.0
 10
112.25774739583332
 20
165.55147976345484
 30
0.0
 10
112.10547417534721
 20
165.35562608506942
 30
0.0
  0
LINE
  5
52
100
AcDbEntity
  8
AM_0
 62
     7
100
AcDbLine
 10
112.105474
 20
166.021563
 30
0.0
 11
111.133957
 21
166.021563
 31
0.0
  0
SPLINE
  5
51
100
AcDbEntity
  8
AM_0
 62
     7
100
AcDbSpline
210
0.0
220
0.0
230
1.0
 70
     8
 71
     3
 72
     8
 73
     4
 74
     0
 42
0.00000001
 43
0.00000001
 40
0.0
 40
0.0
 40
0.0
 40
0.0
 40
1.0
 40
1.0
 40
1.0
 40
1.0
 10
111.13395724826388
 20
165.35562608506942
 30
0.0
 10
110.98202853732639
 20
165.55147976345484
 30
0.0
 10
110.98202853732639
 20
165.8258816189236
 30
0.0
 10
111.13395724826388
 20
166.02156304253469
 30
0.0
  0
LINE
  5
50
100
AcDbEntity
  8
AM_0
 62
     7
100
AcDbLine
 10
112.105474
 20
167.353781
 30
0.0
 11
111.133957
 21
167.353781
 31
0.0
  0
SPLINE
  5
4F
100
AcDbEntity
  8
AM_0
 62
     7
100
AcDbSpline
210
0.0
220
0.0
230
1.0
 70
     8
 71
     3
 72
     8
 73
     4
 74
     0
 42
0.00000001
 43
0.00000001
 40
0.0
 40
0.0
 40
0.0
 40
0.0
 40
1.0
 40
1.0
 40
1.0
 40
1.0
 10
112.10547417534721
 20
168.01954616970485
 30
0.0
 10
112.25774739583332
 20
167.82369249131943
 30
0.0
 10
112.25774739583332
 20
167.54963514539929
 30
0.0
 10
112.10547417534721
 20
167.35378146701387
 30
0.0
  0
SPLINE
  5
4E
100
AcDbEntity
  8
AM_0
 62
     7
100
AcDbSpline
210
0.0
220
0.0
230
1.0
 70
     8
 71
     3
 72
     8
 73
     4
 74
     0
 42
0.00000001
 43
0.00000001
 40
0.0
 40
0.0
 40
0.0
 40
0.0
 40
1.0
 40
1.0
 40
1.0
 40
1.0
 10
111.13395724826388
 20
167.35378146701387
 30
0.0
 10
110.98202853732639
 20
167.54963514539929
 30
0.0
 10
110.98202853732639
 20
167.82369249131943
 30
0.0
 10
111.13395724826388
 20
168.01954616970485
 30
0.0
  0
LINE
  5
4D
100
AcDbEntity
  8
AM_0
 62
     7
100
AcDbLine
 10
112.105474
 20
168.019546
 30
0.0
 11
111.133957
 21
168.019546
 31
0.0
  0
LINE
  5
4C
100
AcDbEntity
  8
AM_0
 62
     7
100
AcDbLine
 10
110.283708
 20
129.340598
 30
0.0
 11
113.034961
 21
129.340598
 31
0.0
  0
LINE
  5
4B
100
AcDbEntity
  8
AM_0
 62
     7
100
AcDbLine
 10
111.01958
 20
128.34152
 30
0.0
 11
111.01958
 21
130.339331
 31
0.0
  0
LINE
  5
4A
100
AcDbEntity
  8
AM_0
 62
     7
100
AcDbLine
 10
112.219507
 20
128.34152
 30
0.0
 11
112.219507
 21
130.339331
 31
0.0
  0
SPLINE
  5
49
100
AcDbEntity
  8
AM_0
 62
     7
100
AcDbSpline
210
0.0
220
0.0
230
1.0
 70
     8
 71
     3
 72
     8
 73
     4
 74
     0
 42
0.00000001
 43
0.00000001
 40
0.0
 40
0.0
 40
0.0
 40
0.0
 40
1.0
 40
1.0
 40
1.0
 40
1.0
 10
112.10547417534721
 20
130.00653483072915
 30
0.0
 10
112.25774739583332
 20
129.57555338541667
 30
0.0
 10
112.25774739583332
 20
129.10529785156248
 30
0.0
 10
112.10547417534721
 20
128.67431640625
 30
0.0
  0
SPLINE
  5
48
100
AcDbEntity
  8
AM_0
 62
     7
100
AcDbSpline
210
0.0
220
0.0
230
1.0
 70
     8
 71
     3
 72
     8
 73
     4
 74
     0
 42
0.00000001
 43
0.00000001
 40
0.0
 40
0.0
 40
0.0
 40
0.0
 40
1.0
 40
1.0
 40
1.0
 40
1.0
 10
111.13395724826388
 20
128.67431640625
 30
0.0
 10
110.98202853732639
 20
129.10529785156248
 30
0.0
 10
110.98202853732639
 20
129.57555338541667
 30
0.0
 10
111.13395724826388
 20
130.00653483072915
 30
0.0
  0
LINE
  5
47
100
AcDbEntity
  8
AM_0
 62
     7
100
AcDbLine
 10
112.105474
 20
128.008724
 30
0.0
 11
111.133957
 21
128.008724
 31
0.0
  0
SPLINE
  5
46
100
AcDbEntity
  8
AM_0
 62
     7
100
AcDbSpline
210
0.0
220
0.0
230
1.0
 70
     8
 71
     3
 72
     8
 73
     4
 74
     0
 42
0.00000001
 43
0.00000001
 40
0.0
 40
0.0
 40
0.0
 40
0.0
 40
1.0
 40
1.0
 40
1.0
 40
1.0
 10
112.10547417534721
 20
128.67431640625
 30
0.0
 10
112.25774739583332
 20
128.47863498263888
 30
0.0
 10
112.25774739583332
 20
128.20474989149304
 30
0.0
 10
112.10547417534721
 20
128.00872395833332
 30
0.0
  0
LINE
  5
45
100
AcDbEntity
  8
AM_0
 62
     7
100
AcDbLine
 10
112.105474
 20
128.674316
 30
0.0
 11
111.133957
 21
128.674316
 31
0.0
  0
SPLINE
  5
44
100
AcDbEntity
  8
AM_0
 62
     7
100
AcDbSpline
210
0.0
220
0.0
230
1.0
 70
     8
 71
     3
 72
     8
 73
     4
 74
     0
 42
0.00000001
 43
0.00000001
 40
0.0
 40
0.0
 40
0.0
 40
0.0
 40
1.0
 40
1.0
 40
1.0
 40
1.0
 10
111.13395724826388
 20
128.00872395833332
 30
0.0
 10
110.98202853732639
 20
128.20474989149304
 30
0.0
 10
110.98202853732639
 20
128.47863498263888
 30
0.0
 10
111.13395724826388
 20
128.67431640625
 30
0.0
  0
LINE
  5
43
100
AcDbEntity
  8
AM_0
 62
     7
100
AcDbLine
 10
112.105474
 20
130.006535
 30
0.0
 11
111.133957
 21
130.006535
 31
0.0
  0
SPLINE
  5
42
100
AcDbEntity
  8
AM_0
 62
     7
100
AcDbSpline
210
0.0
220
0.0
230
1.0
 70
     8
 71
     3
 72
     8
 73
     4
 74
     0
 42
0.00000001
 43
0.00000001
 40
0.0
 40
0.0
 40
0.0
 40
0.0
 40
1.0
 40
1.0
 40
1.0
 40
1.0
 10
112.10547417534721
 20
130.67281629774305
 30
0.0
 10
112.25774739583332
 20
130.47679036458331
 30
0.0
 10
112.25774739583332
 20
130.20256076388887
 30
0.0
 10
112.10547417534721
 20
130.00653483072915
 30
0.0
  0
SPLINE
  5
41
100
AcDbEntity
  8
AM_0
 62
     7
100
AcDbSpline
210
0.0
220
0.0
230
1.0
 70
     8
 71
     3
 72
     8
 73
     4
 74
     0
 42
0.00000001
 43
0.00000001
 40
0.0
 40
0.0
 40
0.0
 40
0.0
 40
1.0
 40
1.0
 40
1.0
 40
1.0
 10
111.13395724826388
 20
130.00653483072915
 30
0.0
 10
110.98202853732639
 20
130.20256076388887
 30
0.0
 10
110.98202853732639
 20
130.47679036458331
 30
0.0
 10
111.13395724826388
 20
130.67281629774305
 30
0.0
  0
LINE
  5
40
100
AcDbEntity
  8
AM_0
 62
     7
100
AcDbLine
 10
112.105474
 20
130.672816
 30
0.0
 11
111.133957
 21
130.672816
 31
0.0
  0
MTEXT
  5
3E
100
AcDbEntity
  8
TEXT
 62
     7
100
AcDbMText
 10
33.849441
 20
194.746424
 30
0.0
 40
5.512152
 41
0.0
 71
     1
 72
     2
  1
\fArial|b0|i0;\H5.5122;\C7;\U+004B\U+0065\U+0072\U+006E\U+0062\U+006F\U+0068\U+0072\U+0075\U+006E\U+0067
  7
STD
210
0.0
220
0.0
230
1.0
 73
     1
 44
1.0
  0
INSERT
  5
38
100
AcDbEntity
  8
TEXT
 62
     7
100
AcDbBlockReference
  2
AI9-BLK1
 10
54.218396
 20
149.912469
 30
0.0
  0
POLYLINE
  5
30
100
AcDbEntity
  8
RAHMEN
 62
     7
100
AcDb2dPolyline
 66
     1
 10
0.0
 20
0.0
 30
0.0
 70
     1
  0
VERTEX
  5
31
100
AcDbEntity
  8
RAHMEN
 62
     7
100
AcDbVertex
100
AcDb2dVertex
 10
24.520639
 20
221.677253
 30
0.0
  0
VERTEX
  5
32
100
AcDbEntity
  8
RAHMEN
 62
     7
100
AcDbVertex
100
AcDb2dVertex
 10
24.520639
 20
77.417497
 30
0.0
  0
VERTEX
  5
33
100
AcDbEntity
  8
RAHMEN
 62
     7
100
AcDbVertex
100
AcDb2dVertex
 10
186.188463
 20
77.417497
 30
0.0
  0
VERTEX
  5
34
100
AcDbEntity
  8
RAHMEN
 62
     7
100
AcDbVertex
100
AcDb2dVertex
 10
186.188463
 20
221.677253
 30
0.0
  0
SEQEND
  5
35
100
AcDbEntity
  8
RAHMEN
 62
     7
  0
POLYLINE
  5
2A
100
AcDbEntity
  8
RAHMEN
 62
     7
100
AcDb2dPolyline
 66
     1
 10
0.0
 20
0.0
 30
0.0
 70
     1
  0
VERTEX
  5
2B
100
AcDbEntity
  8
RAHMEN
 62
     7
100
AcDbVertex
100
AcDb2dVertex
 10
167.027875
 20
94.023201
 30
0.0
  0
VERTEX
  5
2C
100
AcDbEntity
  8
RAHMEN
 62
     7
100
AcDbVertex
100
AcDb2dVertex
 10
186.077875
 20
94.023201
 30
0.0
  0
VERTEX
  5
2D
100
AcDbEntity
  8
RAHMEN
 62
     7
100
AcDbVertex
100
AcDb2dVertex
 10
186.077875
 20
77.265568
 30
0.0
  0
VERTEX
  5
2E
100
AcDbEntity
  8
RAHMEN
 62
     7
100
AcDbVertex
100
AcDb2dVertex
 10
167.027875
 20
77.265568
 30
0.0
  0
SEQEND
  5
2F
100
AcDbEntity
  8
RAHMEN
 62
     7
  0
MTEXT
  5
29
100
AcDbEntity
  8
RAHMEN
 62
     7
100
AcDbMText
 10
168.174059
 20
91.5667
 30
0.0
 40
9.449404
 41
0.0
 71
     1
 72
     2
  1
\fMyriad Roman|b0|i0;\H9.4494;\C7;\U+0034\U+002E\U+0031
  7
STD
210
0.0
220
0.0
230
1.0
 73
     1
 44
1.0
  0
ENDSEC
  0
SECTION
  2
OBJECTS
  0
DICTIONARY
  5
19
100
AcDbDictionary
280
     0
281
     1
  3
ACAD_GROUP
350
1A
  3
ACAD_MLINESTYLE
350
1B
  3
ACAD_LAYOUT
350
1E
  3
ACAD_PLOTSETTINGS
350
22
  3
ACAD_PLOTSTYLENAME
350
1F
  3
ACAD_WIPEOUT_VARS
350
23
  0
DICTIONARY
  5
1A
102
{ACAD_REACTORS
330
19
102
}
100
AcDbDictionary
280
     0
281
     1
  0
DICTIONARY
  5
1B
102
{ACAD_REACTORS
330
19
102
}
100
AcDbDictionary
280
     0
281
     1
  3
Standard
350
1C
  0
MLINESTYLE
  5
1C
102
{ACAD_REACTORS
330
1B
102
}
100
AcDbMlineStyle
  2
Standard
 70
     0
  3

 62
     0
 51
90.0
 52
90.0
 71
     2
 49
0.5
 62
   256
  6
ByLayer
 49
-0.5
 62
   256
  6
ByLayer
  0
ACDBDICTIONARYWDFLT
  5
1F
102
{ACAD_REACTORS
330
19
102
}
100
AcDbDictionary
281
     1
  3
Normal
350
1D
100
AcDbDictionaryWithDefault
340
1D
  0
ACDBPLACEHOLDER
  5
1D
102
{ACAD_REACTORS
330
1F
102
}
  0
LAYOUT
  5
20
102
{ACAD_REACTORS
330
1E
102
}
100
AcDbPlotSettings
  1

  2

  4

  6

 40
0.0
 41
0.0
 42
0.0
 43
0.0
 44
0.0
 45
0.0
 46
0.0
 47
0.0
 48
0.0
 49
0.0
140
0.0
141
0.0
142
1.0
143
1.0
 70
  1024
 72
     0
 73
     0
 74
     0
  7

 75
     0
147
1.0
148
0.0
149
0.0
100
AcDbLayout
  1
Model
 70
     0
 71
     0
 10
0.0
 20
0.0
 11
0.0
 21
0.0
 12
0.0
 22
0.0
 32
0.0
 14
0.0
 24
0.0
 34
0.0
 15
0.0
 25
0.0
 35
0.0
146
0.0
 13
0.0
 23
0.0
 33
0.0
 16
0.0
 26
0.0
 36
0.0
 17
0.0
 27
0.0
 37
0.0
 76
     0
330
A
331
0
345
0
346
0
  0
LAYOUT
  5
21
102
{ACAD_REACTORS
330
1E
102
}
100
AcDbPlotSettings
  1

  2

  4

  6

 40
0.0
 41
0.0
 42
0.0
 43
0.0
 44
0.0
 45
0.0
 46
0.0
 47
0.0
 48
0.0
 49
0.0
140
0.0
141
0.0
142
1.0
143
1.0
 70
     0
 72
     0
 73
     0
 74
     0
  7

 75
     0
147
1.0
148
0.0
149
0.0
100
AcDbLayout
  1
Layout1
 70
     0
 71
     0
 10
0.0
 20
0.0
 11
0.0
 21
0.0
 12
0.0
 22
0.0
 32
0.0
 14
0.0
 24
0.0
 34
0.0
 15
0.0
 25
0.0
 35
0.0
146
0.0
 13
0.0
 23
0.0
 33
0.0
 16
0.0
 26
0.0
 36
0.0
 17
0.0
 27
0.0
 37
0.0
 76
     0
330
B
331
0
345
0
346
0
  0
DICTIONARY
  5
1E
102
{ACAD_REACTORS
330
19
102
}
100
AcDbDictionary
280
     0
281
     1
  3
Layout1
350
21
  3
Model
350
20
  0
DICTIONARY
  5
22
102
{ACAD_REACTORS
330
19
102
}
100
AcDbDictionary
280
     0
281
     1
  0
WIPEOUTVARIABLES
  5
23
100
AcDbWipeoutVariables
 70
     1
  0
ENDSEC
  0
EOF
