  0
SECTION
  2
HEADER
  9
$ACADVER
  1
AC1015
  9
$ACADMAINTVER
 70
     6
  9
$DWGCODEPAGE
  3
ANSI_932
  9
$INSBASE
 10
0.0
 20
0.0
 30
0.0
  9
$EXTMIN
 10
24.167862
 20
89.115318
 30
1.000000E+20
  9
$EXTMAX
 10
186.541241
 20
234.232387
 30
-1.000000E+20
  9
$LIMMIN
 10
24.167862
 20
89.115318
  9
$LIMMAX
 10
186.541241
 20
234.232387
  9
$ORTHOMODE
 70
     0
  9
$REGENMODE
 70
     1
  9
$FILLMODE
 70
     1
  9
$QTEXTMODE
 70
     0
  9
$MIRRTEXT
 70
     1
  9
$LTSCALE
 40
1.0
  9
$ATTMODE
 70
     1
  9
$TEXTSIZE
 40
0.2
  9
$TRACEWID
 40
0.05
  9
$TEXTSTYLE
  7
Standard
  9
$CLAYER
  8
0
  9
$CELTYPE
  6
Continuous
  9
$CECOLOR
 62
   256
  9
$CELTSCALE
 40
1.0
  9
$DISPSILH
 70
     0
  9
$DIMSCALE
 40
1.0
  9
$DIMASZ
 40
0.18
  9
$DIMEXO
 40
0.0625
  9
$DIMDLI
 40
0.38
  9
$DIMRND
 40
0.0
  9
$DIMDLE
 40
0.0
  9
$DIMEXE
 40
0.18
  9
$DIMTP
 40
0.0
  9
$DIMTM
 40
0.0
  9
$DIMTXT
 40
0.18
  9
$DIMCEN
 40
0.09
  9
$DIMTSZ
 40
0.0
  9
$DIMTOL
 70
     0
  9
$DIMLIM
 70
     0
  9
$DIMTIH
 70
     1
  9
$DIMTOH
 70
     1
  9
$DIMSE1
 70
     0
  9
$DIMSE2
 70
     0
  9
$DIMTAD
 70
     0
  9
$DIMZIN
 70
     0
  9
$DIMBLK
  1

  9
$DIMASO
 70
     1
  9
$DIMSHO
 70
     1
  9
$DIMPOST
  1

  9
$DIMAPOST
  1

  9
$DIMALT
 70
     0
  9
$DIMALTD
 70
     2
  9
$DIMALTF
 40
25.4
  9
$DIMLFAC
 40
1.0
  9
$DIMTOFL
 70
     0
  9
$DIMTVP
 40
0.0
  9
$DIMTIX
 70
     0
  9
$DIMSOXD
 70
     0
  9
$DIMSAH
 70
     0
  9
$DIMBLK1
  1

  9
$DIMBLK2
  1

  9
$DIMSTYLE
  2
Standard
  9
$DIMCLRD
 70
     0
  9
$DIMCLRE
 70
     0
  9
$DIMCLRT
 70
     0
  9
$DIMTFAC
 40
1.0
  9
$DIMGAP
 40
0.09
  9
$DIMJUST
 70
     0
  9
$DIMSD1
 70
     0
  9
$DIMSD2
 70
     0
  9
$DIMTOLJ
 70
     1
  9
$DIMTZIN
 70
     0
  9
$DIMALTZ
 70
     0
  9
$DIMALTTZ
 70
     0
  9
$DIMUPT
 70
     0
  9
$DIMDEC
 70
     4
  9
$DIMTDEC
 70
     4
  9
$DIMALTU
 70
     2
  9
$DIMALTTD
 70
     2
  9
$DIMTXSTY
  7
Standard
  9
$DIMAUNIT
 70
     0
  9
$DIMADEC
 70
     0
  9
$DIMALTRND
 40
0.0
  9
$DIMAZIN
 70
     0
  9
$DIMDSEP
 70
     0
  9
$DIMATFIT
 70
     3
  9
$DIMFRAC
 70
     0
  9
$DIMLDRBLK
  1

  9
$DIMLUNIT
 70
     2
  9
$DIMLWD
 70
     0
  9
$DIMLWE
 70
     0
  9
$DIMTMOVE
 70
     0
  9
$LUNITS
 70
     2
  9
$LUPREC
 70
     4
  9
$SKETCHINC
 40
0.1
  9
$FILLETRAD
 40
0.0
  9
$AUNITS
 70
     0
  9
$AUPREC
 70
     0
  9
$MENU
  1
acad
  9
$ELEVATION
 40
0.0
  9
$PELEVATION
 40
0.0
  9
$THICKNESS
 40
0.0
  9
$LIMCHECK
 70
     0
  9
$CHAMFERA
 40
0.0
  9
$CHAMFERB
 40
0.0
  9
$CHAMFERC
 40
0.0
  9
$CHAMFERD
 40
0.0
  9
$SKPOLY
 70
     0
  9
$TDCREATE
 40
0.000000000
  9
$TDUCREATE
 40
0.000000000
  9
$TDUPDATE
 40
0.000000000
  9
$TDUUPDATE
 40
0.000000000
  9
$TDINDWG
 40
0.0000000000
  9
$TDUSRTIMER
 40
0.0000000000
  9
$USRTIMER
 70
     1
  9
$ANGBASE
 50
0.0
  9
$ANGDIR
 70
     0
  9
$PDMODE
 70
     0
  9
$PDSIZE
 40
0.0
  9
$PLINEWID
 40
0.0
  9
$SPLFRAME
 70
     0
  9
$SPLINETYPE
 70
     6
  9
$SPLINESEGS
 70
     8
  9
$HANDSEED
  5
194
  9
$SURFTAB1
 70
     6
  9
$SURFTAB2
 70
     6
  9
$SURFTYPE
 70
     6
  9
$SURFU
 70
     6
  9
$SURFV
 70
     6
  9
$UCSBASE
  2

  9
$UCSNAME
  2

  9
$UCSORG
 10
0.0
 20
0.0
 30
0.0
  9
$UCSXDIR
 10
1.0
 20
0.0
 30
0.0
  9
$UCSYDIR
 10
0.0
 20
1.0
 30
0.0
  9
$UCSORTHOREF
  2

  9
$UCSORTHOVIEW
 70
     0
  9
$UCSORGTOP
 10
0.0
 20
0.0
 30
0.0
  9
$UCSORGBOTTOM
 10
0.0
 20
0.0
 30
0.0
  9
$UCSORGLEFT
 10
0.0
 20
0.0
 30
0.0
  9
$UCSORGRIGHT
 10
0.0
 20
0.0
 30
0.0
  9
$UCSORGFRONT
 10
0.0
 20
0.0
 30
0.0
  9
$UCSORGBACK
 10
0.0
 20
0.0
 30
0.0
  9
$PUCSBASE
  2

  9
$PUCSNAME
  2

  9
$PUCSORG
 10
0.0
 20
0.0
 30
0.0
  9
$PUCSXDIR
 10
1.0
 20
0.0
 30
0.0
  9
$PUCSYDIR
 10
0.0
 20
1.0
 30
0.0
  9
$PUCSORTHOREF
  2

  9
$PUCSORTHOVIEW
 70
     0
  9
$PUCSORGTOP
 10
0.0
 20
0.0
 30
0.0
  9
$PUCSORGBOTTOM
 10
0.0
 20
0.0
 30
0.0
  9
$PUCSORGLEFT
 10
0.0
 20
0.0
 30
0.0
  9
$PUCSORGRIGHT
 10
0.0
 20
0.0
 30
0.0
  9
$PUCSORGFRONT
 10
0.0
 20
0.0
 30
0.0
  9
$PUCSORGBACK
 10
0.0
 20
0.0
 30
0.0
  9
$USERI1
 70
     0
  9
$USERI2
 70
     0
  9
$USERI3
 70
     0
  9
$USERI4
 70
     0
  9
$USERI5
 70
     0
  9
$USERR1
 40
0.0
  9
$USERR2
 40
0.0
  9
$USERR3
 40
0.0
  9
$USERR4
 40
0.0
  9
$USERR5
 40
0.0
  9
$WORLDVIEW
 70
     1
  9
$SHADEDGE
 70
     3
  9
$SHADEDIF
 70
    70
  9
$TILEMODE
 70
     1
  9
$MAXACTVP
 70
    16
  9
$PINSBASE
 10
0.0
 20
0.0
 30
0.0
  9
$PLIMCHECK
 70
     0
  9
$PEXTMIN
 10
1.000000E+20
 20
1.000000E+20
 30
1.000000E+20
  9
$PEXTMAX
 10
-1.000000E+20
 20
-1.000000E+20
 30
-1.000000E+20
  9
$PLIMMIN
 10
0.0
 20
0.0
  9
$PLIMMAX
 10
12.0
 20
9.0
  9
$UNITMODE
 70
     0
  9
$VISRETAIN
 70
     0
  9
$PLINEGEN
 70
     1
  9
$PSLTSCALE
 70
     0
  9
$TREEDEPTH
 70
  3020
  9
$CMLSTYLE
  2
Standard
  9
$CMLJUST
 70
     0
  9
$CMLSCALE
 40
1.0
  9
$PROXYGRAPHICS
 70
     0
  9
$MEASUREMENT
 70
     1
  9
$CELWEIGHT
370
     0
  9
$ENDCAPS
280
     0
  9
$JOINSTYLE
280
     0
  9
$LWDISPLAY
290
     0
  9
$INSUNITS
 70
     0
  9
$HYPERLINKBASE
  1

  9
$STYLESHEET
  1

  9
$XEDIT
290
     1
  9
$CEPSNTYPE
380
     0
  9
$PSTYLEMODE
290
     1
  9
$FINGERPRINTGUID
  2

  9
$VERSIONGUID
  2

  9
$EXTNAMES
290
     1
  9
$PSVPSCALE
 40
0.0
  0
ENDSEC
  0
SECTION
  2
CLASSES
  0
CLASS
  1
LWPOLYLINE
  2
AcDbPolyline
  3
AutoCAD 2000
 90
    32768
280
     0
281
     1
  0
CLASS
  1
IMAGE
  2
AcDbRasterImage
  3
ISM
 90
    32895
280
     0
281
     1
  0
CLASS
  1
OLE2FRAME
  2
AcDbOle2Frame
  3
AutoCAD 2000
 90
    32768
280
     0
281
     1
  0
CLASS
  1
HATCH
  2
AcDbHatch
  3
AutoCAD 2000
 90
        0
280
     0
281
     1
  0
CLASS
  1
DICTIONARYVAR
  2
AcDbDictionaryVar
  3
AutoCAD 2000
 90
    32768
280
     0
281
     0
  0
CLASS
  1
RASTERVARIABLES
  2
AcDbRasterVariables
  3
ISM
 90
    32768
280
     0
281
     0
  0
CLASS
  1
IMAGEDEF
  2
AcDbRasterImageDef
  3
ISM
 90
    32768
280
     0
281
     0
  0
CLASS
  1
IMAGEDEF_REACTOR
  2
AcDbRasterImageDefReactor
  3
ISM
 90
    32769
280
     0
281
     0
  0
CLASS
  1
IDBUFFER
  2
AcDbIdBuffer
  3
AutoCAD 2000
 90
    32768
280
     0
281
     0
  0
CLASS
  1
SPATIAL_FILTER
  2
AcDbSpatialFilter
  3
AutoCAD 2000
 90
    32768
280
     0
281
     0
  0
CLASS
  1
XRECORD
  2
AcDbXrecord
  3
AutoCAD 2000
 90
    32768
280
     0
281
     0
  0
CLASS
  1
SORTENTSTABLE
  2
AcDbSortentsTable
  3
AutoCAD 2000
 90
    32768
280
     0
281
     0
  0
CLASS
  1
LAYER_INDEX
  2
AcDbLayerIndex
  3
AutoCAD 2000
 90
    32768
280
     0
281
     0
  0
CLASS
  1
SPATIAL_INDEX
  2
AcDbSpatialIndex
  3
AutoCAD 2000
 90
    32768
280
     0
281
     0
  0
CLASS
  1
OBJECT_PTR
  2
CAseDLPNTableRecord
  3
"ASE-LPNTableRecord"
 90
    32769
280
     0
281
     0
  0
CLASS
  1
LAYOUT
  2
AcDbLayout
  3
AutoCAD 2000
 90
        0
280
     0
281
     0
  0
CLASS
  1
PLOTSETTINGS
  2
AcDbPlotSettings
  3
AutoCAD 2000
 90
    32768
280
     0
281
     0
  0
CLASS
  1
ACDBDICTIONARYWDFLT
  2
AcDbDictionaryWithDefault
  3
AutoCAD 2000
 90
        0
280
     0
281
     0
  0
CLASS
  1
ACDBPLACEHOLDER
  2
AcDbPlaceHolder
  3
AutoCAD 2000
 90
        0
280
     0
281
     0
  0
CLASS
  1
VBA_PROJECT
  2
AcDbVbaProject
  3
acadvba
 90
    32768
280
     0
281
     0
  0
CLASS
  1
WIPEOUT
  2
AcDbWipeout
  3
WipeOut|AutoCAD Express Tool|expresstools@autodesk.com
 90
    32895
280
     0
281
     1
  0
CLASS
  1
WIPEOUTVARIABLES
  2
AcDbWipeoutVariables
  3
WipeOut|AutoCAD Express Tool|expresstools@autodesk.com
 90
        0
280
     0
281
     0
  0
CLASS
  1
RTEXT
  2
RText
  3
RText|AutoCAD Express Tool|expresstools@autodesk.com
 90
    32768
280
     0
281
     1
  0
CLASS
  1
ARCALIGNEDTEXT
  2
AcDbArcAlignedText
  3
ATEXT|AutoCAD Express Tool|expresstools@autodesk.com
 90
    32768
280
     0
281
     1
  0
ENDSEC
  0
SECTION
  2
TABLES
  0
TABLE
  2
VPORT
  5
7
100
AcDbSymbolTable
 70
     1
  0
VPORT
  5
15
100
AcDbSymbolTableRecord
100
AcDbViewportTableRecord
  2
*ACTIVE
 70
     0
 10
0.0
 20
0.0
 11
1.0
 21
1.0
 12
6.591288
 22
4.579184
 13
0.0
 23
0.0
 14
1.0
 24
1.0
 15
0.0
 25
0.0
 16
0.0
 26
0.0
 36
1.0
 17
0.0
 27
0.0
 37
0.0
 40
9.158369
 41
0.688564
 42
50.0
 43
0.0
 44
0.0
 50
0.0
 51
0.0
 71
     0
 72
   100
 73
     1
 74
     1
 75
     0
 76
     0
 77
     0
 78
     0
281
     0
 65
     0
110
0.0
120
0.0
130
0.0
111
1.0
121
0.0
131
0.0
112
0.0
122
1.0
132
0.0
345
0
346
0
 79
     0
146
0.0
  0
ENDTAB
  0
TABLE
  2
LTYPE
  5
4
100
AcDbSymbolTable
 70
     5
  0
LTYPE
  5
11
100
AcDbSymbolTableRecord
100
AcDbLinetypeTableRecord
  2
ByBlock
 70
    64
  3

 72
    65
 73
     0
 40
0.0
  0
LTYPE
  5
12
100
AcDbSymbolTableRecord
100
AcDbLinetypeTableRecord
  2
ByLayer
 70
    64
  3

 72
    65
 73
     0
 40
0.0
  0
LTYPE
  5
13
100
AcDbSymbolTableRecord
100
AcDbLinetypeTableRecord
  2
Continuous
 70
    64
  3
Solid line
 72
    65
 73
     0
 40
0.0
  0
LTYPE
  5
79
100
AcDbSymbolTableRecord
100
AcDbLinetypeTableRecord
  2
AI9-LType1
 70
    64
  3
Illustrator Dash Style No.1
 72
    65
 73
     4
 40
14.816667
 49
8.466667
 74
     0
 49
-2.822222
 74
     0
 49
0.705556
 74
     0
 49
-2.822222
 74
     0
  0
LTYPE
  5
E9
100
AcDbSymbolTableRecord
100
AcDbLinetypeTableRecord
  2
AI9-LType2
 70
    64
  3
Illustrator Dash Style No.2
 72
    65
 73
     6
 40
17.638889
 49
8.466667
 74
     0
 49
-2.822222
 74
     0
 49
0.705556
 74
     0
 49
-2.116667
 74
     0
 49
0.705556
 74
     0
 49
-2.822222
 74
     0
  0
ENDTAB
  0
TABLE
  2
LAYER
  5
2
100
AcDbSymbolTable
 70
    11
  0
LAYER
  5
14
100
AcDbSymbolTableRecord
100
AcDbLayerTableRecord
  2
0
 70
     0
 62
     7
  6
Continuous
290
     1
370
    -3
390
1D
  0
LAYER
  5
28
100
AcDbSymbolTableRecord
100
AcDbLayerTableRecord
  2
RAHMEN
 70
     0
 62
   160
  6
Continuous
290
     1
370
    -3
390
1D
  0
LAYER
  5
36
100
AcDbSymbolTableRecord
100
AcDbLayerTableRecord
  2
TEXT
 70
     0
 62
     7
  6
Continuous
290
     1
370
    -3
390
1D
  0
LAYER
  5
40
100
AcDbSymbolTableRecord
100
AcDbLayerTableRecord
  2
KOERPER
 70
     0
 62
   253
  6
Continuous
290
     1
370
    -3
390
1D
  0
LAYER
  5
74
100
AcDbSymbolTableRecord
100
AcDbLayerTableRecord
  2
AM_8
 70
     0
 62
     4
  6
Continuous
290
     1
370
    -3
390
1D
  0
LAYER
  5
78
100
AcDbSymbolTableRecord
100
AcDbLayerTableRecord
  2
MITTELLINIE
 70
     0
 62
     6
  6
Continuous
290
     1
370
    -3
390
1D
  0
LAYER
  5
7D
100
AcDbSymbolTableRecord
100
AcDbLayerTableRecord
  2
SCHRAFFUR
 70
     0
 62
     2
  6
Continuous
290
     1
370
    -3
390
1D
  0
LAYER
  5
E3
100
AcDbSymbolTableRecord
100
AcDbLayerTableRecord
  2
EBENE_1
 70
     0
 62
     5
  6
Continuous
290
     1
370
    -3
390
1D
  0
LAYER
  5
E8
100
AcDbSymbolTableRecord
100
AcDbLayerTableRecord
  2
GETRENNT
 70
     0
 62
     3
  6
Continuous
290
     1
370
    -3
390
1D
  0
LAYER
  5
EC
100
AcDbSymbolTableRecord
100
AcDbLayerTableRecord
  2
ROHR
 70
     0
 62
     1
  6
Continuous
290
     1
370
    -3
390
1D
  0
LAYER
  5
16F
100
AcDbSymbolTableRecord
100
AcDbLayerTableRecord
  2
SCHRAUBEN
 70
     0
 62
   160
  6
Continuous
290
     1
370
    -3
390
1D
  0
ENDTAB
  0
TABLE
  2
STYLE
  5
3
100
AcDbSymbolTable
 70
     5
  0
STYLE
  5
17
100
AcDbSymbolTableRecord
100
AcDbTextStyleTableRecord
  2
Standard
 70
     0
 40
0.0
 41
1.0
 50
0.0
 71
     0
 42
0.0
  3
txt
  4

  0
STYLE
  5
24
100
AcDbSymbolTableRecord
100
AcDbTextStyleTableRecord
  2
STD
 70
     0
 40
0.0
 41
1.0
 50
0.0
 71
     0
 42
0.0
  3
txt
  4

  0
STYLE
  5
25
100
AcDbSymbolTableRecord
100
AcDbTextStyleTableRecord
  2
TATESTD
 70
     4
 40
0.0
 41
1.0
 50
0.0
 71
     0
 42
0.0
  3
txt
  4

  0
STYLE
  5
26
100
AcDbSymbolTableRecord
100
AcDbTextStyleTableRecord
  2
KANJISTD
 70
     0
 40
0.0
 41
1.0
 50
0.0
 71
     0
 42
0.0
  3
txt
  4
extfont
  0
STYLE
  5
27
100
AcDbSymbolTableRecord
100
AcDbTextStyleTableRecord
  2
KANJITATE
 70
     4
 40
0.0
 41
1.0
 50
0.0
 71
     0
 42
0.0
  3
txt
  4
extfont
  0
ENDTAB
  0
TABLE
  2
VIEW
  5
5
100
AcDbSymbolTable
 70
     0
  0
ENDTAB
  0
TABLE
  2
UCS
  5
6
100
AcDbSymbolTable
 70
     0
  0
ENDTAB
  0
TABLE
  2
APPID
  5
8
100
AcDbSymbolTable
 70
     1
  0
APPID
  5
16
100
AcDbSymbolTableRecord
100
AcDbRegAppTableRecord
  2
ACAD
 70
     0
  0
ENDTAB
  0
TABLE
  2
DIMSTYLE
  5
9
100
AcDbSymbolTable
 70
     1
100
AcDbDimStyleTable
 71
     0
  0
DIMSTYLE
105
18
100
AcDbSymbolTableRecord
100
AcDbDimStyleTableRecord
  2
Standard
 70
     0
  3

  4

 40
1.0
 41
0.18
 42
0.0625
 43
0.38
 44
0.18
 45
0.0
 46
0.0
 47
0.0
 48
0.0
 71
     0
 72
     0
 73
     1
 74
     1
 75
     0
 76
     0
 77
     0
 78
     0
 79
     0
140
0.18
141
0.09
142
0.0
143
25.4
144
1.0
145
0.0
146
1.0
147
0.09
148
0.0
170
     0
171
     2
172
     0
173
     0
174
     0
175
     0
176
     0
177
     0
178
     0
179
     0
271
     4
272
     4
273
     2
274
     2
275
     0
276
     0
277
     2
278
    46
279
     0
280
     0
281
     0
282
     0
283
     1
284
     0
285
     0
286
     0
288
     0
340
17
341
0
342
0
343
0
344
0
371
    -2
372
    -2
  0
ENDTAB
  0
TABLE
  2
BLOCK_RECORD
  5
1
100
AcDbSymbolTable
 70
     3
  0
BLOCK_RECORD
  5
A
100
AcDbSymbolTableRecord
100
AcDbBlockTableRecord
  2
*MODEL_SPACE
340
20
  0
BLOCK_RECORD
  5
B
100
AcDbSymbolTableRecord
100
AcDbBlockTableRecord
  2
*PAPER_SPACE
340
21
  0
BLOCK_RECORD
  5
37
100
AcDbSymbolTableRecord
100
AcDbBlockTableRecord
  2
AI9-BLK1
340
0
102
{BLKREFS
331
38
102
}
  0
BLOCK_RECORD
  5
ED
100
AcDbSymbolTableRecord
100
AcDbBlockTableRecord
  2
AI9-BLK2
340
0
102
{BLKREFS
331
EE
102
}
  0
BLOCK_RECORD
  5
12E
100
AcDbSymbolTableRecord
100
AcDbBlockTableRecord
  2
AI9-BLK3
340
0
102
{BLKREFS
331
12F
102
}
  0
ENDTAB
  0
ENDSEC
  0
SECTION
  2
BLOCKS
  0
BLOCK
  5
D
100
AcDbEntity
  8
0
100
AcDbBlockBegin
  2
*MODEL_SPACE
 70
     0
 10
0.0
 20
0.0
 30
0.0
  3
*MODEL_SPACE
  1

  0
ENDBLK
  5
E
100
AcDbEntity
  8
0
100
AcDbBlockEnd
  0
BLOCK
  5
F
100
AcDbEntity
 67
     1
  8
0
100
AcDbBlockBegin
  2
*PAPER_SPACE
 70
     0
 10
0.0
 20
0.0
 30
0.0
  3
*PAPER_SPACE
  1

  0
ENDBLK
  5
10
100
AcDbEntity
 67
     1
  8
0
100
AcDbBlockEnd
  0
BLOCK
  5
39
100
AcDbEntity
  8
TEXT
 62
     7
100
AcDbBlockBegin
  2
AI9-BLK1
 70
     0
 10
0.0
 20
0.0
 30
0.0
  3
AI9-BLK1
  1

  0
MTEXT
  5
3C
100
AcDbEntity
  8
TEXT
 62
     7
100
AcDbMText
 10
-16.352404
 20
-3.617351
 30
0.0
 40
5.512152
 41
0.0
 71
     1
 72
     2
  1
\fArial|b0|i0;\H5.5122;\C7;\U+0034\U+0030
  7
STD
210
0.0
220
0.0
230
1.0
 73
     1
 44
1.0
  0
MTEXT
  5
3B
100
AcDbEntity
  8
TEXT
 62
     7
100
AcDbMText
 10
-16.352404
 20
3.790983
 30
0.0
 40
5.512152
 41
0.0
 71
     1
 72
     2
  1
\fArial|b0|i0;\H5.5122;\C7;\U+0053\U+0074\U+0061\U+006E\U+0064\U+0061\U+0072\U+0064\U+0020
  7
STD
210
0.0
220
0.0
230
1.0
 73
     1
 44
1.0
  0
MTEXT
  5
3A
100
AcDbEntity
  8
TEXT
 62
     7
100
AcDbMText
 10
-16.352404
 20
11.199316
 30
0.0
 40
5.512152
 41
0.0
 71
     1
 72
     2
  1
\fArial|b0|i0;\H5.5122;\C7;\U+0046\U+0048\U+0052\U+004B\U+002D
  7
STD
210
0.0
220
0.0
230
1.0
 73
     1
 44
1.0
  0
ENDBLK
  5
3D
100
AcDbEntity
  8
TEXT
100
AcDbBlockEnd
  0
BLOCK
  5
EF
100
AcDbEntity
  8
ROHR
  6
AI9-LType2
 62
     7
100
AcDbBlockBegin
  2
AI9-BLK2
 70
     0
 10
0.0
 20
0.0
 30
0.0
  3
AI9-BLK2
  1

  0
LINE
  5
12C
100
AcDbEntity
  8
ROHR
 62
     7
100
AcDbLine
 10
1.030084
 20
-0.630969
 30
0.0
 11
1.941656
 21
0.280948
 31
0.0
  0
LINE
  5
12B
100
AcDbEntity
  8
ROHR
 62
     7
100
AcDbLine
 10
1.052821
 20
-0.077515
 30
0.0
 11
1.997466
 21
0.866958
 31
0.0
  0
LINE
  5
12A
100
AcDbEntity
  8
ROHR
 62
     7
100
AcDbLine
 10
-1.763544
 20
-0.242362
 30
0.0
 11
-0.995633
 21
0.525549
 31
0.0
  0
LINE
  5
129
100
AcDbEntity
  8
ROHR
 62
     7
100
AcDbLine
 10
-1.688097
 20
-0.697115
 30
0.0
 11
-0.974618
 21
0.016536
 31
0.0
  0
LINE
  5
128
100
AcDbEntity
  8
ROHR
 62
     7
100
AcDbLine
 10
0.478179
 20
-5.955709
 30
0.0
 11
0.863685
 21
-5.570203
 31
0.0
  0
LINE
  5
127
100
AcDbEntity
  8
ROHR
 62
     7
100
AcDbLine
 10
0.124023
 20
-7.900293
 30
0.0
 11
0.173288
 21
-7.851717
 31
0.0
  0
LINE
  5
126
100
AcDbEntity
  8
ROHR
 62
     7
100
AcDbLine
 10
0.033762
 20
-7.990727
 30
0.0
 11
0.043064
 21
-7.981425
 31
0.0
  0
LINE
  5
125
100
AcDbEntity
  8
ROHR
 62
     7
100
AcDbLine
 10
0.253215
 20
-7.240902
 30
0.0
 11
0.428914
 21
-7.065202
 31
0.0
  0
LINE
  5
124
100
AcDbEntity
  8
ROHR
 62
     7
100
AcDbLine
 10
-0.082682
 20
-7.577315
 30
0.0
 11
-0.046853
 21
-7.541142
 31
0.0
  0
LINE
  5
123
100
AcDbEntity
  8
ROHR
 62
     7
100
AcDbLine
 10
-0.197748
 20
-7.161837
 30
0.0
 11
-0.13367
 21
-7.097758
 31
0.0
  0
LINE
  5
122
100
AcDbEntity
  8
ROHR
 62
     7
100
AcDbLine
 10
-0.311092
 20
-6.744808
 30
0.0
 11
-0.217041
 21
-6.650757
 31
0.0
  0
LINE
  5
121
100
AcDbEntity
  8
ROHR
 62
     7
100
AcDbLine
 10
-0.531578
 20
-5.904721
 30
0.0
 11
-0.372415
 21
-5.745558
 31
0.0
  0
LINE
  5
120
100
AcDbEntity
  8
ROHR
 62
     7
100
AcDbLine
 10
0.371037
 20
-6.592879
 30
0.0
 11
0.658013
 21
-6.305731
 31
0.0
  0
LINE
  5
11F
100
AcDbEntity
  8
ROHR
 62
     7
100
AcDbLine
 10
-0.422024
 20
-6.325712
 30
0.0
 11
-0.296623
 21
-6.200138
 31
0.0
  0
LINE
  5
11E
100
AcDbEntity
  8
ROHR
 62
     7
100
AcDbLine
 10
0.574297
 20
-5.328874
 30
0.0
 11
1.047654
 21
-4.85569
 31
0.0
  0
LINE
  5
11D
100
AcDbEntity
  8
ROHR
 62
     7
100
AcDbLine
 10
0.661114
 20
-4.711857
 30
0.0
 11
1.211985
 21
-4.160986
 31
0.0
  0
LINE
  5
11C
100
AcDbEntity
  8
ROHR
 62
     7
100
AcDbLine
 10
0.738628
 20
-4.104315
 30
0.0
 11
1.35909
 21
-3.483508
 31
0.0
  0
LINE
  5
11B
100
AcDbEntity
  8
ROHR
 62
     7
100
AcDbLine
 10
0.806841
 20
-3.505557
 30
0.0
 11
1.490004
 21
-2.82205
 31
0.0
  0
LINE
  5
11A
100
AcDbEntity
  8
ROHR
 62
     7
100
AcDbLine
 10
0.866786
 20
-2.915068
 30
0.0
 11
1.606104
 21
-2.17575
 31
0.0
  0
LINE
  5
119
100
AcDbEntity
  8
ROHR
 62
     7
100
AcDbLine
 10
0.918807
 20
-2.332674
 30
0.0
 11
1.708423
 21
-1.543058
 31
0.0
  0
LINE
  5
118
100
AcDbEntity
  8
ROHR
 62
     7
100
AcDbLine
 10
-0.639754
 20
-5.482008
 30
0.0
 11
-0.445451
 21
-5.287705
 31
0.0
  0
LINE
  5
117
100
AcDbEntity
  8
ROHR
 62
     7
100
AcDbLine
 10
-0.745174
 20
-5.057228
 30
0.0
 11
-0.513664
 21
-4.826062
 31
0.0
  0
LINE
  5
116
100
AcDbEntity
  8
ROHR
 62
     7
100
AcDbLine
 10
-0.848872
 20
-4.630725
 30
0.0
 11
-0.578776
 21
-4.360457
 31
0.0
  0
LINE
  5
115
100
AcDbEntity
  8
ROHR
 62
     7
100
AcDbLine
 10
-0.950157
 20
-4.202327
 30
0.0
 11
-0.639754
 21
-3.891235
 31
0.0
  0
LINE
  5
114
100
AcDbEntity
  8
ROHR
 62
     7
100
AcDbLine
 10
-1.05041
 20
-3.771518
 30
0.0
 11
-0.696598
 21
-3.417879
 31
0.0
  0
LINE
  5
113
100
AcDbEntity
  8
ROHR
 62
     7
100
AcDbLine
 10
-1.14825
 20
-3.339331
 30
0.0
 11
-0.749308
 21
-2.940217
 31
0.0
  0
LINE
  5
112
100
AcDbEntity
  8
ROHR
 62
     7
100
AcDbLine
 10
-1.243679
 20
-2.904732
 30
0.0
 11
-0.797884
 21
-2.458592
 31
0.0
  0
LINE
  5
111
100
AcDbEntity
  8
ROHR
 62
     7
100
AcDbLine
 10
-1.337731
 20
-2.468239
 30
0.0
 11
-0.842326
 21
-1.972489
 31
0.0
  0
LINE
  5
110
100
AcDbEntity
  8
ROHR
 62
     7
100
AcDbLine
 10
-1.429715
 20
-2.029678
 30
0.0
 11
-0.881944
 21
-1.48208
 31
0.0
  0
LINE
  5
10F
100
AcDbEntity
  8
ROHR
 62
     7
100
AcDbLine
 10
1.000111
 20
-1.190797
 30
0.0
 11
1.87551
 21
-0.315398
 31
0.0
  0
LINE
  5
10E
100
AcDbEntity
  8
ROHR
 62
     7
100
AcDbLine
 10
-1.607137
 20
-1.146183
 30
0.0
 11
-0.94809
 21
-0.487826
 31
0.0
  0
LINE
  5
10D
100
AcDbEntity
  8
ROHR
 62
     7
100
AcDbLine
 10
-1.518254
 20
-1.59594
 30
0.0
 11
-0.917084
 21
-0.995116
 31
0.0
  0
LINE
  5
10C
100
AcDbEntity
  8
ROHR
 62
     7
100
AcDbLine
 10
0.963249
 20
-1.758204
 30
0.0
 11
1.797995
 21
-0.923458
 31
0.0
  0
LINE
  5
10B
100
AcDbEntity
  8
ROHR
 62
     7
100
AcDbLine
 10
0.91674
 20
5.620157
 30
0.0
 11
1.950958
 21
6.653857
 31
0.0
  0
LINE
  5
10A
100
AcDbEntity
  8
ROHR
 62
     7
100
AcDbLine
 10
0.955669
 20
5.128197
 30
0.0
 11
2.064646
 21
6.237518
 31
0.0
  0
LINE
  5
109
100
AcDbEntity
  8
ROHR
 62
     7
100
AcDbLine
 10
0.989087
 20
4.631759
 30
0.0
 11
2.101164
 21
5.74418
 31
0.0
  0
LINE
  5
108
100
AcDbEntity
  8
ROHR
 62
     7
100
AcDbLine
 10
-2.129414
 20
5.225521
 30
0.0
 11
0.560862
 21
7.915624
 31
0.0
  0
LINE
  5
107
100
AcDbEntity
  8
ROHR
 62
     7
100
AcDbLine
 10
-2.137337
 20
4.687569
 30
0.0
 11
-0.906749
 21
5.917985
 31
0.0
  0
LINE
  5
106
100
AcDbEntity
  8
ROHR
 62
     7
100
AcDbLine
 10
1.081071
 20
2.072225
 30
0.0
 11
2.12459
 21
3.115572
 31
0.0
  0
LINE
  5
105
100
AcDbEntity
  8
ROHR
 62
     7
100
AcDbLine
 10
1.083138
 20
1.54392
 30
0.0
 11
2.105987
 21
2.566768
 31
0.0
  0
LINE
  5
104
100
AcDbEntity
  8
ROHR
 62
     7
100
AcDbLine
 10
1.079693
 20
1.009757
 30
0.0
 11
2.079115
 21
2.00918
 31
0.0
  0
LINE
  5
103
100
AcDbEntity
  8
ROHR
 62
     7
100
AcDbLine
 10
1.069358
 20
0.469222
 30
0.0
 11
2.042942
 21
1.442806
 31
0.0
  0
LINE
  5
102
100
AcDbEntity
  8
ROHR
 62
     7
100
AcDbLine
 10
1.018026
 20
4.130153
 30
0.0
 11
2.120456
 21
5.232756
 31
0.0
  0
LINE
  5
101
100
AcDbEntity
  8
ROHR
 62
     7
100
AcDbLine
 10
1.041797
 20
3.623724
 30
0.0
 11
2.132859
 21
4.714785
 31
0.0
  0
LINE
  5
100
100
AcDbEntity
  8
ROHR
 62
     7
100
AcDbLine
 10
1.0604
 20
3.111955
 30
0.0
 11
2.137337
 21
4.189064
 31
0.0
  0
LINE
  5
FF
100
AcDbEntity
  8
ROHR
 62
     7
100
AcDbLine
 10
1.073492
 20
2.595018
 30
0.0
 11
2.134926
 21
3.656452
 31
0.0
  0
LINE
  5
FE
100
AcDbEntity
  8
ROHR
 62
     7
100
AcDbLine
 10
-2.043631
 20
2.129241
 30
0.0
 11
-1.023538
 21
3.149162
 31
0.0
  0
LINE
  5
FD
100
AcDbEntity
  8
ROHR
 62
     7
100
AcDbLine
 10
-2.001256
 20
1.641243
 30
0.0
 11
-1.028706
 21
2.613622
 31
0.0
  0
LINE
  5
FC
100
AcDbEntity
  8
ROHR
 62
     7
100
AcDbLine
 10
-1.951647
 20
1.16048
 30
0.0
 11
-1.028706
 21
2.083594
 31
0.0
  0
LINE
  5
FB
100
AcDbEntity
  8
ROHR
 62
     7
100
AcDbLine
 10
-1.895836
 20
0.686263
 30
0.0
 11
-1.023193
 21
1.559078
 31
0.0
  0
LINE
  5
FA
100
AcDbEntity
  8
ROHR
 62
     7
100
AcDbLine
 10
-1.832791
 20
0.218936
 30
0.0
 11
-1.011825
 21
1.03973
 31
0.0
  0
LINE
  5
F9
100
AcDbEntity
  8
ROHR
 62
     7
100
AcDbLine
 10
-2.135615
 20
4.158919
 30
0.0
 11
-0.941889
 21
5.352473
 31
0.0
  0
LINE
  5
F8
100
AcDbEntity
  8
ROHR
 62
     7
100
AcDbLine
 10
-2.124935
 20
3.639054
 30
0.0
 11
-0.971861
 21
4.7923
 31
0.0
  0
LINE
  5
F7
100
AcDbEntity
  8
ROHR
 62
     7
100
AcDbLine
 10
-2.105642
 20
3.127974
 30
0.0
 11
-0.995288
 21
4.238501
 31
0.0
  0
LINE
  5
F6
100
AcDbEntity
  8
ROHR
 62
     7
100
AcDbLine
 10
-2.078771
 20
2.624646
 30
0.0
 11
-1.012169
 21
3.690731
 31
0.0
  0
LINE
  5
F5
100
AcDbEntity
  8
ROHR
 62
     7
100
AcDbLine
 10
-0.031006
 20
6.793384
 30
0.0
 11
0.942234
 21
7.766968
 31
0.0
  0
LINE
  5
F4
100
AcDbEntity
  8
ROHR
 62
     7
100
AcDbLine
 10
0.401698
 20
6.695715
 30
0.0
 11
1.26814
 21
7.562329
 31
0.0
  0
LINE
  5
F3
100
AcDbEntity
  8
ROHR
 62
     7
100
AcDbLine
 10
0.694187
 20
6.458004
 30
0.0
 11
1.544781
 21
7.308598
 31
0.0
  0
LINE
  5
F2
100
AcDbEntity
  8
ROHR
 62
     7
100
AcDbLine
 10
0.868853
 20
6.102125
 30
0.0
 11
1.773535
 21
7.007152
 31
0.0
  0
LINE
  5
F1
100
AcDbEntity
  8
ROHR
 62
     7
100
AcDbLine
 10
-2.053966
 20
6.361369
 30
0.0
 11
-0.47439
 21
7.941117
 31
0.0
  0
LINE
  5
F0
100
AcDbEntity
  8
ROHR
 62
     7
100
AcDbLine
 10
-2.111844
 20
5.773291
 30
0.0
 11
0.10542
 21
7.990727
 31
0.0
  0
ENDBLK
  5
12D
100
AcDbEntity
  8
ROHR
100
AcDbBlockEnd
  0
BLOCK
  5
130
100
AcDbEntity
  8
ROHR
 62
     7
100
AcDbBlockBegin
  2
AI9-BLK3
 70
     0
 10
0.0
 20
0.0
 30
0.0
  3
AI9-BLK3
  1

  0
LINE
  5
16D
100
AcDbEntity
  8
ROHR
 62
     7
100
AcDbLine
 10
-1.079004
 20
-1.009327
 30
0.0
 11
-2.078771
 21
-2.009266
 31
0.0
  0
LINE
  5
16C
100
AcDbEntity
  8
ROHR
 62
     7
100
AcDbLine
 10
1.895664
 20
-0.686349
 30
0.0
 11
1.022849
 21
-1.559164
 31
0.0
  0
LINE
  5
16B
100
AcDbEntity
  8
ROHR
 62
     7
100
AcDbLine
 10
1.832963
 20
-0.218677
 30
0.0
 11
1.011997
 21
-1.039816
 31
0.0
  0
LINE
  5
16A
100
AcDbEntity
  8
ROHR
 62
     7
100
AcDbLine
 10
-1.069013
 20
-0.469308
 30
0.0
 11
-2.042769
 21
-1.442892
 31
0.0
  0
LINE
  5
169
100
AcDbEntity
  8
ROHR
 62
     7
100
AcDbLine
 10
-0.694014
 20
-6.45809
 30
0.0
 11
-1.544609
 21
-7.308684
 31
0.0
  0
LINE
  5
168
100
AcDbEntity
  8
ROHR
 62
     7
100
AcDbLine
 10
-0.401354
 20
-6.695801
 30
0.0
 11
-1.267967
 21
-7.562415
 31
0.0
  0
LINE
  5
167
100
AcDbEntity
  8
ROHR
 62
     7
100
AcDbLine
 10
2.054655
 20
-6.361455
 30
0.0
 11
0.474562
 21
-7.941031
 31
0.0
  0
LINE
  5
166
100
AcDbEntity
  8
ROHR
 62
     7
100
AcDbLine
 10
2.112016
 20
-5.773377
 30
0.0
 11
-0.10542
 21
-7.990641
 31
0.0
  0
LINE
  5
165
100
AcDbEntity
  8
ROHR
 62
     7
100
AcDbLine
 10
-0.868509
 20
-6.102039
 30
0.0
 11
-1.773535
 21
-7.006894
 31
0.0
  0
LINE
  5
164
100
AcDbEntity
  8
ROHR
 62
     7
100
AcDbLine
 10
2.129586
 20
-5.225607
 30
0.0
 11
-0.560517
 21
-7.915538
 31
0.0
  0
LINE
  5
163
100
AcDbEntity
  8
ROHR
 62
     7
100
AcDbLine
 10
0.031178
 20
-6.79347
 30
0.0
 11
-0.942061
 21
-7.767054
 31
0.0
  0
LINE
  5
162
100
AcDbEntity
  8
ROHR
 62
     7
100
AcDbLine
 10
-0.988915
 20
-4.631845
 30
0.0
 11
-2.101508
 21
-5.743922
 31
0.0
  0
LINE
  5
161
100
AcDbEntity
  8
ROHR
 62
     7
100
AcDbLine
 10
-1.041625
 20
-3.623638
 30
0.0
 11
-2.132514
 21
-4.714527
 31
0.0
  0
LINE
  5
160
100
AcDbEntity
  8
ROHR
 62
     7
100
AcDbLine
 10
-1.060228
 20
-3.112041
 30
0.0
 11
-2.137337
 21
-4.188978
 31
0.0
  0
LINE
  5
15F
100
AcDbEntity
  8
ROHR
 62
     7
100
AcDbLine
 10
-1.073319
 20
-2.59476
 30
0.0
 11
-2.134753
 21
-3.656194
 31
0.0
  0
LINE
  5
15E
100
AcDbEntity
  8
ROHR
 62
     7
100
AcDbLine
 10
-1.081071
 20
-2.072311
 30
0.0
 11
-2.124418
 21
-3.115658
 31
0.0
  0
LINE
  5
15D
100
AcDbEntity
  8
ROHR
 62
     7
100
AcDbLine
 10
-1.083138
 20
-1.543661
 30
0.0
 11
-2.105815
 21
-2.566338
 31
0.0
  0
LINE
  5
15C
100
AcDbEntity
  8
ROHR
 62
     7
100
AcDbLine
 10
-0.916568
 20
-5.619898
 30
0.0
 11
-1.950269
 21
-6.653944
 31
0.0
  0
LINE
  5
15B
100
AcDbEntity
  8
ROHR
 62
     7
100
AcDbLine
 10
-0.95498
 20
-5.127939
 30
0.0
 11
-2.064473
 21
-6.237432
 31
0.0
  0
LINE
  5
15A
100
AcDbEntity
  8
ROHR
 62
     7
100
AcDbLine
 10
-1.017853
 20
-4.130067
 30
0.0
 11
-2.120284
 21
-5.232842
 31
0.0
  0
LINE
  5
159
100
AcDbEntity
  8
ROHR
 62
     7
100
AcDbLine
 10
2.124935
 20
-3.63914
 30
0.0
 11
0.972034
 21
-4.792042
 31
0.0
  0
LINE
  5
158
100
AcDbEntity
  8
ROHR
 62
     7
100
AcDbLine
 10
2.105815
 20
-3.127544
 30
0.0
 11
0.99546
 21
-4.23807
 31
0.0
  0
LINE
  5
157
100
AcDbEntity
  8
ROHR
 62
     7
100
AcDbLine
 10
2.135442
 20
-4.158489
 30
0.0
 11
0.942061
 21
-5.352214
 31
0.0
  0
LINE
  5
156
100
AcDbEntity
  8
ROHR
 62
     7
100
AcDbLine
 10
2.078598
 20
-2.624732
 30
0.0
 11
1.012514
 21
-3.690817
 31
0.0
  0
LINE
  5
155
100
AcDbEntity
  8
ROHR
 62
     7
100
AcDbLine
 10
1.951991
 20
-1.160222
 30
0.0
 11
1.028878
 21
-2.08368
 31
0.0
  0
LINE
  5
154
100
AcDbEntity
  8
ROHR
 62
     7
100
AcDbLine
 10
2.043803
 20
-2.129155
 30
0.0
 11
1.023882
 21
-3.149248
 31
0.0
  0
LINE
  5
153
100
AcDbEntity
  8
ROHR
 62
     7
100
AcDbLine
 10
2.137337
 20
-4.687139
 30
0.0
 11
0.906921
 21
-5.918071
 31
0.0
  0
LINE
  5
152
100
AcDbEntity
  8
ROHR
 62
     7
100
AcDbLine
 10
2.001428
 20
-1.64133
 30
0.0
 11
1.02905
 21
-2.613363
 31
0.0
  0
LINE
  5
151
100
AcDbEntity
  8
ROHR
 62
     7
100
AcDbLine
 10
-0.660942
 20
4.712115
 30
0.0
 11
-1.212157
 21
4.1609
 31
0.0
  0
LINE
  5
150
100
AcDbEntity
  8
ROHR
 62
     7
100
AcDbLine
 10
-0.738284
 20
4.104573
 30
0.0
 11
-1.35909
 21
3.483422
 31
0.0
  0
LINE
  5
14F
100
AcDbEntity
  8
ROHR
 62
     7
100
AcDbLine
 10
-0.806669
 20
3.505643
 30
0.0
 11
-1.490176
 21
2.822481
 31
0.0
  0
LINE
  5
14E
100
AcDbEntity
  8
ROHR
 62
     7
100
AcDbLine
 10
-0.866614
 20
2.915498
 30
0.0
 11
-1.606104
 21
2.176008
 31
0.0
  0
LINE
  5
14D
100
AcDbEntity
  8
ROHR
 62
     7
100
AcDbLine
 10
-0.918635
 20
2.333105
 30
0.0
 11
-1.708251
 21
1.542972
 31
0.0
  0
LINE
  5
14C
100
AcDbEntity
  8
ROHR
 62
     7
100
AcDbLine
 10
-0.963076
 20
1.758463
 30
0.0
 11
-1.797823
 21
0.923372
 31
0.0
  0
LINE
  5
14B
100
AcDbEntity
  8
ROHR
 62
     7
100
AcDbLine
 10
-0.999939
 20
1.191056
 30
0.0
 11
-1.875338
 21
0.315657
 31
0.0
  0
LINE
  5
14A
100
AcDbEntity
  8
ROHR
 62
     7
100
AcDbLine
 10
-1.029739
 20
0.630883
 30
0.0
 11
-1.941484
 21
-0.280689
 31
0.0
  0
LINE
  5
149
100
AcDbEntity
  8
ROHR
 62
     7
100
AcDbLine
 10
-1.052649
 20
0.077429
 30
0.0
 11
-1.997122
 21
-0.8667
 31
0.0
  0
LINE
  5
148
100
AcDbEntity
  8
ROHR
 62
     7
100
AcDbLine
 10
1.518254
 20
1.596199
 30
0.0
 11
0.917257
 21
0.995202
 31
0.0
  0
LINE
  5
147
100
AcDbEntity
  8
ROHR
 62
     7
100
AcDbLine
 10
1.763717
 20
0.242276
 30
0.0
 11
0.995805
 21
-0.525635
 31
0.0
  0
LINE
  5
146
100
AcDbEntity
  8
ROHR
 62
     7
100
AcDbLine
 10
1.688269
 20
0.697029
 30
0.0
 11
0.974618
 21
-0.016623
 31
0.0
  0
LINE
  5
145
100
AcDbEntity
  8
ROHR
 62
     7
100
AcDbLine
 10
1.606793
 20
1.146097
 30
0.0
 11
0.948435
 21
0.487739
 31
0.0
  0
LINE
  5
144
100
AcDbEntity
  8
ROHR
 62
     7
100
AcDbLine
 10
1.050582
 20
3.771777
 30
0.0
 11
0.696598
 21
3.417793
 31
0.0
  0
LINE
  5
143
100
AcDbEntity
  8
ROHR
 62
     7
100
AcDbLine
 10
1.148423
 20
3.339245
 30
0.0
 11
0.749308
 21
2.940303
 31
0.0
  0
LINE
  5
142
100
AcDbEntity
  8
ROHR
 62
     7
100
AcDbLine
 10
1.244368
 20
2.904646
 30
0.0
 11
0.797884
 21
2.458679
 31
0.0
  0
LINE
  5
141
100
AcDbEntity
  8
ROHR
 62
     7
100
AcDbLine
 10
1.338075
 20
2.468497
 30
0.0
 11
0.842326
 21
1.972403
 31
0.0
  0
LINE
  5
140
100
AcDbEntity
  8
ROHR
 62
     7
100
AcDbLine
 10
1.429887
 20
2.029764
 30
0.0
 11
0.882289
 21
1.481994
 31
0.0
  0
LINE
  5
13F
100
AcDbEntity
  8
ROHR
 62
     7
100
AcDbLine
 10
0.849044
 20
4.630811
 30
0.0
 11
0.578776
 21
4.360716
 31
0.0
  0
LINE
  5
13E
100
AcDbEntity
  8
ROHR
 62
     7
100
AcDbLine
 10
0.950846
 20
4.202241
 30
0.0
 11
0.639754
 21
3.891149
 31
0.0
  0
LINE
  5
13D
100
AcDbEntity
  8
ROHR
 62
     7
100
AcDbLine
 10
-0.574125
 20
5.329132
 30
0.0
 11
-1.047309
 21
4.855948
 31
0.0
  0
LINE
  5
13C
100
AcDbEntity
  8
ROHR
 62
     7
100
AcDbLine
 10
-0.124023
 20
7.900551
 30
0.0
 11
-0.172944
 21
7.851631
 31
0.0
  0
LINE
  5
13B
100
AcDbEntity
  8
ROHR
 62
     7
100
AcDbLine
 10
-0.033934
 20
7.990641
 30
0.0
 11
-0.042891
 21
7.981511
 31
0.0
  0
LINE
  5
13A
100
AcDbEntity
  8
ROHR
 62
     7
100
AcDbLine
 10
-0.253559
 20
7.240816
 30
0.0
 11
-0.428914
 21
7.06546
 31
0.0
  0
LINE
  5
139
100
AcDbEntity
  8
ROHR
 62
     7
100
AcDbLine
 10
0.082855
 20
7.577229
 30
0.0
 11
0.047198
 21
7.541572
 31
0.0
  0
LINE
  5
138
100
AcDbEntity
  8
ROHR
 62
     7
100
AcDbLine
 10
-0.371037
 20
6.592793
 30
0.0
 11
-0.658185
 21
6.305989
 31
0.0
  0
LINE
  5
137
100
AcDbEntity
  8
ROHR
 62
     7
100
AcDbLine
 10
0.197921
 20
7.161751
 30
0.0
 11
0.133842
 21
7.097672
 31
0.0
  0
LINE
  5
136
100
AcDbEntity
  8
ROHR
 62
     7
100
AcDbLine
 10
-0.477835
 20
5.955795
 30
0.0
 11
-0.863341
 21
5.570117
 31
0.0
  0
LINE
  5
135
100
AcDbEntity
  8
ROHR
 62
     7
100
AcDbLine
 10
0.311092
 20
6.744722
 30
0.0
 11
0.217213
 21
6.650671
 31
0.0
  0
LINE
  5
134
100
AcDbEntity
  8
ROHR
 62
     7
100
AcDbLine
 10
0.422369
 20
6.325626
 30
0.0
 11
0.296795
 21
6.200052
 31
0.0
  0
LINE
  5
133
100
AcDbEntity
  8
ROHR
 62
     7
100
AcDbLine
 10
0.531923
 20
5.90498
 30
0.0
 11
0.373104
 21
5.745816
 31
0.0
  0
LINE
  5
132
100
AcDbEntity
  8
ROHR
 62
     7
100
AcDbLine
 10
0.63941
 20
5.482094
 30
0.0
 11
0.445106
 21
5.287963
 31
0.0
  0
LINE
  5
131
100
AcDbEntity
  8
ROHR
 62
     7
100
AcDbLine
 10
0.745174
 20
5.057486
 30
0.0
 11
0.513836
 21
4.826148
 31
0.0
  0
ENDBLK
  5
16E
100
AcDbEntity
  8
ROHR
100
AcDbBlockEnd
  0
ENDSEC
  0
SECTION
  2
ENTITIES
  0
POLYLINE
  5
18E
100
AcDbEntity
  8
SCHRAUBEN
 62
     7
100
AcDb2dPolyline
 66
     1
 10
0.0
 20
0.0
 30
0.0
 70
     1
  0
VERTEX
  5
18F
100
AcDbEntity
  8
SCHRAUBEN
 62
     7
100
AcDbVertex
100
AcDb2dVertex
 10
121.158841
 20
139.36617
 30
0.0
  0
VERTEX
  5
190
100
AcDbEntity
  8
SCHRAUBEN
 62
     7
100
AcDbVertex
100
AcDb2dVertex
 10
121.158841
 20
143.97433
 30
0.0
  0
VERTEX
  5
191
100
AcDbEntity
  8
SCHRAUBEN
 62
     7
100
AcDbVertex
100
AcDb2dVertex
 10
121.639087
 20
143.97433
 30
0.0
  0
VERTEX
  5
192
100
AcDbEntity
  8
SCHRAUBEN
 62
     7
100
AcDbVertex
100
AcDb2dVertex
 10
121.639087
 20
139.36617
 30
0.0
  0
SEQEND
  5
193
100
AcDbEntity
  8
SCHRAUBEN
 62
     7
  0
POLYLINE
  5
188
100
AcDbEntity
  8
SCHRAUBEN
 62
     7
100
AcDb2dPolyline
 66
     1
 10
0.0
 20
0.0
 30
0.0
 70
     1
  0
VERTEX
  5
189
100
AcDbEntity
  8
SCHRAUBEN
 62
     7
100
AcDbVertex
100
AcDb2dVertex
 10
121.158841
 20
181.321404
 30
0.0
  0
VERTEX
  5
18A
100
AcDbEntity
  8
SCHRAUBEN
 62
     7
100
AcDbVertex
100
AcDb2dVertex
 10
121.158841
 20
176.713417
 30
0.0
  0
VERTEX
  5
18B
100
AcDbEntity
  8
SCHRAUBEN
 62
     7
100
AcDbVertex
100
AcDb2dVertex
 10
121.639087
 20
176.713417
 30
0.0
  0
VERTEX
  5
18C
100
AcDbEntity
  8
SCHRAUBEN
 62
     7
100
AcDbVertex
100
AcDb2dVertex
 10
121.639087
 20
181.321404
 30
0.0
  0
SEQEND
  5
18D
100
AcDbEntity
  8
SCHRAUBEN
 62
     7
  0
LINE
  5
187
100
AcDbEntity
  8
SCHRAUBEN
 62
     7
100
AcDbLine
 10
121.639087
 20
178.018419
 30
0.0
 11
121.639087
 21
180.016574
 31
0.0
  0
LINE
  5
186
100
AcDbEntity
  8
SCHRAUBEN
 62
     7
100
AcDbLine
 10
122.839014
 20
178.018419
 30
0.0
 11
122.839014
 21
180.016574
 31
0.0
  0
SPLINE
  5
185
100
AcDbEntity
  8
SCHRAUBEN
 62
     7
100
AcDbSpline
210
0.0
220
0.0
230
1.0
 70
     8
 71
     3
 72
     8
 73
     4
 74
     0
 42
0.00000001
 43
0.00000001
 40
0.0
 40
0.0
 40
0.0
 40
0.0
 40
1.0
 40
1.0
 40
1.0
 40
1.0
 10
122.7246365017361
 20
179.68343370225693
 30
0.0
 10
122.8765652126736
 20
179.25245225694442
 30
0.0
 10
122.8765652126736
 20
178.78254123263886
 30
0.0
 10
122.7246365017361
 20
178.35155978732638
 30
0.0
  0
SPLINE
  5
184
100
AcDbEntity
  8
SCHRAUBEN
 62
     7
100
AcDbSpline
210
0.0
220
0.0
230
1.0
 70
     8
 71
     3
 72
     8
 73
     4
 74
     0
 42
0.00000001
 43
0.00000001
 40
0.0
 40
0.0
 40
0.0
 40
0.0
 40
1.0
 40
1.0
 40
1.0
 40
1.0
 10
121.75311957465277
 20
178.35155978732638
 30
0.0
 10
121.60084635416665
 20
178.78254123263886
 30
0.0
 10
121.60084635416665
 20
179.25245225694442
 30
0.0
 10
121.75311957465277
 20
179.68343370225693
 30
0.0
  0
LINE
  5
183
100
AcDbEntity
  8
SCHRAUBEN
 62
     7
100
AcDbLine
 10
122.724637
 20
177.685451
 30
0.0
 11
121.75312
 21
177.685451
 31
0.0
  0
SPLINE
  5
182
100
AcDbEntity
  8
SCHRAUBEN
 62
     7
100
AcDbSpline
210
0.0
220
0.0
230
1.0
 70
     8
 71
     3
 72
     8
 73
     4
 74
     0
 42
0.00000001
 43
0.00000001
 40
0.0
 40
0.0
 40
0.0
 40
0.0
 40
1.0
 40
1.0
 40
1.0
 40
1.0
 10
122.7246365017361
 20
178.35155978732638
 30
0.0
 10
122.8765652126736
 20
178.15570610894096
 30
0.0
 10
122.8765652126736
 20
177.88130425347219
 30
0.0
 10
122.7246365017361
 20
177.68545057508678
 30
0.0
  0
LINE
  5
181
100
AcDbEntity
  8
SCHRAUBEN
 62
     7
100
AcDbLine
 10
122.724637
 20
178.35156
 30
0.0
 11
121.75312
 21
178.35156
 31
0.0
  0
SPLINE
  5
180
100
AcDbEntity
  8
SCHRAUBEN
 62
     7
100
AcDbSpline
210
0.0
220
0.0
230
1.0
 70
     8
 71
     3
 72
     8
 73
     4
 74
     0
 42
0.00000001
 43
0.00000001
 40
0.0
 40
0.0
 40
0.0
 40
0.0
 40
1.0
 40
1.0
 40
1.0
 40
1.0
 10
121.75311957465277
 20
177.68545057508678
 30
0.0
 10
121.60084635416665
 20
177.88130425347219
 30
0.0
 10
121.60084635416665
 20
178.15570610894096
 30
0.0
 10
121.75311957465277
 20
178.35155978732638
 30
0.0
  0
LINE
  5
17F
100
AcDbEntity
  8
SCHRAUBEN
 62
     7
100
AcDbLine
 10
122.724637
 20
179.683434
 30
0.0
 11
121.75312
 21
179.683434
 31
0.0
  0
SPLINE
  5
17E
100
AcDbEntity
  8
SCHRAUBEN
 62
     7
100
AcDbSpline
210
0.0
220
0.0
230
1.0
 70
     8
 71
     3
 72
     8
 73
     4
 74
     0
 42
0.00000001
 43
0.00000001
 40
0.0
 40
0.0
 40
0.0
 40
0.0
 40
1.0
 40
1.0
 40
1.0
 40
1.0
 10
122.7246365017361
 20
180.34971516927081
 30
0.0
 10
122.8765652126736
 20
180.15351698133679
 30
0.0
 10
122.8765652126736
 20
179.87945963541665
 30
0.0
 10
122.7246365017361
 20
179.68343370225693
 30
0.0
  0
SPLINE
  5
17D
100
AcDbEntity
  8
SCHRAUBEN
 62
     7
100
AcDbSpline
210
0.0
220
0.0
230
1.0
 70
     8
 71
     3
 72
     8
 73
     4
 74
     0
 42
0.00000001
 43
0.00000001
 40
0.0
 40
0.0
 40
0.0
 40
0.0
 40
1.0
 40
1.0
 40
1.0
 40
1.0
 10
121.75311957465277
 20
179.68343370225693
 30
0.0
 10
121.60084635416665
 20
179.87945963541665
 30
0.0
 10
121.60084635416665
 20
180.15351698133679
 30
0.0
 10
121.75311957465277
 20
180.34971516927081
 30
0.0
  0
LINE
  5
17C
100
AcDbEntity
  8
SCHRAUBEN
 62
     7
100
AcDbLine
 10
122.724637
 20
180.349715
 30
0.0
 11
121.75312
 21
180.349715
 31
0.0
  0
LINE
  5
17B
100
AcDbEntity
  8
SCHRAUBEN
 62
     7
100
AcDbLine
 10
121.639087
 20
140.671861
 30
0.0
 11
121.639087
 21
142.669328
 31
0.0
  0
LINE
  5
17A
100
AcDbEntity
  8
SCHRAUBEN
 62
     7
100
AcDbLine
 10
122.839014
 20
140.671861
 30
0.0
 11
122.839014
 21
142.669328
 31
0.0
  0
SPLINE
  5
179
100
AcDbEntity
  8
SCHRAUBEN
 62
     7
100
AcDbSpline
210
0.0
220
0.0
230
1.0
 70
     8
 71
     3
 72
     8
 73
     4
 74
     0
 42
0.00000001
 43
0.00000001
 40
0.0
 40
0.0
 40
0.0
 40
0.0
 40
1.0
 40
1.0
 40
1.0
 40
1.0
 10
122.7246365017361
 20
142.33618706597221
 30
0.0
 10
122.8765652126736
 20
141.90589463975692
 30
0.0
 10
122.8765652126736
 20
141.43529459635414
 30
0.0
 10
122.7246365017361
 20
141.00465766059025
 30
0.0
  0
SPLINE
  5
178
100
AcDbEntity
  8
SCHRAUBEN
 62
     7
100
AcDbSpline
210
0.0
220
0.0
230
1.0
 70
     8
 71
     3
 72
     8
 73
     4
 74
     0
 42
0.00000001
 43
0.00000001
 40
0.0
 40
0.0
 40
0.0
 40
0.0
 40
1.0
 40
1.0
 40
1.0
 40
1.0
 10
121.75311957465277
 20
141.00465766059025
 30
0.0
 10
121.60084635416665
 20
141.43529459635414
 30
0.0
 10
121.60084635416665
 20
141.90589463975692
 30
0.0
 10
121.75311957465277
 20
142.33618706597221
 30
0.0
  0
LINE
  5
177
100
AcDbEntity
  8
SCHRAUBEN
 62
     7
100
AcDbLine
 10
122.724637
 20
140.338376
 30
0.0
 11
121.75312
 21
140.338376
 31
0.0
  0
SPLINE
  5
176
100
AcDbEntity
  8
SCHRAUBEN
 62
     7
100
AcDbSpline
210
0.0
220
0.0
230
1.0
 70
     8
 71
     3
 72
     8
 73
     4
 74
     0
 42
0.00000001
 43
0.00000001
 40
0.0
 40
0.0
 40
0.0
 40
0.0
 40
1.0
 40
1.0
 40
1.0
 40
1.0
 10
122.7246365017361
 20
141.00465766059025
 30
0.0
 10
122.8765652126736
 20
140.80863172743054
 30
0.0
 10
122.8765652126736
 20
140.5340576171875
 30
0.0
 10
122.7246365017361
 20
140.33837619357638
 30
0.0
  0
LINE
  5
175
100
AcDbEntity
  8
SCHRAUBEN
 62
     7
100
AcDbLine
 10
122.724637
 20
141.004658
 30
0.0
 11
121.75312
 21
141.004658
 31
0.0
  0
SPLINE
  5
174
100
AcDbEntity
  8
SCHRAUBEN
 62
     7
100
AcDbSpline
210
0.0
220
0.0
230
1.0
 70
     8
 71
     3
 72
     8
 73
     4
 74
     0
 42
0.00000001
 43
0.00000001
 40
0.0
 40
0.0
 40
0.0
 40
0.0
 40
1.0
 40
1.0
 40
1.0
 40
1.0
 10
121.75311957465277
 20
140.33837619357638
 30
0.0
 10
121.60084635416665
 20
140.5340576171875
 30
0.0
 10
121.60084635416665
 20
140.80863172743054
 30
0.0
 10
121.75311957465277
 20
141.00465766059025
 30
0.0
  0
LINE
  5
173
100
AcDbEntity
  8
SCHRAUBEN
 62
     7
100
AcDbLine
 10
122.724637
 20
142.336187
 30
0.0
 11
121.75312
 21
142.336187
 31
0.0
  0
SPLINE
  5
172
100
AcDbEntity
  8
SCHRAUBEN
 62
     7
100
AcDbSpline
210
0.0
220
0.0
230
1.0
 70
     8
 71
     3
 72
     8
 73
     4
 74
     0
 42
0.00000001
 43
0.00000001
 40
0.0
 40
0.0
 40
0.0
 40
0.0
 40
1.0
 40
1.0
 40
1.0
 40
1.0
 10
122.7246365017361
 20
143.00212402343749
 30
0.0
 10
122.8765652126736
 20
142.80644259982637
 30
0.0
 10
122.8765652126736
 20
142.53255750868055
 30
0.0
 10
122.7246365017361
 20
142.33618706597221
 30
0.0
  0
SPLINE
  5
171
100
AcDbEntity
  8
SCHRAUBEN
 62
     7
100
AcDbSpline
210
0.0
220
0.0
230
1.0
 70
     8
 71
     3
 72
     8
 73
     4
 74
     0
 42
0.00000001
 43
0.00000001
 40
0.0
 40
0.0
 40
0.0
 40
0.0
 40
1.0
 40
1.0
 40
1.0
 40
1.0
 10
121.75311957465277
 20
142.33618706597221
 30
0.0
 10
121.60084635416665
 20
142.53255750868055
 30
0.0
 10
121.60084635416665
 20
142.80644259982637
 30
0.0
 10
121.75311957465277
 20
143.00212402343749
 30
0.0
  0
LINE
  5
170
100
AcDbEntity
  8
SCHRAUBEN
 62
     7
100
AcDbLine
 10
122.724637
 20
143.002124
 30
0.0
 11
121.75312
 21
143.002124
 31
0.0
  0
INSERT
  5
12F
100
AcDbEntity
  8
ROHR
 62
     7
100
AcDbBlockReference
  2
AI9-BLK3
 10
98.345935
 20
155.146861
 30
0.0
  0
INSERT
  5
EE
100
AcDbEntity
  8
ROHR
  6
AI9-LType2
 62
     7
100
AcDbBlockReference
  2
AI9-BLK2
 10
170.19254
 20
165.497047
 30
0.0
  0
LINE
  5
EB
100
AcDbEntity
  8
GETRENNT
  6
AI9-LType2
 62
     7
100
AcDbLine
 10
104.839079
 20
220.21636
 30
0.0
 11
163.040522
 21
220.21636
 31
0.0
  0
LINE
  5
EA
100
AcDbEntity
  8
GETRENNT
  6
AI9-LType2
 62
     7
100
AcDbLine
 10
104.839079
 20
100.343918
 30
0.0
 11
163.175914
 21
100.343918
 31
0.0
  0
HATCH
  5
E7
100
AcDbEntity
  8
EBENE_1
 62
   152
100
AcDbHatch
 10
0.0
 20
0.0
 30
0.0
210
0.0
220
0.0
230
1.0
  2
SOLID
 70
     1
 71
     0
 91
        1
 92
        1
 93
        1
 72
     4
 94
        3
 73
     0
 74
     0
 95
       23
 96
       19
 40
0.0
 40
0.0
 40
0.0
 40
0.0
 40
1.0
 40
1.0
 40
1.0
 40
2.0
 40
2.0
 40
2.0
 40
3.0
 40
3.0
 40
3.0
 40
4.0
 40
4.0
 40
4.0
 40
5.0
 40
5.0
 40
5.0
 40
6.0
 40
6.0
 40
6.0
 40
6.0
 10
86.940085177951374
 20
140.38488498263888
 10
86.940085177951374
 20
140.38488498263888
 10
86.51513264973957
 20
140.64705674913193
 10
85.937045627170136
 20
140.92335340711804
 10
81.170411512586796
 20
143.20331759982636
 10
82.332958984374997
 20
138.58344455295136
 10
77.614900716145826
 20
141.48697102864583
 10
76.94982503255207
 20
141.89624837239583
 10
76.335564507378464
 20
140.89854871961805
 10
77.000984700520831
 20
140.48927137586804
 10
77.000984700520831
 20
140.48927137586804
 10
77.425937228732636
 20
140.22744411892359
 10
78.003679741753459
 20
139.95080295138888
 10
82.764457194010404
 20
137.6725613064236
 10
81.607594129774299
 20
142.28347710503471
 10
86.326513671874991
 20
139.38649631076387
 10
86.991589355468747
 20
138.97756347656249
 10
87.605505371093741
 20
139.97560763888887
 10
86.940085177951374
 20
140.38488498263888
 97
        0
 75
     2
 76
     1
 98
        1
 10
0.0
 20
0.0
  0
HATCH
  5
E6
100
AcDbEntity
  8
EBENE_1
 62
   152
100
AcDbHatch
 10
0.0
 20
0.0
 30
0.0
210
0.0
220
0.0
230
1.0
  2
SOLID
 70
     1
 71
     0
 91
        1
 92
        1
 93
        1
 72
     4
 94
        3
 73
     0
 74
     0
 95
       23
 96
       19
 40
0.0
 40
0.0
 40
0.0
 40
0.0
 40
1.0
 40
1.0
 40
1.0
 40
2.0
 40
2.0
 40
2.0
 40
3.0
 40
3.0
 40
3.0
 40
4.0
 40
4.0
 40
4.0
 40
5.0
 40
5.0
 40
5.0
 40
6.0
 40
6.0
 40
6.0
 40
6.0
 10
86.940085177951374
 20
137.62949761284722
 10
86.940085177951374
 20
137.62949761284722
 10
86.51513264973957
 20
137.89166937934027
 10
85.937045627170136
 20
138.16727701822916
 10
81.170411512586796
 20
140.44724121093748
 10
82.332958984374997
 20
135.8280571831597
 10
77.614900716145826
 20
138.73123914930554
 10
76.94982503255207
 20
139.14086100260414
 10
76.335564507378464
 20
138.14316134982639
 10
77.000984700520831
 20
137.73388400607638
 10
77.000984700520831
 20
137.73388400607638
 10
77.425937228732636
 20
137.47205674913192
 10
78.003679741753459
 20
137.19541558159722
 10
82.764457194010404
 20
134.91717393663194
 10
81.607594129774299
 20
139.52808973524304
 10
86.326513671874991
 20
136.63110894097221
 10
86.991589355468747
 20
136.22217610677083
 10
87.605505371093741
 20
137.22022026909721
 10
86.940085177951374
 20
137.62949761284722
 97
        0
 75
     2
 76
     1
 98
        1
 10
0.0
 20
0.0
  0
HATCH
  5
E5
100
AcDbEntity
  8
EBENE_1
 62
   152
100
AcDbHatch
 10
0.0
 20
0.0
 30
0.0
210
0.0
220
0.0
230
1.0
  2
SOLID
 70
     1
 71
     0
 91
        1
 92
        1
 93
        1
 72
     4
 94
        3
 73
     0
 74
     0
 95
       23
 96
       19
 40
0.0
 40
0.0
 40
0.0
 40
0.0
 40
1.0
 40
1.0
 40
1.0
 40
2.0
 40
2.0
 40
2.0
 40
3.0
 40
3.0
 40
3.0
 40
4.0
 40
4.0
 40
4.0
 40
5.0
 40
5.0
 40
5.0
 40
6.0
 40
6.0
 40
6.0
 40
6.0
 10
86.940085177951374
 20
134.87411024305555
 10
86.940085177951374
 20
134.87411024305555
 10
86.51513264973957
 20
135.13628200954861
 10
85.937045627170136
 20
135.41188964843749
 10
81.170411512586796
 20
137.69185384114581
 10
82.332958984374997
 20
133.07198079427081
 10
77.614900716145826
 20
135.97585177951387
 10
76.94982503255207
 20
136.38547363281248
 10
76.335564507378464
 20
135.38777398003472
 10
77.000984700520831
 20
134.97849663628472
 10
77.000984700520831
 20
134.97849663628472
 10
77.425937228732636
 20
134.71666937934026
 10
78.003679741753459
 20
134.43968370225693
 10
82.764457194010404
 20
132.16109754774305
 10
81.607594129774299
 20
136.77201334635416
 10
86.326513671874991
 20
133.87572157118055
 10
86.991589355468747
 20
133.46644422743054
 10
87.605505371093741
 20
134.46483289930555
 10
86.940085177951374
 20
134.87411024305555
 97
        0
 75
     2
 76
     1
 98
        1
 10
0.0
 20
0.0
  0
HATCH
  5
E4
100
AcDbEntity
  8
EBENE_1
 62
   152
100
AcDbHatch
 10
0.0
 20
0.0
 30
0.0
210
0.0
220
0.0
230
1.0
  2
SOLID
 70
     1
 71
     0
 91
        1
 92
        1
 93
        1
 72
     4
 94
        3
 73
     0
 74
     0
 95
       23
 96
       19
 40
0.0
 40
0.0
 40
0.0
 40
0.0
 40
1.0
 40
1.0
 40
1.0
 40
2.0
 40
2.0
 40
2.0
 40
3.0
 40
3.0
 40
3.0
 40
4.0
 40
4.0
 40
4.0
 40
5.0
 40
5.0
 40
5.0
 40
6.0
 40
6.0
 40
6.0
 40
6.0
 10
86.940085177951374
 20
143.13579372829861
 10
86.940085177951374
 20
143.13579372829861
 10
86.51513264973957
 20
143.39762098524304
 10
85.937045627170136
 20
143.67391764322915
 10
81.170411512586796
 20
145.95353732638887
 10
82.332958984374997
 20
141.33400878906249
 10
77.614900716145826
 20
144.23787977430555
 10
76.94982503255207
 20
144.64715711805553
 10
76.335564507378464
 20
143.64911295572915
 10
77.000984700520831
 20
143.23983561197915
 10
77.000984700520831
 20
143.23983561197915
 10
77.425937228732636
 20
142.97800835503472
 10
78.003679741753459
 20
142.70171169704861
 10
82.764457194010404
 20
140.42312554253471
 10
81.607594129774299
 20
145.03404134114581
 10
86.326513671874991
 20
142.1377495659722
 10
86.991589355468747
 20
141.72847222222222
 10
87.605505371093741
 20
142.7265163845486
 10
86.940085177951374
 20
143.13579372829861
 97
        0
 75
     2
 76
     1
 98
        1
 10
0.0
 20
0.0
  0
HATCH
  5
E2
100
AcDbEntity
  8
SCHRAFFUR
 62
     7
100
AcDbHatch
 10
0.0
 20
0.0
 30
0.0
210
0.0
220
0.0
230
1.0
  2
SOLID
 70
     1
 71
     0
 91
        4
 92
        1
 93
        1
 72
     4
 94
        3
 73
     0
 74
     0
 95
       20
 96
       16
 40
0.0
 40
0.0
 40
0.0
 40
0.0
 40
1.0
 40
1.0
 40
1.0
 40
2.0
 40
2.0
 40
2.0
 40
3.0
 40
3.0
 40
3.0
 40
4.0
 40
4.0
 40
4.0
 40
5.0
 40
5.0
 40
5.0
 40
5.0
 10
109.63878580729165
 20
183.86388481987845
 10
109.63878580729165
 20
183.86388481987845
 10
109.63878580729165
 20
184.34395887586803
 10
109.63878580729165
 20
184.34395887586803
 10
109.63878580729165
 20
184.34395887586803
 10
119.23854437934027
 20
184.34395887586803
 10
119.23854437934027
 20
184.34395887586803
 10
119.23854437934027
 20
184.34395887586803
 10
119.23854437934027
 20
179.01749674479166
 10
119.23854437934027
 20
179.01749674479166
 10
119.23854437934027
 20
179.01749674479166
 10
109.63878580729165
 20
179.01749674479166
 10
109.63878580729165
 20
179.01749674479166
 10
109.63878580729165
 20
179.01749674479166
 10
109.63878580729165
 20
183.86388481987845
 10
109.63878580729165
 20
183.86388481987845
 97
        0
 92
        1
 93
        1
 72
     4
 94
        3
 73
     0
 74
     0
 95
       17
 96
       13
 40
0.0
 40
0.0
 40
0.0
 40
0.0
 40
1.0
 40
1.0
 40
1.0
 40
2.0
 40
2.0
 40
2.0
 40
3.0
 40
3.0
 40
3.0
 40
4.0
 40
4.0
 40
4.0
 40
4.0
 10
109.63878580729165
 20
179.01749674479166
 10
109.63878580729165
 20
179.01749674479166
 10
119.23854437934027
 20
179.01749674479166
 10
119.23854437934027
 20
179.01749674479166
 10
119.23854437934027
 20
179.01749674479166
 10
119.23854437934027
 20
160.34163411458331
 10
119.23854437934027
 20
160.34163411458331
 10
119.23854437934027
 20
160.34163411458331
 10
109.63878580729165
 20
160.34163411458331
 10
109.63878580729165
 20
160.34163411458331
 10
109.63878580729165
 20
160.34163411458331
 10
109.63878580729165
 20
179.01749674479166
 10
109.63878580729165
 20
179.01749674479166
 97
        0
 92
        1
 93
        1
 72
     4
 94
        3
 73
     0
 74
     0
 95
       17
 96
       13
 40
0.0
 40
0.0
 40
0.0
 40
0.0
 40
1.0
 40
1.0
 40
1.0
 40
2.0
 40
2.0
 40
2.0
 40
3.0
 40
3.0
 40
3.0
 40
4.0
 40
4.0
 40
4.0
 40
4.0
 10
109.63878580729165
 20
160.34163411458331
 10
109.63878580729165
 20
160.34163411458331
 10
119.23854437934027
 20
160.34163411458331
 10
119.23854437934027
 20
160.34163411458331
 10
119.23854437934027
 20
160.34163411458331
 10
119.23854437934027
 20
141.67059461805553
 10
119.23854437934027
 20
141.67059461805553
 10
119.23854437934027
 20
141.67059461805553
 10
109.63878580729165
 20
141.67059461805553
 10
109.63878580729165
 20
141.67059461805553
 10
109.63878580729165
 20
141.67059461805553
 10
109.63878580729165
 20
160.34163411458331
 10
109.63878580729165
 20
160.34163411458331
 97
        0
 92
        1
 93
        1
 72
     4
 94
        3
 73
     0
 74
     0
 95
       17
 96
       13
 40
0.0
 40
0.0
 40
0.0
 40
0.0
 40
1.0
 40
1.0
 40
1.0
 40
2.0
 40
2.0
 40
2.0
 40
3.0
 40
3.0
 40
3.0
 40
4.0
 40
4.0
 40
4.0
 40
4.0
 10
109.63878580729165
 20
141.67059461805553
 10
109.63878580729165
 20
141.67059461805553
 10
119.23854437934027
 20
141.67059461805553
 10
119.23854437934027
 20
141.67059461805553
 10
119.23854437934027
 20
141.67059461805553
 10
119.23854437934027
 20
136.34378797743054
 10
119.23854437934027
 20
136.34378797743054
 10
119.23854437934027
 20
136.34378797743054
 10
109.63878580729165
 20
136.34378797743054
 10
109.63878580729165
 20
136.34378797743054
 10
109.63878580729165
 20
136.34378797743054
 10
109.63878580729165
 20
141.67059461805553
 10
109.63878580729165
 20
141.67059461805553
 97
        0
 75
     2
 76
     1
 98
        1
 10
0.0
 20
0.0
  0
HATCH
  5
E1
100
AcDbEntity
  8
SCHRAFFUR
 62
     7
100
AcDbHatch
 10
0.0
 20
0.0
 30
0.0
210
0.0
220
0.0
230
1.0
  2
_U
 70
     0
 71
     0
 91
        5
 92
       16
 93
        1
 72
     4
 94
        3
 73
     0
 74
     0
 95
       17
 96
       13
 40
0.0
 40
0.0
 40
0.0
 40
0.0
 40
1.0
 40
1.0
 40
1.0
 40
2.0
 40
2.0
 40
2.0
 40
3.0
 40
3.0
 40
3.0
 40
4.0
 40
4.0
 40
4.0
 40
4.0
 10
162.43900824652778
 20
136.34378797743054
 10
162.43900824652778
 20
136.34378797743054
 10
152.83856065538194
 20
136.34378797743054
 10
152.83856065538194
 20
136.34378797743054
 10
152.83856065538194
 20
136.34378797743054
 10
152.83856065538194
 20
100.34391818576388
 10
152.83856065538194
 20
100.34391818576388
 10
152.83856065538194
 20
100.34391818576388
 10
162.43900824652778
 20
100.34391818576388
 10
162.43900824652778
 20
100.34391818576388
 10
162.43900824652778
 20
100.34391818576388
 10
162.43900824652778
 20
136.34378797743054
 10
162.43900824652778
 20
136.34378797743054
 97
        0
 92
       16
 93
        1
 72
     4
 94
        3
 73
     0
 74
     0
 95
       17
 96
       13
 40
0.0
 40
0.0
 40
0.0
 40
0.0
 40
1.0
 40
1.0
 40
1.0
 40
2.0
 40
2.0
 40
2.0
 40
3.0
 40
3.0
 40
3.0
 40
4.0
 40
4.0
 40
4.0
 40
4.0
 10
114.43883734809027
 20
130.43407118055555
 10
114.43883734809027
 20
130.43407118055555
 10
104.83907877604166
 20
125.02148166232638
 10
104.83907877604166
 20
125.02148166232638
 10
104.83907877604166
 20
125.02148166232638
 10
104.83907877604166
 20
100.34391818576388
 10
104.83907877604166
 20
100.34391818576388
 10
104.83907877604166
 20
100.34391818576388
 10
114.43883734809027
 20
100.34391818576388
 10
114.43883734809027
 20
100.34391818576388
 10
114.43883734809027
 20
100.34391818576388
 10
114.43883734809027
 20
130.43407118055555
 10
114.43883734809027
 20
130.43407118055555
 97
        0
 92
       16
 93
        1
 72
     4
 94
        3
 73
     0
 74
     0
 95
       17
 96
       13
 40
0.0
 40
0.0
 40
0.0
 40
0.0
 40
1.0
 40
1.0
 40
1.0
 40
2.0
 40
2.0
 40
2.0
 40
3.0
 40
3.0
 40
3.0
 40
4.0
 40
4.0
 40
4.0
 40
4.0
 10
114.43883734809027
 20
136.34378797743054
 10
114.43883734809027
 20
136.34378797743054
 10
104.83907877604166
 20
136.34378797743054
 10
104.83907877604166
 20
136.34378797743054
 10
104.83907877604166
 20
136.34378797743054
 10
104.83907877604166
 20
125.02148166232638
 10
104.83907877604166
 20
125.02148166232638
 10
104.83907877604166
 20
125.02148166232638
 10
114.43883734809027
 20
130.43407118055555
 10
114.43883734809027
 20
130.43407118055555
 10
114.43883734809027
 20
130.43407118055555
 10
114.43883734809027
 20
136.34378797743054
 10
114.43883734809027
 20
136.34378797743054
 97
        0
 92
       16
 93
        1
 72
     4
 94
        3
 73
     0
 74
     0
 95
       17
 96
       13
 40
0.0
 40
0.0
 40
0.0
 40
0.0
 40
1.0
 40
1.0
 40
1.0
 40
2.0
 40
2.0
 40
2.0
 40
3.0
 40
3.0
 40
3.0
 40
4.0
 40
4.0
 40
4.0
 40
4.0
 10
162.43900824652778
 20
220.21636013454858
 10
162.43900824652778
 20
220.21636013454858
 10
152.83856065538194
 20
220.21636013454858
 10
152.83856065538194
 20
220.21636013454858
 10
152.83856065538194
 20
220.21636013454858
 10
152.83856065538194
 20
184.34395887586803
 10
152.83856065538194
 20
184.34395887586803
 10
152.83856065538194
 20
184.34395887586803
 10
162.43900824652778
 20
184.34395887586803
 10
162.43900824652778
 20
184.34395887586803
 10
162.43900824652778
 20
184.34395887586803
 10
162.43900824652778
 20
220.21636013454858
 10
162.43900824652778
 20
220.21636013454858
 97
        0
 92
       16
 93
        1
 72
     4
 94
        3
 73
     0
 74
     0
 95
       17
 96
       13
 40
0.0
 40
0.0
 40
0.0
 40
0.0
 40
1.0
 40
1.0
 40
1.0
 40
2.0
 40
2.0
 40
2.0
 40
3.0
 40
3.0
 40
3.0
 40
4.0
 40
4.0
 40
4.0
 40
4.0
 10
114.43883734809027
 20
220.21636013454858
 10
114.43883734809027
 20
220.21636013454858
 10
104.83907877604166
 20
220.21636013454858
 10
104.83907877604166
 20
220.21636013454858
 10
104.83907877604166
 20
220.21636013454858
 10
104.83907877604166
 20
184.34395887586803
 10
104.83907877604166
 20
184.34395887586803
 10
104.83907877604166
 20
184.34395887586803
 10
114.43883734809027
 20
184.34395887586803
 10
114.43883734809027
 20
184.34395887586803
 10
114.43883734809027
 20
184.34395887586803
 10
114.43883734809027
 20
220.21636013454858
 10
114.43883734809027
 20
220.21636013454858
 97
        0
 75
     0
 76
     0
 52
45.0
 41
2.0
 77
     0
 78
     1
 53
45.0
 43
0.0
 44
0.0
 45
-1.4142135623730949
 46
1.4142135623730951
 79
     0
 98
        1
 10
0.0
 20
0.0
  0
LINE
  5
E0
100
AcDbEntity
  8
SCHRAFFUR
 62
     7
100
AcDbLine
 10
149.20364
 20
220.21636
 30
0.0
 11
151.525979
 21
217.894021
 31
0.0
  0
LINE
  5
DF
100
AcDbEntity
  8
SCHRAFFUR
 62
     7
100
AcDbLine
 10
143.815511
 20
220.21636
 30
0.0
 11
146.13785
 21
217.894021
 31
0.0
  0
LINE
  5
DE
100
AcDbEntity
  8
SCHRAFFUR
 62
     7
100
AcDbLine
 10
148.83157
 20
215.199957
 30
0.0
 11
151.525979
 21
212.506064
 31
0.0
  0
LINE
  5
DD
100
AcDbEntity
  8
SCHRAFFUR
 62
     7
100
AcDbLine
 10
138.427037
 20
220.21636
 30
0.0
 11
140.749376
 21
217.894021
 31
0.0
  0
LINE
  5
DC
100
AcDbEntity
  8
SCHRAFFUR
 62
     7
100
AcDbLine
 10
143.443785
 20
215.199957
 30
0.0
 11
146.13785
 21
212.506064
 31
0.0
  0
LINE
  5
DB
100
AcDbEntity
  8
SCHRAFFUR
 62
     7
100
AcDbLine
 10
148.83157
 20
209.811827
 30
0.0
 11
151.525979
 21
207.117763
 31
0.0
  0
LINE
  5
DA
100
AcDbEntity
  8
SCHRAFFUR
 62
     7
100
AcDbLine
 10
133.039252
 20
220.21636
 30
0.0
 11
135.361591
 21
217.894021
 31
0.0
  0
LINE
  5
D9
100
AcDbEntity
  8
SCHRAFFUR
 62
     7
100
AcDbLine
 10
138.055656
 20
215.199957
 30
0.0
 11
140.749376
 21
212.506064
 31
0.0
  0
LINE
  5
D8
100
AcDbEntity
  8
SCHRAFFUR
 62
     7
100
AcDbLine
 10
143.443785
 20
209.811827
 30
0.0
 11
146.13785
 21
207.117763
 31
0.0
  0
LINE
  5
D7
100
AcDbEntity
  8
SCHRAFFUR
 62
     7
100
AcDbLine
 10
148.83157
 20
204.423698
 30
0.0
 11
151.525979
 21
201.729633
 31
0.0
  0
LINE
  5
D6
100
AcDbEntity
  8
SCHRAFFUR
 62
     7
100
AcDbLine
 10
127.651123
 20
220.21636
 30
0.0
 11
129.973462
 21
217.894021
 31
0.0
  0
LINE
  5
D5
100
AcDbEntity
  8
SCHRAFFUR
 62
     7
100
AcDbLine
 10
132.667182
 20
215.199957
 30
0.0
 11
135.361591
 21
212.506064
 31
0.0
  0
LINE
  5
D4
100
AcDbEntity
  8
SCHRAFFUR
 62
     7
100
AcDbLine
 10
138.055656
 20
209.811827
 30
0.0
 11
140.749376
 21
207.117763
 31
0.0
  0
LINE
  5
D3
100
AcDbEntity
  8
SCHRAFFUR
 62
     7
100
AcDbLine
 10
143.443785
 20
204.423698
 30
0.0
 11
146.13785
 21
201.729633
 31
0.0
  0
LINE
  5
D2
100
AcDbEntity
  8
SCHRAFFUR
 62
     7
100
AcDbLine
 10
148.83157
 20
199.035569
 30
0.0
 11
151.525979
 21
196.341504
 31
0.0
  0
LINE
  5
D1
100
AcDbEntity
  8
SCHRAFFUR
 62
     7
100
AcDbLine
 10
122.262649
 20
220.21636
 30
0.0
 11
124.584988
 21
217.894021
 31
0.0
  0
LINE
  5
D0
100
AcDbEntity
  8
SCHRAFFUR
 62
     7
100
AcDbLine
 10
127.279397
 20
215.199957
 30
0.0
 11
129.973462
 21
212.506064
 31
0.0
  0
LINE
  5
CF
100
AcDbEntity
  8
SCHRAFFUR
 62
     7
100
AcDbLine
 10
132.667182
 20
209.811827
 30
0.0
 11
135.361591
 21
207.117763
 31
0.0
  0
LINE
  5
CE
100
AcDbEntity
  8
SCHRAFFUR
 62
     7
100
AcDbLine
 10
138.055656
 20
204.423698
 30
0.0
 11
140.749376
 21
201.729633
 31
0.0
  0
LINE
  5
CD
100
AcDbEntity
  8
SCHRAFFUR
 62
     7
100
AcDbLine
 10
143.443785
 20
199.035569
 30
0.0
 11
146.13785
 21
196.341504
 31
0.0
  0
LINE
  5
CC
100
AcDbEntity
  8
SCHRAFFUR
 62
     7
100
AcDbLine
 10
148.83157
 20
193.647267
 30
0.0
 11
151.525979
 21
190.953375
 31
0.0
  0
LINE
  5
CB
100
AcDbEntity
  8
SCHRAFFUR
 62
     7
100
AcDbLine
 10
116.87452
 20
220.21636
 30
0.0
 11
119.197203
 21
217.894021
 31
0.0
  0
LINE
  5
CA
100
AcDbEntity
  8
SCHRAFFUR
 62
     7
100
AcDbLine
 10
121.891268
 20
215.199957
 30
0.0
 11
124.584988
 21
212.506064
 31
0.0
  0
LINE
  5
C9
100
AcDbEntity
  8
SCHRAFFUR
 62
     7
100
AcDbLine
 10
127.279397
 20
209.811827
 30
0.0
 11
129.973462
 21
207.117763
 31
0.0
  0
LINE
  5
C8
100
AcDbEntity
  8
SCHRAFFUR
 62
     7
100
AcDbLine
 10
132.667182
 20
204.423698
 30
0.0
 11
135.361591
 21
201.729633
 31
0.0
  0
LINE
  5
C7
100
AcDbEntity
  8
SCHRAFFUR
 62
     7
100
AcDbLine
 10
138.055656
 20
199.035569
 30
0.0
 11
140.749376
 21
196.341504
 31
0.0
  0
LINE
  5
C6
100
AcDbEntity
  8
SCHRAFFUR
 62
     7
100
AcDbLine
 10
143.443785
 20
193.647267
 30
0.0
 11
146.13785
 21
190.953375
 31
0.0
  0
LINE
  5
C5
100
AcDbEntity
  8
SCHRAFFUR
 62
     7
100
AcDbLine
 10
148.83157
 20
188.25931
 30
0.0
 11
151.525979
 21
185.565073
 31
0.0
  0
LINE
  5
C4
100
AcDbEntity
  8
SCHRAFFUR
 62
     7
100
AcDbLine
 10
116.502794
 20
215.199957
 30
0.0
 11
119.197203
 21
212.506064
 31
0.0
  0
LINE
  5
C3
100
AcDbEntity
  8
SCHRAFFUR
 62
     7
100
AcDbLine
 10
121.891268
 20
209.811827
 30
0.0
 11
124.584988
 21
207.117763
 31
0.0
  0
LINE
  5
C2
100
AcDbEntity
  8
SCHRAFFUR
 62
     7
100
AcDbLine
 10
127.279397
 20
204.423698
 30
0.0
 11
129.973462
 21
201.729633
 31
0.0
  0
LINE
  5
C1
100
AcDbEntity
  8
SCHRAFFUR
 62
     7
100
AcDbLine
 10
132.667182
 20
199.035569
 30
0.0
 11
135.361591
 21
196.341504
 31
0.0
  0
LINE
  5
C0
100
AcDbEntity
  8
SCHRAFFUR
 62
     7
100
AcDbLine
 10
138.055656
 20
193.647267
 30
0.0
 11
140.749376
 21
190.953375
 31
0.0
  0
LINE
  5
BF
100
AcDbEntity
  8
SCHRAFFUR
 62
     7
100
AcDbLine
 10
143.443785
 20
188.25931
 30
0.0
 11
146.13785
 21
185.565073
 31
0.0
  0
LINE
  5
BE
100
AcDbEntity
  8
SCHRAFFUR
 62
     7
100
AcDbLine
 10
116.502794
 20
209.811827
 30
0.0
 11
119.197203
 21
207.117763
 31
0.0
  0
LINE
  5
BD
100
AcDbEntity
  8
SCHRAFFUR
 62
     7
100
AcDbLine
 10
121.891268
 20
204.423698
 30
0.0
 11
124.584988
 21
201.729633
 31
0.0
  0
LINE
  5
BC
100
AcDbEntity
  8
SCHRAFFUR
 62
     7
100
AcDbLine
 10
127.279397
 20
199.035569
 30
0.0
 11
129.973462
 21
196.341504
 31
0.0
  0
LINE
  5
BB
100
AcDbEntity
  8
SCHRAFFUR
 62
     7
100
AcDbLine
 10
132.667182
 20
193.647267
 30
0.0
 11
135.361591
 21
190.953375
 31
0.0
  0
LINE
  5
BA
100
AcDbEntity
  8
SCHRAFFUR
 62
     7
100
AcDbLine
 10
138.055656
 20
188.25931
 30
0.0
 11
140.749376
 21
185.565073
 31
0.0
  0
LINE
  5
B9
100
AcDbEntity
  8
SCHRAFFUR
 62
     7
100
AcDbLine
 10
116.502794
 20
204.423698
 30
0.0
 11
119.197203
 21
201.729633
 31
0.0
  0
LINE
  5
B8
100
AcDbEntity
  8
SCHRAFFUR
 62
     7
100
AcDbLine
 10
121.891268
 20
199.035569
 30
0.0
 11
124.584988
 21
196.341504
 31
0.0
  0
LINE
  5
B7
100
AcDbEntity
  8
SCHRAFFUR
 62
     7
100
AcDbLine
 10
127.279397
 20
193.647267
 30
0.0
 11
129.973462
 21
190.953375
 31
0.0
  0
LINE
  5
B6
100
AcDbEntity
  8
SCHRAFFUR
 62
     7
100
AcDbLine
 10
132.667182
 20
188.25931
 30
0.0
 11
135.361591
 21
185.565073
 31
0.0
  0
LINE
  5
B5
100
AcDbEntity
  8
SCHRAFFUR
 62
     7
100
AcDbLine
 10
116.502794
 20
199.035569
 30
0.0
 11
119.197203
 21
196.341504
 31
0.0
  0
LINE
  5
B4
100
AcDbEntity
  8
SCHRAFFUR
 62
     7
100
AcDbLine
 10
121.891268
 20
193.647267
 30
0.0
 11
124.584988
 21
190.953375
 31
0.0
  0
LINE
  5
B3
100
AcDbEntity
  8
SCHRAFFUR
 62
     7
100
AcDbLine
 10
127.279397
 20
188.25931
 30
0.0
 11
129.973462
 21
185.565073
 31
0.0
  0
LINE
  5
B2
100
AcDbEntity
  8
SCHRAFFUR
 62
     7
100
AcDbLine
 10
116.502794
 20
193.647267
 30
0.0
 11
119.197203
 21
190.953375
 31
0.0
  0
LINE
  5
B1
100
AcDbEntity
  8
SCHRAFFUR
 62
     7
100
AcDbLine
 10
121.891268
 20
188.25931
 30
0.0
 11
124.584988
 21
185.565073
 31
0.0
  0
LINE
  5
B0
100
AcDbEntity
  8
SCHRAFFUR
 62
     7
100
AcDbLine
 10
116.502794
 20
188.25931
 30
0.0
 11
119.197203
 21
185.565073
 31
0.0
  0
LINE
  5
AF
100
AcDbEntity
  8
SCHRAFFUR
 62
     7
100
AcDbLine
 10
148.83157
 20
134.378016
 30
0.0
 11
151.525979
 21
131.683607
 31
0.0
  0
LINE
  5
AE
100
AcDbEntity
  8
SCHRAFFUR
 62
     7
100
AcDbLine
 10
143.443785
 20
134.378016
 30
0.0
 11
146.13785
 21
131.683607
 31
0.0
  0
LINE
  5
AD
100
AcDbEntity
  8
SCHRAFFUR
 62
     7
100
AcDbLine
 10
148.83157
 20
128.989543
 30
0.0
 11
151.525979
 21
126.295478
 31
0.0
  0
LINE
  5
AC
100
AcDbEntity
  8
SCHRAFFUR
 62
     7
100
AcDbLine
 10
138.055656
 20
134.378016
 30
0.0
 11
140.749376
 21
131.683607
 31
0.0
  0
LINE
  5
AB
100
AcDbEntity
  8
SCHRAFFUR
 62
     7
100
AcDbLine
 10
143.443785
 20
128.989543
 30
0.0
 11
146.13785
 21
126.295478
 31
0.0
  0
LINE
  5
AA
100
AcDbEntity
  8
SCHRAFFUR
 62
     7
100
AcDbLine
 10
148.83157
 20
123.601413
 30
0.0
 11
151.525979
 21
120.907349
 31
0.0
  0
LINE
  5
A9
100
AcDbEntity
  8
SCHRAFFUR
 62
     7
100
AcDbLine
 10
132.667182
 20
134.378016
 30
0.0
 11
135.361591
 21
131.683607
 31
0.0
  0
LINE
  5
A8
100
AcDbEntity
  8
SCHRAFFUR
 62
     7
100
AcDbLine
 10
138.055656
 20
128.989543
 30
0.0
 11
140.749376
 21
126.295478
 31
0.0
  0
LINE
  5
A7
100
AcDbEntity
  8
SCHRAFFUR
 62
     7
100
AcDbLine
 10
143.443785
 20
123.601413
 30
0.0
 11
146.13785
 21
120.907349
 31
0.0
  0
LINE
  5
A6
100
AcDbEntity
  8
SCHRAFFUR
 62
     7
100
AcDbLine
 10
148.83157
 20
118.213284
 30
0.0
 11
151.525979
 21
115.519219
 31
0.0
  0
LINE
  5
A5
100
AcDbEntity
  8
SCHRAFFUR
 62
     7
100
AcDbLine
 10
127.279397
 20
134.378016
 30
0.0
 11
129.973462
 21
131.683607
 31
0.0
  0
LINE
  5
A4
100
AcDbEntity
  8
SCHRAFFUR
 62
     7
100
AcDbLine
 10
132.667182
 20
128.989543
 30
0.0
 11
135.361591
 21
126.295478
 31
0.0
  0
LINE
  5
A3
100
AcDbEntity
  8
SCHRAFFUR
 62
     7
100
AcDbLine
 10
138.055656
 20
123.601413
 30
0.0
 11
140.749376
 21
120.907349
 31
0.0
  0
LINE
  5
A2
100
AcDbEntity
  8
SCHRAFFUR
 62
     7
100
AcDbLine
 10
143.443785
 20
118.213284
 30
0.0
 11
146.13785
 21
115.519219
 31
0.0
  0
LINE
  5
A1
100
AcDbEntity
  8
SCHRAFFUR
 62
     7
100
AcDbLine
 10
148.83157
 20
112.825155
 30
0.0
 11
151.525979
 21
110.13109
 31
0.0
  0
LINE
  5
A0
100
AcDbEntity
  8
SCHRAFFUR
 62
     7
100
AcDbLine
 10
121.891268
 20
134.378016
 30
0.0
 11
124.584988
 21
131.683607
 31
0.0
  0
LINE
  5
9F
100
AcDbEntity
  8
SCHRAFFUR
 62
     7
100
AcDbLine
 10
127.279397
 20
128.989543
 30
0.0
 11
129.973462
 21
126.295478
 31
0.0
  0
LINE
  5
9E
100
AcDbEntity
  8
SCHRAFFUR
 62
     7
100
AcDbLine
 10
132.667182
 20
123.601413
 30
0.0
 11
135.361591
 21
120.907349
 31
0.0
  0
LINE
  5
9D
100
AcDbEntity
  8
SCHRAFFUR
 62
     7
100
AcDbLine
 10
138.055656
 20
118.213284
 30
0.0
 11
140.749376
 21
115.519219
 31
0.0
  0
LINE
  5
9C
100
AcDbEntity
  8
SCHRAFFUR
 62
     7
100
AcDbLine
 10
143.443785
 20
112.825155
 30
0.0
 11
146.13785
 21
110.13109
 31
0.0
  0
LINE
  5
9B
100
AcDbEntity
  8
SCHRAFFUR
 62
     7
100
AcDbLine
 10
148.83157
 20
107.437025
 30
0.0
 11
151.525979
 21
104.742616
 31
0.0
  0
LINE
  5
9A
100
AcDbEntity
  8
SCHRAFFUR
 62
     7
100
AcDbLine
 10
116.502794
 20
134.378016
 30
0.0
 11
118.280463
 21
132.600003
 31
0.0
  0
LINE
  5
99
100
AcDbEntity
  8
SCHRAFFUR
 62
     7
100
AcDbLine
 10
118.280463
 20
132.600003
 30
0.0
 11
119.197203
 21
131.683607
 31
0.0
  0
LINE
  5
98
100
AcDbEntity
  8
SCHRAFFUR
 62
     7
100
AcDbLine
 10
121.891268
 20
128.989543
 30
0.0
 11
124.584988
 21
126.295478
 31
0.0
  0
LINE
  5
97
100
AcDbEntity
  8
SCHRAFFUR
 62
     7
100
AcDbLine
 10
127.279397
 20
123.601413
 30
0.0
 11
129.973462
 21
120.907349
 31
0.0
  0
LINE
  5
96
100
AcDbEntity
  8
SCHRAFFUR
 62
     7
100
AcDbLine
 10
132.667182
 20
118.213284
 30
0.0
 11
135.361591
 21
115.519219
 31
0.0
  0
LINE
  5
95
100
AcDbEntity
  8
SCHRAFFUR
 62
     7
100
AcDbLine
 10
138.055656
 20
112.825155
 30
0.0
 11
140.749376
 21
110.13109
 31
0.0
  0
LINE
  5
94
100
AcDbEntity
  8
SCHRAFFUR
 62
     7
100
AcDbLine
 10
143.443785
 20
107.437025
 30
0.0
 11
146.13785
 21
104.742616
 31
0.0
  0
LINE
  5
93
100
AcDbEntity
  8
SCHRAFFUR
 62
     7
100
AcDbLine
 10
148.83157
 20
102.048896
 30
0.0
 11
150.536548
 21
100.343918
 31
0.0
  0
LINE
  5
92
100
AcDbEntity
  8
SCHRAFFUR
 62
     7
100
AcDbLine
 10
116.502794
 20
128.989543
 30
0.0
 11
119.197203
 21
126.295478
 31
0.0
  0
LINE
  5
91
100
AcDbEntity
  8
SCHRAFFUR
 62
     7
100
AcDbLine
 10
121.891268
 20
123.601413
 30
0.0
 11
124.584988
 21
120.907349
 31
0.0
  0
LINE
  5
90
100
AcDbEntity
  8
SCHRAFFUR
 62
     7
100
AcDbLine
 10
127.279397
 20
118.213284
 30
0.0
 11
129.973462
 21
115.519219
 31
0.0
  0
LINE
  5
8F
100
AcDbEntity
  8
SCHRAFFUR
 62
     7
100
AcDbLine
 10
132.667182
 20
112.825155
 30
0.0
 11
135.361591
 21
110.13109
 31
0.0
  0
LINE
  5
8E
100
AcDbEntity
  8
SCHRAFFUR
 62
     7
100
AcDbLine
 10
138.055656
 20
107.437025
 30
0.0
 11
140.749376
 21
104.742616
 31
0.0
  0
LINE
  5
8D
100
AcDbEntity
  8
SCHRAFFUR
 62
     7
100
AcDbLine
 10
143.443785
 20
102.048896
 30
0.0
 11
145.148763
 21
100.343918
 31
0.0
  0
LINE
  5
8C
100
AcDbEntity
  8
SCHRAFFUR
 62
     7
100
AcDbLine
 10
116.502794
 20
123.601413
 30
0.0
 11
119.197203
 21
120.907349
 31
0.0
  0
LINE
  5
8B
100
AcDbEntity
  8
SCHRAFFUR
 62
     7
100
AcDbLine
 10
121.891268
 20
118.213284
 30
0.0
 11
124.584988
 21
115.519219
 31
0.0
  0
LINE
  5
8A
100
AcDbEntity
  8
SCHRAFFUR
 62
     7
100
AcDbLine
 10
127.279397
 20
112.825155
 30
0.0
 11
129.973462
 21
110.13109
 31
0.0
  0
LINE
  5
89
100
AcDbEntity
  8
SCHRAFFUR
 62
     7
100
AcDbLine
 10
132.667182
 20
107.437025
 30
0.0
 11
135.361591
 21
104.742616
 31
0.0
  0
LINE
  5
88
100
AcDbEntity
  8
SCHRAFFUR
 62
     7
100
AcDbLine
 10
138.055656
 20
102.048896
 30
0.0
 11
139.760289
 21
100.343918
 31
0.0
  0
LINE
  5
87
100
AcDbEntity
  8
SCHRAFFUR
 62
     7
100
AcDbLine
 10
116.502794
 20
118.213284
 30
0.0
 11
119.197203
 21
115.519219
 31
0.0
  0
LINE
  5
86
100
AcDbEntity
  8
SCHRAFFUR
 62
     7
100
AcDbLine
 10
121.891268
 20
112.825155
 30
0.0
 11
124.584988
 21
110.13109
 31
0.0
  0
LINE
  5
85
100
AcDbEntity
  8
SCHRAFFUR
 62
     7
100
AcDbLine
 10
127.279397
 20
107.437025
 30
0.0
 11
129.973462
 21
104.742616
 31
0.0
  0
LINE
  5
84
100
AcDbEntity
  8
SCHRAFFUR
 62
     7
100
AcDbLine
 10
132.667182
 20
102.048896
 30
0.0
 11
134.37216
 21
100.343918
 31
0.0
  0
LINE
  5
83
100
AcDbEntity
  8
SCHRAFFUR
 62
     7
100
AcDbLine
 10
116.502794
 20
112.825155
 30
0.0
 11
119.197203
 21
110.13109
 31
0.0
  0
LINE
  5
82
100
AcDbEntity
  8
SCHRAFFUR
 62
     7
100
AcDbLine
 10
121.891268
 20
107.437025
 30
0.0
 11
124.584988
 21
104.742616
 31
0.0
  0
LINE
  5
81
100
AcDbEntity
  8
SCHRAFFUR
 62
     7
100
AcDbLine
 10
127.279397
 20
102.048896
 30
0.0
 11
128.984375
 21
100.343918
 31
0.0
  0
LINE
  5
80
100
AcDbEntity
  8
SCHRAFFUR
 62
     7
100
AcDbLine
 10
116.502794
 20
107.437025
 30
0.0
 11
119.197203
 21
104.742616
 31
0.0
  0
LINE
  5
7F
100
AcDbEntity
  8
SCHRAFFUR
 62
     7
100
AcDbLine
 10
121.891268
 20
102.048896
 30
0.0
 11
123.595901
 21
100.343918
 31
0.0
  0
LINE
  5
7E
100
AcDbEntity
  8
SCHRAFFUR
 62
     7
100
AcDbLine
 10
116.502794
 20
102.048896
 30
0.0
 11
118.207772
 21
100.343918
 31
0.0
  0
LINE
  5
7C
100
AcDbEntity
  8
MITTELLINIE
 62
     7
100
AcDbLine
 10
105.379614
 20
179.017497
 30
0.0
 11
123.758854
 21
179.017497
 31
0.0
  0
LINE
  5
7B
100
AcDbEntity
  8
MITTELLINIE
 62
     7
100
AcDbLine
 10
105.573918
 20
141.670595
 30
0.0
 11
123.758854
 21
141.670595
 31
0.0
  0
LINE
  5
7A
100
AcDbEntity
  8
MITTELLINIE
  6
AI9-LType1
 62
     7
100
AcDbLine
 10
174.73042
 20
160.341634
 30
0.0
 11
93.454244
 21
160.341634
 31
0.0
  0
LINE
  5
77
100
AcDbEntity
  8
AM_8
 62
     7
100
AcDbLine
 10
109.35491
 20
194.386757
 30
0.0
 11
87.828403
 21
199.014209
 31
0.0
  0
LINE
  5
76
100
AcDbEntity
  8
AM_8
 62
     7
100
AcDbLine
 10
124.920885
 20
136.343788
 30
0.0
 11
86.259334
 21
114.545635
 31
0.0
  0
LINE
  5
75
100
AcDbEntity
  8
AM_8
 62
     7
100
AcDbLine
 10
114.977995
 20
180.524726
 30
0.0
 11
63.238517
 21
174.460324
 31
0.0
  0
LINE
  5
73
100
AcDbEntity
  8
KOERPER
 62
     7
100
AcDbLine
 10
162.439008
 20
220.21636
 30
0.0
 11
162.439008
 21
184.343959
 31
0.0
  0
LINE
  5
72
100
AcDbEntity
  8
KOERPER
 62
     7
100
AcDbLine
 10
162.439008
 20
136.343788
 30
0.0
 11
162.439008
 21
100.343918
 31
0.0
  0
LINE
  5
71
100
AcDbEntity
  8
KOERPER
 62
     7
100
AcDbLine
 10
162.439008
 20
184.343959
 30
0.0
 11
104.839079
 21
184.343959
 31
0.0
  0
LINE
  5
70
100
AcDbEntity
  8
KOERPER
 62
     7
100
AcDbLine
 10
162.439008
 20
136.343788
 30
0.0
 11
104.839079
 21
136.343788
 31
0.0
  0
LINE
  5
6F
100
AcDbEntity
  8
KOERPER
 62
     7
100
AcDbLine
 10
152.838561
 20
220.21636
 30
0.0
 11
152.838561
 21
184.343959
 31
0.0
  0
LINE
  5
6E
100
AcDbEntity
  8
KOERPER
 62
     7
100
AcDbLine
 10
152.838561
 20
136.343788
 30
0.0
 11
152.838561
 21
100.343918
 31
0.0
  0
LINE
  5
6D
100
AcDbEntity
  8
KOERPER
 62
     7
100
AcDbLine
 10
114.438837
 20
100.343918
 30
0.0
 11
114.438837
 21
136.343788
 31
0.0
  0
LINE
  5
6C
100
AcDbEntity
  8
KOERPER
 62
     7
100
AcDbLine
 10
114.438837
 20
184.343959
 30
0.0
 11
114.438837
 21
220.21636
 31
0.0
  0
LINE
  5
6B
100
AcDbEntity
  8
KOERPER
 62
     7
100
AcDbLine
 10
104.839079
 20
220.21636
 30
0.0
 11
104.839079
 21
184.343959
 31
0.0
  0
LINE
  5
6A
100
AcDbEntity
  8
KOERPER
 62
     7
100
AcDbLine
 10
104.839079
 20
136.343788
 30
0.0
 11
104.839079
 21
100.216105
 31
0.0
  0
LINE
  5
69
100
AcDbEntity
  8
KOERPER
 62
     7
100
AcDbLine
 10
162.439008
 20
184.343959
 30
0.0
 11
162.439008
 21
173.541517
 31
0.0
  0
LINE
  5
68
100
AcDbEntity
  8
KOERPER
 62
     7
100
AcDbLine
 10
162.439008
 20
147.141751
 30
0.0
 11
162.439008
 21
136.343788
 31
0.0
  0
LINE
  5
67
100
AcDbEntity
  8
KOERPER
 62
     7
100
AcDbLine
 10
104.839079
 20
184.343959
 30
0.0
 11
104.839079
 21
173.541517
 31
0.0
  0
LINE
  5
66
100
AcDbEntity
  8
KOERPER
 62
     7
100
AcDbLine
 10
104.839079
 20
147.141751
 30
0.0
 11
104.839079
 21
136.343788
 31
0.0
  0
LINE
  5
65
100
AcDbEntity
  8
KOERPER
 62
     7
100
AcDbLine
 10
121.158841
 20
183.863885
 30
0.0
 11
121.158841
 21
136.82369
 31
0.0
  0
LINE
  5
64
100
AcDbEntity
  8
KOERPER
 62
     7
100
AcDbLine
 10
121.158841
 20
136.82369
 30
0.0
 11
119.238544
 21
136.82369
 31
0.0
  0
LINE
  5
63
100
AcDbEntity
  8
KOERPER
 62
     7
100
AcDbLine
 10
119.238544
 20
183.863885
 30
0.0
 11
121.158841
 21
183.863885
 31
0.0
  0
LINE
  5
62
100
AcDbEntity
  8
KOERPER
 62
     7
100
AcDbLine
 10
109.638786
 20
136.343788
 30
0.0
 11
119.238544
 21
136.343788
 31
0.0
  0
LINE
  5
61
100
AcDbEntity
  8
KOERPER
 62
     7
100
AcDbLine
 10
119.238544
 20
136.82369
 30
0.0
 11
119.238544
 21
183.863885
 31
0.0
  0
LINE
  5
60
100
AcDbEntity
  8
KOERPER
 62
     7
100
AcDbLine
 10
109.638786
 20
136.82369
 30
0.0
 11
107.718834
 21
136.82369
 31
0.0
  0
LINE
  5
5F
100
AcDbEntity
  8
KOERPER
 62
     7
100
AcDbLine
 10
109.638786
 20
184.343959
 30
0.0
 11
109.638786
 21
136.343788
 31
0.0
  0
LINE
  5
5E
100
AcDbEntity
  8
KOERPER
 62
     7
100
AcDbLine
 10
119.238544
 20
136.343788
 30
0.0
 11
119.238544
 21
184.343959
 31
0.0
  0
LINE
  5
5D
100
AcDbEntity
  8
KOERPER
 62
     7
100
AcDbLine
 10
109.638786
 20
183.863885
 30
0.0
 11
109.638786
 21
136.82369
 31
0.0
  0
LINE
  5
5C
100
AcDbEntity
  8
KOERPER
 62
     7
100
AcDbLine
 10
119.238544
 20
184.343959
 30
0.0
 11
109.638786
 21
184.343959
 31
0.0
  0
LINE
  5
5B
100
AcDbEntity
  8
KOERPER
 62
     7
100
AcDbLine
 10
107.718834
 20
136.82369
 30
0.0
 11
107.718834
 21
183.863885
 31
0.0
  0
LINE
  5
5A
100
AcDbEntity
  8
KOERPER
 62
     7
100
AcDbLine
 10
107.718834
 20
183.863885
 30
0.0
 11
109.638786
 21
183.863885
 31
0.0
  0
LINE
  5
59
100
AcDbEntity
  8
KOERPER
 62
     7
100
AcDbLine
 10
170.203564
 20
173.541517
 30
0.0
 11
121.158841
 21
173.541517
 31
0.0
  0
LINE
  5
58
100
AcDbEntity
  8
KOERPER
 62
     7
100
AcDbLine
 10
107.718834
 20
173.541517
 30
0.0
 11
98.325954
 21
173.541517
 31
0.0
  0
LINE
  5
57
100
AcDbEntity
  8
KOERPER
 62
     7
100
AcDbLine
 10
170.203564
 20
147.141751
 30
0.0
 11
121.158841
 21
147.141751
 31
0.0
  0
LINE
  5
56
100
AcDbEntity
  8
KOERPER
 62
     7
100
AcDbLine
 10
107.718834
 20
147.141751
 30
0.0
 11
98.325954
 21
147.141751
 31
0.0
  0
SPLINE
  5
55
100
AcDbEntity
  8
KOERPER
 62
     7
100
AcDbSpline
210
0.0
220
0.0
230
1.0
 70
     8
 71
     3
 72
     8
 73
     4
 74
     0
 42
0.00000001
 43
0.00000001
 40
0.0
 40
0.0
 40
0.0
 40
0.0
 40
1.0
 40
1.0
 40
1.0
 40
1.0
 10
170.28624674479164
 20
157.41123589409722
 30
0.0
 10
171.86754557291664
 20
161.97013075086804
 30
0.0
 10
172.55001898871527
 20
166.79205864800346
 30
0.0
 10
172.29680447048611
 20
171.61036919487844
 30
0.0
  0
SPLINE
  5
54
100
AcDbEntity
  8
KOERPER
 62
     7
100
AcDbSpline
210
0.0
220
0.0
230
1.0
 70
     8
 71
     3
 72
     8
 73
     4
 74
     0
 42
0.00000001
 43
0.00000001
 40
0.0
 40
0.0
 40
0.0
 40
0.0
 40
1.0
 40
1.0
 40
1.0
 40
1.0
 10
168.61399739583331
 20
164.34862467447914
 30
0.0
 10
169.07116156684026
 20
162.01302218967012
 30
0.0
 10
169.62926703559026
 20
159.69877929687499
 30
0.0
 10
170.28624674479164
 20
157.41123589409722
 30
0.0
  0
SPLINE
  5
53
100
AcDbEntity
  8
KOERPER
 62
     7
100
AcDbSpline
210
0.0
220
0.0
230
1.0
 70
     8
 71
     3
 72
     8
 73
     4
 74
     0
 42
0.00000001
 43
0.00000001
 40
0.0
 40
0.0
 40
0.0
 40
0.0
 40
1.0
 40
1.0
 40
1.0
 40
1.0
 10
168.1141140407986
 20
171.65050455729164
 30
0.0
 10
167.97941080729166
 20
169.0508355034722
 30
0.0
 10
168.17784830729164
 20
166.44479302300346
 30
0.0
 10
168.70391438802082
 20
163.89559461805555
 30
0.0
  0
SPLINE
  5
52
100
AcDbEntity
  8
KOERPER
 62
     7
100
AcDbSpline
210
0.0
220
0.0
230
1.0
 70
     8
 71
     3
 72
     8
 73
     4
 74
     0
 42
0.00000001
 43
0.00000001
 40
0.0
 40
0.0
 40
0.0
 40
0.0
 40
1.0
 40
1.0
 40
1.0
 40
1.0
 10
170.28624674479164
 20
157.41123589409722
 30
0.0
 10
171.24846191406249
 20
162.02232394748262
 30
0.0
 10
171.52338053385415
 20
166.75020073784719
 30
0.0
 10
171.10376790364583
 20
171.44138726128472
 30
0.0
  0
SPLINE
  5
51
100
AcDbEntity
  8
KOERPER
 62
     7
100
AcDbSpline
210
0.0
220
0.0
230
1.0
 70
     8
 71
     3
 72
     8
 73
     4
 74
     0
 42
0.00000001
 43
0.00000001
 40
0.0
 40
0.0
 40
0.0
 40
0.0
 40
1.0
 40
1.0
 40
1.0
 40
1.0
 10
169.30370551215276
 20
171.44138726128472
 30
0.0
 10
168.97573242187499
 20
166.74193250868055
 30
0.0
 10
169.30680609809025
 20
162.01939561631943
 30
0.0
 10
170.28624674479164
 20
157.41123589409722
 30
0.0
  0
SPLINE
  5
50
100
AcDbEntity
  8
KOERPER
 62
     7
100
AcDbSpline
210
0.0
220
0.0
230
1.0
 70
     8
 71
     3
 72
    11
 73
     7
 74
     0
 42
0.00000001
 43
0.00000001
 40
0.0
 40
0.0
 40
0.0
 40
0.0
 40
1.0
 40
1.0
 40
1.0
 40
2.0
 40
2.0
 40
2.0
 40
2.0
 10
171.10376790364583
 20
171.44138726128472
 30
0.0
 10
171.10376790364583
 20
171.93851453993054
 30
0.0
 10
170.70069173177083
 20
172.34159071180554
 30
0.0
 10
170.20356445312498
 20
172.34159071180554
 30
0.0
 10
169.70678168402776
 20
172.34159071180554
 30
0.0
 10
169.30370551215276
 20
171.93851453993054
 30
0.0
 10
169.30370551215276
 20
171.44138726128472
 30
0.0
  0
SPLINE
  5
4F
100
AcDbEntity
  8
KOERPER
 62
     7
100
AcDbSpline
210
0.0
220
0.0
230
1.0
 70
     8
 71
     3
 72
    11
 73
     7
 74
     0
 42
0.00000001
 43
0.00000001
 40
0.0
 40
0.0
 40
0.0
 40
0.0
 40
1.0
 40
1.0
 40
1.0
 40
2.0
 40
2.0
 40
2.0
 40
2.0
 10
172.30369466145831
 20
171.48582899305555
 30
0.0
 10
172.27888997395831
 20
172.64544813368053
 30
0.0
 10
171.31908637152776
 20
173.56563313802081
 30
0.0
 10
170.15946723090275
 20
173.54100070529512
 30
0.0
 10
169.01431749131942
 20
173.51671278211805
 30
0.0
 10
168.10033365885414
 20
172.57981906467012
 30
0.0
 10
168.10377875434025
 20
171.43484157986109
 30
0.0
  0
SPLINE
  5
4E
100
AcDbEntity
  8
KOERPER
 62
     7
100
AcDbSpline
210
0.0
220
0.0
230
1.0
 70
     8
 71
     3
 72
     8
 73
     4
 74
     0
 42
0.00000001
 43
0.00000001
 40
0.0
 40
0.0
 40
0.0
 40
0.0
 40
1.0
 40
1.0
 40
1.0
 40
1.0
 10
170.28624674479164
 20
157.41123589409722
 30
0.0
 10
170.84779730902775
 20
154.88632541232639
 30
0.0
 10
171.48617350260415
 20
152.37898491753469
 30
0.0
 10
172.20034179687499
 20
149.89283175998261
 30
0.0
  0
SPLINE
  5
4D
100
AcDbEntity
  8
KOERPER
 62
     7
100
AcDbSpline
210
0.0
220
0.0
230
1.0
 70
     8
 71
     3
 72
     8
 73
     4
 74
     0
 42
0.00000001
 43
0.00000001
 40
0.0
 40
0.0
 40
0.0
 40
0.0
 40
1.0
 40
1.0
 40
1.0
 40
1.0
 10
171.41210394965276
 20
147.52415635850693
 30
0.0
 10
172.04669053819444
 20
148.17769097222222
 30
0.0
 10
172.32953287760415
 20
149.09701470269096
 30
0.0
 10
172.17140299479166
 20
149.99463433159721
 30
0.0
  0
SPLINE
  5
4C
100
AcDbEntity
  8
KOERPER
 62
     7
100
AcDbSpline
210
0.0
220
0.0
230
1.0
 70
     8
 71
     3
 72
     8
 73
     4
 74
     0
 42
0.00000001
 43
0.00000001
 40
0.0
 40
0.0
 40
0.0
 40
0.0
 40
1.0
 40
1.0
 40
1.0
 40
1.0
 10
170.20356445312498
 20
147.14175075954859
 30
0.0
 10
170.63661295572916
 20
147.14175075954859
 30
0.0
 10
171.05829264322915
 20
147.27473144531248
 30
0.0
 10
171.41210394965276
 20
147.52415635850693
 30
0.0
  0
SPLINE
  5
4B
100
AcDbEntity
  8
KOERPER
 62
     7
100
AcDbSpline
210
0.0
220
0.0
230
1.0
 70
     8
 71
     3
 72
     8
 73
     4
 74
     0
 42
0.00000001
 43
0.00000001
 40
0.0
 40
0.0
 40
0.0
 40
0.0
 40
1.0
 40
1.0
 40
1.0
 40
1.0
 10
98.243271213107633
 20
163.27134331597222
 30
0.0
 10
97.681892903645831
 20
165.79659830729165
 30
0.0
 10
97.043344455295127
 20
168.30393880208331
 30
0.0
 10
96.329520670572904
 20
170.79026421440972
 30
0.0
  0
SPLINE
  5
4A
100
AcDbEntity
  8
KOERPER
 62
     7
100
AcDbSpline
210
0.0
220
0.0
230
1.0
 70
     8
 71
     3
 72
     8
 73
     4
 74
     0
 42
0.00000001
 43
0.00000001
 40
0.0
 40
0.0
 40
0.0
 40
0.0
 40
1.0
 40
1.0
 40
1.0
 40
1.0
 10
97.117586263020826
 20
173.1591118706597
 30
0.0
 10
96.482655164930549
 20
172.50523274739581
 30
0.0
 10
96.200501844618046
 20
171.58608127170137
 30
0.0
 10
96.358631727430549
 20
170.68846164279512
 30
0.0
  0
SPLINE
  5
49
100
AcDbEntity
  8
KOERPER
 62
     7
100
AcDbSpline
210
0.0
220
0.0
230
1.0
 70
     8
 71
     3
 72
     8
 73
     4
 74
     0
 42
0.00000001
 43
0.00000001
 40
0.0
 40
0.0
 40
0.0
 40
0.0
 40
1.0
 40
1.0
 40
1.0
 40
1.0
 10
98.32595350477429
 20
173.54151746961804
 30
0.0
 10
97.893249511718736
 20
173.54151746961804
 30
0.0
 10
97.471569824218747
 20
173.40784776475692
 30
0.0
 10
97.117586263020826
 20
173.1591118706597
 30
0.0
  0
SPLINE
  5
48
100
AcDbEntity
  8
KOERPER
 62
     7
100
AcDbSpline
210
0.0
220
0.0
230
1.0
 70
     8
 71
     3
 72
     8
 73
     4
 74
     0
 42
0.00000001
 43
0.00000001
 40
0.0
 40
0.0
 40
0.0
 40
0.0
 40
1.0
 40
1.0
 40
1.0
 40
1.0
 10
98.243271213107633
 20
163.27134331597222
 30
0.0
 10
96.662316894531244
 20
158.71296522352429
 30
0.0
 10
95.97967122395832
 20
153.89103732638887
 30
0.0
 10
96.232885742187491
 20
149.07272677951389
 30
0.0
  0
SPLINE
  5
47
100
AcDbEntity
  8
KOERPER
 62
     7
100
AcDbSpline
210
0.0
220
0.0
230
1.0
 70
     8
 71
     3
 72
     8
 73
     4
 74
     0
 42
0.00000001
 43
0.00000001
 40
0.0
 40
0.0
 40
0.0
 40
0.0
 40
1.0
 40
1.0
 40
1.0
 40
1.0
 10
100.41557617187499
 20
149.03241916232636
 30
0.0
 10
100.55045166015624
 20
151.63174370659721
 30
0.0
 10
100.35218641493054
 20
154.23830295138887
 30
0.0
 10
99.825603569878467
 20
156.7875013563368
 30
0.0
  0
SPLINE
  5
46
100
AcDbEntity
  8
KOERPER
 62
     7
100
AcDbSpline
210
0.0
220
0.0
230
1.0
 70
     8
 71
     3
 72
     8
 73
     4
 74
     0
 42
0.00000001
 43
0.00000001
 40
0.0
 40
0.0
 40
0.0
 40
0.0
 40
1.0
 40
1.0
 40
1.0
 40
1.0
 10
98.243271213107633
 20
163.27134331597222
 30
0.0
 10
97.28140055338541
 20
158.66025526258679
 30
0.0
 10
97.006137424045136
 20
153.93289523654514
 30
0.0
 10
97.42575005425347
 20
149.24170871310761
 30
0.0
  0
SPLINE
  5
45
100
AcDbEntity
  8
KOERPER
 62
     7
100
AcDbSpline
210
0.0
220
0.0
230
1.0
 70
     8
 71
     3
 72
     8
 73
     4
 74
     0
 42
0.00000001
 43
0.00000001
 40
0.0
 40
0.0
 40
0.0
 40
0.0
 40
1.0
 40
1.0
 40
1.0
 40
1.0
 10
99.225984700520826
 20
149.24170871310761
 30
0.0
 10
99.553785536024293
 20
153.94116346571178
 30
0.0
 10
99.223056369357636
 20
158.6633558485243
 30
0.0
 10
98.243271213107633
 20
163.27134331597222
 30
0.0
  0
SPLINE
  5
44
100
AcDbEntity
  8
KOERPER
 62
     7
100
AcDbSpline
210
0.0
220
0.0
230
1.0
 70
     8
 71
     3
 72
     8
 73
     4
 74
     0
 42
0.00000001
 43
0.00000001
 40
0.0
 40
0.0
 40
0.0
 40
0.0
 40
1.0
 40
1.0
 40
1.0
 40
1.0
 10
99.915520562065964
 20
156.33429904513886
 30
0.0
 10
99.458184136284714
 20
158.67007378472221
 30
0.0
 10
98.900423177083326
 20
160.98448893229164
 30
0.0
 10
98.243271213107633
 20
163.27134331597222
 30
0.0
  0
SPLINE
  5
43
100
AcDbEntity
  8
KOERPER
 62
     7
100
AcDbSpline
210
0.0
220
0.0
230
1.0
 70
     8
 71
     3
 72
    11
 73
     7
 74
     0
 42
0.00000001
 43
0.00000001
 40
0.0
 40
0.0
 40
0.0
 40
0.0
 40
1.0
 40
1.0
 40
1.0
 40
2.0
 40
2.0
 40
2.0
 40
2.0
 10
97.42575005425347
 20
149.24170871310761
 30
0.0
 10
97.42575005425347
 20
148.74458143446179
 30
0.0
 10
97.82882622612847
 20
148.34150526258679
 30
0.0
 10
98.32595350477429
 20
148.34150526258679
 30
0.0
 10
98.822908528645826
 20
148.34150526258679
 30
0.0
 10
99.225984700520826
 20
148.74458143446179
 30
0.0
 10
99.225984700520826
 20
149.24170871310761
 30
0.0
  0
SPLINE
  5
42
100
AcDbEntity
  8
KOERPER
 62
     7
100
AcDbSpline
210
0.0
220
0.0
230
1.0
 70
     8
 71
     3
 72
    11
 73
     7
 74
     0
 42
0.00000001
 43
0.00000001
 40
0.0
 40
0.0
 40
0.0
 40
0.0
 40
1.0
 40
1.0
 40
1.0
 40
2.0
 40
2.0
 40
2.0
 40
2.0
 10
96.226340060763874
 20
149.19726698133678
 30
0.0
 10
96.25097249348957
 20
148.0376478407118
 30
0.0
 10
97.210776095920124
 20
147.11729058159722
 30
0.0
 10
98.370395236545136
 20
147.14209526909721
 30
0.0
 10
99.515028211805543
 20
147.16655544704861
 30
0.0
 10
100.42918429904513
 20
148.10276014539929
 30
0.0
 10
100.42591145833332
 20
149.24790988498262
 30
0.0
  0
MTEXT
  5
41
100
AcDbEntity
  8
KOERPER
 62
     7
100
AcDbMText
 10
34.878663
 20
121.237388
 30
0.0
 40
5.512152
 41
0.0
 71
     1
 72
     2
  1
\fArial|b0|i0;\H5.5122;\C7;\U+004B\U+0065\U+0072\U+006E\U+0062\U+006F\U+0068\U+0072\U+0075\U+006E\U+0067
  7
STD
210
0.0
220
0.0
230
1.0
 73
     1
 44
1.0
  0
MTEXT
  5
3F
100
AcDbEntity
  8
TEXT
 62
     7
100
AcDbMText
 10
34.264575
 20
200.858885
 30
0.0
 40
5.512152
 41
0.0
 71
     1
 72
     2
  1
\fArial|b0|i0;\H5.5122;\C7;\U+0045\U+006C\U+0065\U+006D\U+0065\U+006E\U+0074\U+0077\U+0061\U+006E\U+0064
  7
STD
210
0.0
220
0.0
230
1.0
 73
     1
 44
1.0
  0
MTEXT
  5
3E
100
AcDbEntity
  8
TEXT
 62
     7
100
AcDbMText
 10
34.264575
 20
208.267218
 30
0.0
 40
5.512152
 41
0.0
 71
     1
 72
     2
  1
\fArial|b0|i0;\H5.5122;\C7;\U+0044\U+006F\U+0070\U+0070\U+0065\U+006C\U+002F\U+002D
  7
STD
210
0.0
220
0.0
230
1.0
 73
     1
 44
1.0
  0
INSERT
  5
38
100
AcDbEntity
  8
TEXT
 62
     7
100
AcDbBlockReference
  2
AI9-BLK1
 10
50.611984
 20
168.341663
 30
0.0
  0
POLYLINE
  5
30
100
AcDbEntity
  8
RAHMEN
 62
     7
100
AcDb2dPolyline
 66
     1
 10
0.0
 20
0.0
 30
0.0
 70
     1
  0
VERTEX
  5
31
100
AcDbEntity
  8
RAHMEN
 62
     7
100
AcDbVertex
100
AcDb2dVertex
 10
24.520639
 20
233.879609
 30
0.0
  0
VERTEX
  5
32
100
AcDbEntity
  8
RAHMEN
 62
     7
100
AcDbVertex
100
AcDb2dVertex
 10
24.520639
 20
89.620025
 30
0.0
  0
VERTEX
  5
33
100
AcDbEntity
  8
RAHMEN
 62
     7
100
AcDbVertex
100
AcDb2dVertex
 10
186.188463
 20
89.620025
 30
0.0
  0
VERTEX
  5
34
100
AcDbEntity
  8
RAHMEN
 62
     7
100
AcDbVertex
100
AcDb2dVertex
 10
186.188463
 20
233.879609
 30
0.0
  0
SEQEND
  5
35
100
AcDbEntity
  8
RAHMEN
 62
     7
  0
POLYLINE
  5
2A
100
AcDbEntity
  8
RAHMEN
 62
     7
100
AcDb2dPolyline
 66
     1
 10
0.0
 20
0.0
 30
0.0
 70
     1
  0
VERTEX
  5
2B
100
AcDbEntity
  8
RAHMEN
 62
     7
100
AcDbVertex
100
AcDb2dVertex
 10
167.027875
 20
106.22573
 30
0.0
  0
VERTEX
  5
2C
100
AcDbEntity
  8
RAHMEN
 62
     7
100
AcDbVertex
100
AcDb2dVertex
 10
186.077875
 20
106.22573
 30
0.0
  0
VERTEX
  5
2D
100
AcDbEntity
  8
RAHMEN
 62
     7
100
AcDbVertex
100
AcDb2dVertex
 10
186.077875
 20
89.468096
 30
0.0
  0
VERTEX
  5
2E
100
AcDbEntity
  8
RAHMEN
 62
     7
100
AcDbVertex
100
AcDb2dVertex
 10
167.027875
 20
89.468096
 30
0.0
  0
SEQEND
  5
2F
100
AcDbEntity
  8
RAHMEN
 62
     7
  0
MTEXT
  5
29
100
AcDbEntity
  8
RAHMEN
 62
     7
100
AcDbMText
 10
168.174059
 20
103.769229
 30
0.0
 40
9.449404
 41
0.0
 71
     1
 72
     2
  1
\fMyriad Roman|b0|i0;\H9.4494;\C7;\U+0034\U+002E\U+0032
  7
STD
210
0.0
220
0.0
230
1.0
 73
     1
 44
1.0
  0
ENDSEC
  0
SECTION
  2
OBJECTS
  0
DICTIONARY
  5
19
100
AcDbDictionary
280
     0
281
     1
  3
ACAD_GROUP
350
1A
  3
ACAD_MLINESTYLE
350
1B
  3
ACAD_LAYOUT
350
1E
  3
ACAD_PLOTSETTINGS
350
22
  3
ACAD_PLOTSTYLENAME
350
1F
  3
ACAD_WIPEOUT_VARS
350
23
  0
DICTIONARY
  5
1A
102
{ACAD_REACTORS
330
19
102
}
100
AcDbDictionary
280
     0
281
     1
  0
DICTIONARY
  5
1B
102
{ACAD_REACTORS
330
19
102
}
100
AcDbDictionary
280
     0
281
     1
  3
Standard
350
1C
  0
MLINESTYLE
  5
1C
102
{ACAD_REACTORS
330
1B
102
}
100
AcDbMlineStyle
  2
Standard
 70
     0
  3

 62
     0
 51
90.0
 52
90.0
 71
     2
 49
0.5
 62
   256
  6
ByLayer
 49
-0.5
 62
   256
  6
ByLayer
  0
ACDBDICTIONARYWDFLT
  5
1F
102
{ACAD_REACTORS
330
19
102
}
100
AcDbDictionary
281
     1
  3
Normal
350
1D
100
AcDbDictionaryWithDefault
340
1D
  0
ACDBPLACEHOLDER
  5
1D
102
{ACAD_REACTORS
330
1F
102
}
  0
LAYOUT
  5
20
102
{ACAD_REACTORS
330
1E
102
}
100
AcDbPlotSettings
  1

  2

  4

  6

 40
0.0
 41
0.0
 42
0.0
 43
0.0
 44
0.0
 45
0.0
 46
0.0
 47
0.0
 48
0.0
 49
0.0
140
0.0
141
0.0
142
1.0
143
1.0
 70
  1024
 72
     0
 73
     0
 74
     0
  7

 75
     0
147
1.0
148
0.0
149
0.0
100
AcDbLayout
  1
Model
 70
     0
 71
     0
 10
0.0
 20
0.0
 11
0.0
 21
0.0
 12
0.0
 22
0.0
 32
0.0
 14
0.0
 24
0.0
 34
0.0
 15
0.0
 25
0.0
 35
0.0
146
0.0
 13
0.0
 23
0.0
 33
0.0
 16
0.0
 26
0.0
 36
0.0
 17
0.0
 27
0.0
 37
0.0
 76
     0
330
A
331
0
345
0
346
0
  0
LAYOUT
  5
21
102
{ACAD_REACTORS
330
1E
102
}
100
AcDbPlotSettings
  1

  2

  4

  6

 40
0.0
 41
0.0
 42
0.0
 43
0.0
 44
0.0
 45
0.0
 46
0.0
 47
0.0
 48
0.0
 49
0.0
140
0.0
141
0.0
142
1.0
143
1.0
 70
     0
 72
     0
 73
     0
 74
     0
  7

 75
     0
147
1.0
148
0.0
149
0.0
100
AcDbLayout
  1
Layout1
 70
     0
 71
     0
 10
0.0
 20
0.0
 11
0.0
 21
0.0
 12
0.0
 22
0.0
 32
0.0
 14
0.0
 24
0.0
 34
0.0
 15
0.0
 25
0.0
 35
0.0
146
0.0
 13
0.0
 23
0.0
 33
0.0
 16
0.0
 26
0.0
 36
0.0
 17
0.0
 27
0.0
 37
0.0
 76
     0
330
B
331
0
345
0
346
0
  0
DICTIONARY
  5
1E
102
{ACAD_REACTORS
330
19
102
}
100
AcDbDictionary
280
     0
281
     1
  3
Layout1
350
21
  3
Model
350
20
  0
DICTIONARY
  5
22
102
{ACAD_REACTORS
330
19
102
}
100
AcDbDictionary
280
     0
281
     1
  0
WIPEOUTVARIABLES
  5
23
100
AcDbWipeoutVariables
 70
     1
  0
ENDSEC
  0
EOF
