  0
SECTION
  2
HEADER
  9
$ACADVER
  1
AC1015
  9
$ACADMAINTVER
 70
     6
  9
$DWGCODEPAGE
  3
ANSI_932
  9
$INSBASE
 10
0.0
 20
0.0
 30
0.0
  9
$EXTMIN
 10
24.167862
 20
76.91279
 30
1.000000E+20
  9
$EXTMAX
 10
186.541241
 20
222.030031
 30
-1.000000E+20
  9
$LIMMIN
 10
24.167862
 20
76.91279
  9
$LIMMAX
 10
186.541241
 20
222.030031
  9
$ORTHOMODE
 70
     0
  9
$REGENMODE
 70
     1
  9
$FILLMODE
 70
     1
  9
$QTEXTMODE
 70
     0
  9
$MIRRTEXT
 70
     1
  9
$LTSCALE
 40
1.0
  9
$ATTMODE
 70
     1
  9
$TEXTSIZE
 40
0.2
  9
$TRACEWID
 40
0.05
  9
$TEXTSTYLE
  7
Standard
  9
$CLAYER
  8
0
  9
$CELTYPE
  6
Continuous
  9
$CECOLOR
 62
   256
  9
$CELTSCALE
 40
1.0
  9
$DISPSILH
 70
     0
  9
$DIMSCALE
 40
1.0
  9
$DIMASZ
 40
0.18
  9
$DIMEXO
 40
0.0625
  9
$DIMDLI
 40
0.38
  9
$DIMRND
 40
0.0
  9
$DIMDLE
 40
0.0
  9
$DIMEXE
 40
0.18
  9
$DIMTP
 40
0.0
  9
$DIMTM
 40
0.0
  9
$DIMTXT
 40
0.18
  9
$DIMCEN
 40
0.09
  9
$DIMTSZ
 40
0.0
  9
$DIMTOL
 70
     0
  9
$DIMLIM
 70
     0
  9
$DIMTIH
 70
     1
  9
$DIMTOH
 70
     1
  9
$DIMSE1
 70
     0
  9
$DIMSE2
 70
     0
  9
$DIMTAD
 70
     0
  9
$DIMZIN
 70
     0
  9
$DIMBLK
  1

  9
$DIMASO
 70
     1
  9
$DIMSHO
 70
     1
  9
$DIMPOST
  1

  9
$DIMAPOST
  1

  9
$DIMALT
 70
     0
  9
$DIMALTD
 70
     2
  9
$DIMALTF
 40
25.4
  9
$DIMLFAC
 40
1.0
  9
$DIMTOFL
 70
     0
  9
$DIMTVP
 40
0.0
  9
$DIMTIX
 70
     0
  9
$DIMSOXD
 70
     0
  9
$DIMSAH
 70
     0
  9
$DIMBLK1
  1

  9
$DIMBLK2
  1

  9
$DIMSTYLE
  2
Standard
  9
$DIMCLRD
 70
     0
  9
$DIMCLRE
 70
     0
  9
$DIMCLRT
 70
     0
  9
$DIMTFAC
 40
1.0
  9
$DIMGAP
 40
0.09
  9
$DIMJUST
 70
     0
  9
$DIMSD1
 70
     0
  9
$DIMSD2
 70
     0
  9
$DIMTOLJ
 70
     1
  9
$DIMTZIN
 70
     0
  9
$DIMALTZ
 70
     0
  9
$DIMALTTZ
 70
     0
  9
$DIMUPT
 70
     0
  9
$DIMDEC
 70
     4
  9
$DIMTDEC
 70
     4
  9
$DIMALTU
 70
     2
  9
$DIMALTTD
 70
     2
  9
$DIMTXSTY
  7
Standard
  9
$DIMAUNIT
 70
     0
  9
$DIMADEC
 70
     0
  9
$DIMALTRND
 40
0.0
  9
$DIMAZIN
 70
     0
  9
$DIMDSEP
 70
     0
  9
$DIMATFIT
 70
     3
  9
$DIMFRAC
 70
     0
  9
$DIMLDRBLK
  1

  9
$DIMLUNIT
 70
     2
  9
$DIMLWD
 70
     0
  9
$DIMLWE
 70
     0
  9
$DIMTMOVE
 70
     0
  9
$LUNITS
 70
     2
  9
$LUPREC
 70
     4
  9
$SKETCHINC
 40
0.1
  9
$FILLETRAD
 40
0.0
  9
$AUNITS
 70
     0
  9
$AUPREC
 70
     0
  9
$MENU
  1
acad
  9
$ELEVATION
 40
0.0
  9
$PELEVATION
 40
0.0
  9
$THICKNESS
 40
0.0
  9
$LIMCHECK
 70
     0
  9
$CHAMFERA
 40
0.0
  9
$CHAMFERB
 40
0.0
  9
$CHAMFERC
 40
0.0
  9
$CHAMFERD
 40
0.0
  9
$SKPOLY
 70
     0
  9
$TDCREATE
 40
0.000000000
  9
$TDUCREATE
 40
0.000000000
  9
$TDUPDATE
 40
0.000000000
  9
$TDUUPDATE
 40
0.000000000
  9
$TDINDWG
 40
0.0000000000
  9
$TDUSRTIMER
 40
0.0000000000
  9
$USRTIMER
 70
     1
  9
$ANGBASE
 50
0.0
  9
$ANGDIR
 70
     0
  9
$PDMODE
 70
     0
  9
$PDSIZE
 40
0.0
  9
$PLINEWID
 40
0.0
  9
$SPLFRAME
 70
     0
  9
$SPLINETYPE
 70
     6
  9
$SPLINESEGS
 70
     8
  9
$HANDSEED
  5
231
  9
$SURFTAB1
 70
     6
  9
$SURFTAB2
 70
     6
  9
$SURFTYPE
 70
     6
  9
$SURFU
 70
     6
  9
$SURFV
 70
     6
  9
$UCSBASE
  2

  9
$UCSNAME
  2

  9
$UCSORG
 10
0.0
 20
0.0
 30
0.0
  9
$UCSXDIR
 10
1.0
 20
0.0
 30
0.0
  9
$UCSYDIR
 10
0.0
 20
1.0
 30
0.0
  9
$UCSORTHOREF
  2

  9
$UCSORTHOVIEW
 70
     0
  9
$UCSORGTOP
 10
0.0
 20
0.0
 30
0.0
  9
$UCSORGBOTTOM
 10
0.0
 20
0.0
 30
0.0
  9
$UCSORGLEFT
 10
0.0
 20
0.0
 30
0.0
  9
$UCSORGRIGHT
 10
0.0
 20
0.0
 30
0.0
  9
$UCSORGFRONT
 10
0.0
 20
0.0
 30
0.0
  9
$UCSORGBACK
 10
0.0
 20
0.0
 30
0.0
  9
$PUCSBASE
  2

  9
$PUCSNAME
  2

  9
$PUCSORG
 10
0.0
 20
0.0
 30
0.0
  9
$PUCSXDIR
 10
1.0
 20
0.0
 30
0.0
  9
$PUCSYDIR
 10
0.0
 20
1.0
 30
0.0
  9
$PUCSORTHOREF
  2

  9
$PUCSORTHOVIEW
 70
     0
  9
$PUCSORGTOP
 10
0.0
 20
0.0
 30
0.0
  9
$PUCSORGBOTTOM
 10
0.0
 20
0.0
 30
0.0
  9
$PUCSORGLEFT
 10
0.0
 20
0.0
 30
0.0
  9
$PUCSORGRIGHT
 10
0.0
 20
0.0
 30
0.0
  9
$PUCSORGFRONT
 10
0.0
 20
0.0
 30
0.0
  9
$PUCSORGBACK
 10
0.0
 20
0.0
 30
0.0
  9
$USERI1
 70
     0
  9
$USERI2
 70
     0
  9
$USERI3
 70
     0
  9
$USERI4
 70
     0
  9
$USERI5
 70
     0
  9
$USERR1
 40
0.0
  9
$USERR2
 40
0.0
  9
$USERR3
 40
0.0
  9
$USERR4
 40
0.0
  9
$USERR5
 40
0.0
  9
$WORLDVIEW
 70
     1
  9
$SHADEDGE
 70
     3
  9
$SHADEDIF
 70
    70
  9
$TILEMODE
 70
     1
  9
$MAXACTVP
 70
    16
  9
$PINSBASE
 10
0.0
 20
0.0
 30
0.0
  9
$PLIMCHECK
 70
     0
  9
$PEXTMIN
 10
1.000000E+20
 20
1.000000E+20
 30
1.000000E+20
  9
$PEXTMAX
 10
-1.000000E+20
 20
-1.000000E+20
 30
-1.000000E+20
  9
$PLIMMIN
 10
0.0
 20
0.0
  9
$PLIMMAX
 10
12.0
 20
9.0
  9
$UNITMODE
 70
     0
  9
$VISRETAIN
 70
     0
  9
$PLINEGEN
 70
     1
  9
$PSLTSCALE
 70
     0
  9
$TREEDEPTH
 70
  3020
  9
$CMLSTYLE
  2
Standard
  9
$CMLJUST
 70
     0
  9
$CMLSCALE
 40
1.0
  9
$PROXYGRAPHICS
 70
     0
  9
$MEASUREMENT
 70
     1
  9
$CELWEIGHT
370
     0
  9
$ENDCAPS
280
     0
  9
$JOINSTYLE
280
     0
  9
$LWDISPLAY
290
     0
  9
$INSUNITS
 70
     0
  9
$HYPERLINKBASE
  1

  9
$STYLESHEET
  1

  9
$XEDIT
290
     1
  9
$CEPSNTYPE
380
     0
  9
$PSTYLEMODE
290
     1
  9
$FINGERPRINTGUID
  2

  9
$VERSIONGUID
  2

  9
$EXTNAMES
290
     1
  9
$PSVPSCALE
 40
0.0
  0
ENDSEC
  0
SECTION
  2
CLASSES
  0
CLASS
  1
LWPOLYLINE
  2
AcDbPolyline
  3
AutoCAD 2000
 90
    32768
280
     0
281
     1
  0
CLASS
  1
IMAGE
  2
AcDbRasterImage
  3
ISM
 90
    32895
280
     0
281
     1
  0
CLASS
  1
OLE2FRAME
  2
AcDbOle2Frame
  3
AutoCAD 2000
 90
    32768
280
     0
281
     1
  0
CLASS
  1
HATCH
  2
AcDbHatch
  3
AutoCAD 2000
 90
        0
280
     0
281
     1
  0
CLASS
  1
DICTIONARYVAR
  2
AcDbDictionaryVar
  3
AutoCAD 2000
 90
    32768
280
     0
281
     0
  0
CLASS
  1
RASTERVARIABLES
  2
AcDbRasterVariables
  3
ISM
 90
    32768
280
     0
281
     0
  0
CLASS
  1
IMAGEDEF
  2
AcDbRasterImageDef
  3
ISM
 90
    32768
280
     0
281
     0
  0
CLASS
  1
IMAGEDEF_REACTOR
  2
AcDbRasterImageDefReactor
  3
ISM
 90
    32769
280
     0
281
     0
  0
CLASS
  1
IDBUFFER
  2
AcDbIdBuffer
  3
AutoCAD 2000
 90
    32768
280
     0
281
     0
  0
CLASS
  1
SPATIAL_FILTER
  2
AcDbSpatialFilter
  3
AutoCAD 2000
 90
    32768
280
     0
281
     0
  0
CLASS
  1
XRECORD
  2
AcDbXrecord
  3
AutoCAD 2000
 90
    32768
280
     0
281
     0
  0
CLASS
  1
SORTENTSTABLE
  2
AcDbSortentsTable
  3
AutoCAD 2000
 90
    32768
280
     0
281
     0
  0
CLASS
  1
LAYER_INDEX
  2
AcDbLayerIndex
  3
AutoCAD 2000
 90
    32768
280
     0
281
     0
  0
CLASS
  1
SPATIAL_INDEX
  2
AcDbSpatialIndex
  3
AutoCAD 2000
 90
    32768
280
     0
281
     0
  0
CLASS
  1
OBJECT_PTR
  2
CAseDLPNTableRecord
  3
"ASE-LPNTableRecord"
 90
    32769
280
     0
281
     0
  0
CLASS
  1
LAYOUT
  2
AcDbLayout
  3
AutoCAD 2000
 90
        0
280
     0
281
     0
  0
CLASS
  1
PLOTSETTINGS
  2
AcDbPlotSettings
  3
AutoCAD 2000
 90
    32768
280
     0
281
     0
  0
CLASS
  1
ACDBDICTIONARYWDFLT
  2
AcDbDictionaryWithDefault
  3
AutoCAD 2000
 90
        0
280
     0
281
     0
  0
CLASS
  1
ACDBPLACEHOLDER
  2
AcDbPlaceHolder
  3
AutoCAD 2000
 90
        0
280
     0
281
     0
  0
CLASS
  1
VBA_PROJECT
  2
AcDbVbaProject
  3
acadvba
 90
    32768
280
     0
281
     0
  0
CLASS
  1
WIPEOUT
  2
AcDbWipeout
  3
WipeOut|AutoCAD Express Tool|expresstools@autodesk.com
 90
    32895
280
     0
281
     1
  0
CLASS
  1
WIPEOUTVARIABLES
  2
AcDbWipeoutVariables
  3
WipeOut|AutoCAD Express Tool|expresstools@autodesk.com
 90
        0
280
     0
281
     0
  0
CLASS
  1
RTEXT
  2
RText
  3
RText|AutoCAD Express Tool|expresstools@autodesk.com
 90
    32768
280
     0
281
     1
  0
CLASS
  1
ARCALIGNEDTEXT
  2
AcDbArcAlignedText
  3
ATEXT|AutoCAD Express Tool|expresstools@autodesk.com
 90
    32768
280
     0
281
     1
  0
ENDSEC
  0
SECTION
  2
TABLES
  0
TABLE
  2
VPORT
  5
7
100
AcDbSymbolTable
 70
     1
  0
VPORT
  5
15
100
AcDbSymbolTableRecord
100
AcDbViewportTableRecord
  2
*ACTIVE
 70
     0
 10
0.0
 20
0.0
 11
1.0
 21
1.0
 12
6.591288
 22
4.579184
 13
0.0
 23
0.0
 14
1.0
 24
1.0
 15
0.0
 25
0.0
 16
0.0
 26
0.0
 36
1.0
 17
0.0
 27
0.0
 37
0.0
 40
9.158369
 41
0.688564
 42
50.0
 43
0.0
 44
0.0
 50
0.0
 51
0.0
 71
     0
 72
   100
 73
     1
 74
     1
 75
     0
 76
     0
 77
     0
 78
     0
281
     0
 65
     0
110
0.0
120
0.0
130
0.0
111
1.0
121
0.0
131
0.0
112
0.0
122
1.0
132
0.0
345
0
346
0
 79
     0
146
0.0
  0
ENDTAB
  0
TABLE
  2
LTYPE
  5
4
100
AcDbSymbolTable
 70
     5
  0
LTYPE
  5
11
100
AcDbSymbolTableRecord
100
AcDbLinetypeTableRecord
  2
ByBlock
 70
    64
  3

 72
    65
 73
     0
 40
0.0
  0
LTYPE
  5
12
100
AcDbSymbolTableRecord
100
AcDbLinetypeTableRecord
  2
ByLayer
 70
    64
  3

 72
    65
 73
     0
 40
0.0
  0
LTYPE
  5
13
100
AcDbSymbolTableRecord
100
AcDbLinetypeTableRecord
  2
Continuous
 70
    64
  3
Solid line
 72
    65
 73
     0
 40
0.0
  0
LTYPE
  5
D3
100
AcDbSymbolTableRecord
100
AcDbLinetypeTableRecord
  2
AI9-LType1
 70
    64
  3
Illustrator Dash Style No.1
 72
    65
 73
     4
 40
14.816667
 49
8.466667
 74
     0
 49
-2.822222
 74
     0
 49
0.705556
 74
     0
 49
-2.822222
 74
     0
  0
LTYPE
  5
1AA
100
AcDbSymbolTableRecord
100
AcDbLinetypeTableRecord
  2
AI9-LType2
 70
    64
  3
Illustrator Dash Style No.2
 72
    65
 73
     6
 40
17.638889
 49
8.466667
 74
     0
 49
-2.822222
 74
     0
 49
0.705556
 74
     0
 49
-2.116667
 74
     0
 49
0.705556
 74
     0
 49
-2.822222
 74
     0
  0
ENDTAB
  0
TABLE
  2
LAYER
  5
2
100
AcDbSymbolTable
 70
    12
  0
LAYER
  5
14
100
AcDbSymbolTableRecord
100
AcDbLayerTableRecord
  2
0
 70
     0
 62
     7
  6
Continuous
290
     1
370
    -3
390
1D
  0
LAYER
  5
28
100
AcDbSymbolTableRecord
100
AcDbLayerTableRecord
  2
TEXT
 70
     0
 62
     5
  6
Continuous
290
     1
370
    -3
390
1D
  0
LAYER
  5
34
100
AcDbSymbolTableRecord
100
AcDbLayerTableRecord
  2
RAHMEN
 70
     0
 62
     2
  6
Continuous
290
     1
370
    -3
390
1D
  0
LAYER
  5
42
100
AcDbSymbolTableRecord
100
AcDbLayerTableRecord
  2
AM_0
 70
     0
 62
     1
  6
Continuous
290
     1
370
    -3
390
1D
  0
LAYER
  5
CD
100
AcDbSymbolTableRecord
100
AcDbLayerTableRecord
  2
AM_8
 70
     0
 62
   160
  6
Continuous
290
     1
370
    -3
390
1D
  0
LAYER
  5
D2
100
AcDbSymbolTableRecord
100
AcDbLayerTableRecord
  2
MITTELLINIE
 70
     0
 62
   253
  6
Continuous
290
     1
370
    -3
390
1D
  0
LAYER
  5
D9
100
AcDbSymbolTableRecord
100
AcDbLayerTableRecord
  2
SCHRAFFUR
 70
     0
 62
     4
  6
Continuous
290
     1
370
    -3
390
1D
  0
LAYER
  5
179
100
AcDbSymbolTableRecord
100
AcDbLayerTableRecord
  2
WASSER
 70
     0
 62
     6
  6
Continuous
290
     1
370
    -3
390
1D
  0
LAYER
  5
17E
100
AcDbSymbolTableRecord
100
AcDbLayerTableRecord
  2
DAEMMUNG
 70
     0
 62
     5
  6
Continuous
290
     1
370
    -3
390
1D
  0
LAYER
  5
1A9
100
AcDbSymbolTableRecord
100
AcDbLayerTableRecord
  2
GETRENNT
 70
     0
 62
     3
  6
Continuous
290
     1
370
    -3
390
1D
  0
LAYER
  5
1AD
100
AcDbSymbolTableRecord
100
AcDbLayerTableRecord
  2
ROHR
 70
     0
 62
     1
  6
Continuous
290
     1
370
    -3
390
1D
  0
LAYER
  5
1EF
100
AcDbSymbolTableRecord
100
AcDbLayerTableRecord
  2
SCHRAUBEN
 70
     0
 62
   160
  6
Continuous
290
     1
370
    -3
390
1D
  0
ENDTAB
  0
TABLE
  2
STYLE
  5
3
100
AcDbSymbolTable
 70
     5
  0
STYLE
  5
17
100
AcDbSymbolTableRecord
100
AcDbTextStyleTableRecord
  2
Standard
 70
     0
 40
0.0
 41
1.0
 50
0.0
 71
     0
 42
0.0
  3
txt
  4

  0
STYLE
  5
24
100
AcDbSymbolTableRecord
100
AcDbTextStyleTableRecord
  2
STD
 70
     0
 40
0.0
 41
1.0
 50
0.0
 71
     0
 42
0.0
  3
txt
  4

  0
STYLE
  5
25
100
AcDbSymbolTableRecord
100
AcDbTextStyleTableRecord
  2
TATESTD
 70
     4
 40
0.0
 41
1.0
 50
0.0
 71
     0
 42
0.0
  3
txt
  4

  0
STYLE
  5
26
100
AcDbSymbolTableRecord
100
AcDbTextStyleTableRecord
  2
KANJISTD
 70
     0
 40
0.0
 41
1.0
 50
0.0
 71
     0
 42
0.0
  3
txt
  4
extfont
  0
STYLE
  5
27
100
AcDbSymbolTableRecord
100
AcDbTextStyleTableRecord
  2
KANJITATE
 70
     4
 40
0.0
 41
1.0
 50
0.0
 71
     0
 42
0.0
  3
txt
  4
extfont
  0
ENDTAB
  0
TABLE
  2
VIEW
  5
5
100
AcDbSymbolTable
 70
     0
  0
ENDTAB
  0
TABLE
  2
UCS
  5
6
100
AcDbSymbolTable
 70
     0
  0
ENDTAB
  0
TABLE
  2
APPID
  5
8
100
AcDbSymbolTable
 70
     1
  0
APPID
  5
16
100
AcDbSymbolTableRecord
100
AcDbRegAppTableRecord
  2
ACAD
 70
     0
  0
ENDTAB
  0
TABLE
  2
DIMSTYLE
  5
9
100
AcDbSymbolTable
 70
     1
100
AcDbDimStyleTable
 71
     0
  0
DIMSTYLE
105
18
100
AcDbSymbolTableRecord
100
AcDbDimStyleTableRecord
  2
Standard
 70
     0
  3

  4

 40
1.0
 41
0.18
 42
0.0625
 43
0.38
 44
0.18
 45
0.0
 46
0.0
 47
0.0
 48
0.0
 71
     0
 72
     0
 73
     1
 74
     1
 75
     0
 76
     0
 77
     0
 78
     0
 79
     0
140
0.18
141
0.09
142
0.0
143
25.4
144
1.0
145
0.0
146
1.0
147
0.09
148
0.0
170
     0
171
     2
172
     0
173
     0
174
     0
175
     0
176
     0
177
     0
178
     0
179
     0
271
     4
272
     4
273
     2
274
     2
275
     0
276
     0
277
     2
278
    46
279
     0
280
     0
281
     0
282
     0
283
     1
284
     0
285
     0
286
     0
288
     0
340
17
341
0
342
0
343
0
344
0
371
    -2
372
    -2
  0
ENDTAB
  0
TABLE
  2
BLOCK_RECORD
  5
1
100
AcDbSymbolTable
 70
     3
  0
BLOCK_RECORD
  5
A
100
AcDbSymbolTableRecord
100
AcDbBlockTableRecord
  2
*MODEL_SPACE
340
20
  0
BLOCK_RECORD
  5
B
100
AcDbSymbolTableRecord
100
AcDbBlockTableRecord
  2
*PAPER_SPACE
340
21
  0
BLOCK_RECORD
  5
29
100
AcDbSymbolTableRecord
100
AcDbBlockTableRecord
  2
AI9-BLK1
340
0
102
{BLKREFS
331
2A
102
}
  0
BLOCK_RECORD
  5
1AE
100
AcDbSymbolTableRecord
100
AcDbBlockTableRecord
  2
AI9-BLK2
340
0
102
{BLKREFS
331
1AF
102
}
  0
BLOCK_RECORD
  5
1F0
100
AcDbSymbolTableRecord
100
AcDbBlockTableRecord
  2
AI9-BLK3
340
0
102
{BLKREFS
331
1F1
102
}
  0
ENDTAB
  0
ENDSEC
  0
SECTION
  2
BLOCKS
  0
BLOCK
  5
D
100
AcDbEntity
  8
0
100
AcDbBlockBegin
  2
*MODEL_SPACE
 70
     0
 10
0.0
 20
0.0
 30
0.0
  3
*MODEL_SPACE
  1

  0
ENDBLK
  5
E
100
AcDbEntity
  8
0
100
AcDbBlockEnd
  0
BLOCK
  5
F
100
AcDbEntity
 67
     1
  8
0
100
AcDbBlockBegin
  2
*PAPER_SPACE
 70
     0
 10
0.0
 20
0.0
 30
0.0
  3
*PAPER_SPACE
  1

  0
ENDBLK
  5
10
100
AcDbEntity
 67
     1
  8
0
100
AcDbBlockEnd
  0
BLOCK
  5
2B
100
AcDbEntity
  8
TEXT
 62
     7
100
AcDbBlockBegin
  2
AI9-BLK1
 70
     0
 10
0.0
 20
0.0
 30
0.0
  3
AI9-BLK1
  1

  0
MTEXT
  5
2E
100
AcDbEntity
  8
TEXT
 62
     7
100
AcDbMText
 10
-16.352318
 20
-3.617351
 30
0.0
 40
5.512152
 41
0.0
 71
     1
 72
     2
  1
\fArial|b0|i0;\H5.5122;\C7;\U+0032\U+0030
  7
STD
210
0.0
220
0.0
230
1.0
 73
     1
 44
1.0
  0
MTEXT
  5
2D
100
AcDbEntity
  8
TEXT
 62
     7
100
AcDbMText
 10
-16.352318
 20
3.790983
 30
0.0
 40
5.512152
 41
0.0
 71
     1
 72
     2
  1
\fArial|b0|i0;\H5.5122;\C7;\U+0053\U+0074\U+0061\U+006E\U+0064\U+0061\U+0072\U+0064\U+0020
  7
STD
210
0.0
220
0.0
230
1.0
 73
     1
 44
1.0
  0
MTEXT
  5
2C
100
AcDbEntity
  8
TEXT
 62
     7
100
AcDbMText
 10
-16.352318
 20
11.199316
 30
0.0
 40
5.512152
 41
0.0
 71
     1
 72
     2
  1
\fArial|b0|i0;\H5.5122;\C7;\U+0046\U+0048\U+0052\U+004B\U+002D
  7
STD
210
0.0
220
0.0
230
1.0
 73
     1
 44
1.0
  0
ENDBLK
  5
2F
100
AcDbEntity
  8
TEXT
100
AcDbBlockEnd
  0
BLOCK
  5
1B0
100
AcDbEntity
  8
ROHR
  6
AI9-LType2
 62
     7
100
AcDbBlockBegin
  2
AI9-BLK2
 70
     0
 10
0.0
 20
0.0
 30
0.0
  3
AI9-BLK2
  1

  0
LINE
  5
1ED
100
AcDbEntity
  8
ROHR
 62
     7
100
AcDbLine
 10
-0.918807
 20
2.333019
 30
0.0
 11
-1.708423
 21
1.543403
 31
0.0
  0
LINE
  5
1EC
100
AcDbEntity
  8
ROHR
 62
     7
100
AcDbLine
 10
1.429542
 20
2.02985
 30
0.0
 11
0.882117
 21
1.482425
 31
0.0
  0
LINE
  5
1EB
100
AcDbEntity
  8
ROHR
 62
     7
100
AcDbLine
 10
-0.694014
 20
-6.458176
 30
0.0
 11
-1.544609
 21
-7.30877
 31
0.0
  0
LINE
  5
1EA
100
AcDbEntity
  8
ROHR
 62
     7
100
AcDbLine
 10
2.05431
 20
-6.361024
 30
0.0
 11
0.474562
 21
-7.94129
 31
0.0
  0
LINE
  5
1E9
100
AcDbEntity
  8
ROHR
 62
     7
100
AcDbLine
 10
2.112016
 20
-5.773291
 30
0.0
 11
-0.10542
 21
-7.990899
 31
0.0
  0
LINE
  5
1E8
100
AcDbEntity
  8
ROHR
 62
     7
100
AcDbLine
 10
-0.868509
 20
-6.101953
 30
0.0
 11
-1.773535
 21
-7.00698
 31
0.0
  0
LINE
  5
1E7
100
AcDbEntity
  8
ROHR
 62
     7
100
AcDbLine
 10
-0.916568
 20
-5.619984
 30
0.0
 11
-1.950613
 21
-6.653857
 31
0.0
  0
LINE
  5
1E6
100
AcDbEntity
  8
ROHR
 62
     7
100
AcDbLine
 10
2.129586
 20
-5.225176
 30
0.0
 11
-0.560689
 21
-7.915451
 31
0.0
  0
LINE
  5
1E5
100
AcDbEntity
  8
ROHR
 62
     7
100
AcDbLine
 10
0.031178
 20
-6.793384
 30
0.0
 11
-0.942406
 21
-7.766968
 31
0.0
  0
LINE
  5
1E4
100
AcDbEntity
  8
ROHR
 62
     7
100
AcDbLine
 10
-0.401354
 20
-6.695888
 30
0.0
 11
-1.267967
 21
-7.562329
 31
0.0
  0
LINE
  5
1E3
100
AcDbEntity
  8
ROHR
 62
     7
100
AcDbLine
 10
-1.081071
 20
-2.072225
 30
0.0
 11
-2.124418
 21
-3.115744
 31
0.0
  0
LINE
  5
1E2
100
AcDbEntity
  8
ROHR
 62
     7
100
AcDbLine
 10
-1.083138
 20
-1.543747
 30
0.0
 11
-2.106159
 21
-2.566252
 31
0.0
  0
LINE
  5
1E1
100
AcDbEntity
  8
ROHR
 62
     7
100
AcDbLine
 10
-0.989087
 20
-4.631931
 30
0.0
 11
-2.101508
 21
-5.744008
 31
0.0
  0
LINE
  5
1E0
100
AcDbEntity
  8
ROHR
 62
     7
100
AcDbLine
 10
-1.041797
 20
-3.623551
 30
0.0
 11
-2.132686
 21
-4.714613
 31
0.0
  0
LINE
  5
1DF
100
AcDbEntity
  8
ROHR
 62
     7
100
AcDbLine
 10
-1.0604
 20
-3.111955
 30
0.0
 11
-2.137337
 21
-4.188892
 31
0.0
  0
LINE
  5
1DE
100
AcDbEntity
  8
ROHR
 62
     7
100
AcDbLine
 10
-1.073664
 20
-2.594846
 30
0.0
 11
-2.135098
 21
-3.65628
 31
0.0
  0
LINE
  5
1DD
100
AcDbEntity
  8
ROHR
 62
     7
100
AcDbLine
 10
-0.955325
 20
-5.128025
 30
0.0
 11
-2.064473
 21
-6.237345
 31
0.0
  0
LINE
  5
1DC
100
AcDbEntity
  8
ROHR
 62
     7
100
AcDbLine
 10
-1.017853
 20
-4.12998
 30
0.0
 11
-2.120629
 21
-5.232756
 31
0.0
  0
LINE
  5
1DB
100
AcDbEntity
  8
ROHR
 62
     7
100
AcDbLine
 10
-1.079348
 20
-1.009413
 30
0.0
 11
-2.078943
 21
-2.00918
 31
0.0
  0
LINE
  5
1DA
100
AcDbEntity
  8
ROHR
 62
     7
100
AcDbLine
 10
-0.963076
 20
1.758377
 30
0.0
 11
-1.797823
 21
0.923286
 31
0.0
  0
LINE
  5
1D9
100
AcDbEntity
  8
ROHR
 62
     7
100
AcDbLine
 10
-0.999939
 20
1.19097
 30
0.0
 11
-1.875338
 21
0.315571
 31
0.0
  0
LINE
  5
1D8
100
AcDbEntity
  8
ROHR
 62
     7
100
AcDbLine
 10
-1.029739
 20
0.630797
 30
0.0
 11
-1.941484
 21
-0.280775
 31
0.0
  0
LINE
  5
1D7
100
AcDbEntity
  8
ROHR
 62
     7
100
AcDbLine
 10
-1.052649
 20
0.077515
 30
0.0
 11
-1.997122
 21
-0.866786
 31
0.0
  0
LINE
  5
1D6
100
AcDbEntity
  8
ROHR
 62
     7
100
AcDbLine
 10
-1.069185
 20
-0.468877
 30
0.0
 11
-2.042769
 21
-1.442806
 31
0.0
  0
LINE
  5
1D5
100
AcDbEntity
  8
ROHR
 62
     7
100
AcDbLine
 10
2.043803
 20
-2.129069
 30
0.0
 11
1.02371
 21
-3.149162
 31
0.0
  0
LINE
  5
1D4
100
AcDbEntity
  8
ROHR
 62
     7
100
AcDbLine
 10
2.001428
 20
-1.640899
 30
0.0
 11
1.02905
 21
-2.613449
 31
0.0
  0
LINE
  5
1D3
100
AcDbEntity
  8
ROHR
 62
     7
100
AcDbLine
 10
2.124935
 20
-3.639054
 30
0.0
 11
0.971689
 21
-4.792128
 31
0.0
  0
LINE
  5
1D2
100
AcDbEntity
  8
ROHR
 62
     7
100
AcDbLine
 10
2.105815
 20
-3.127458
 30
0.0
 11
0.995288
 21
-4.238156
 31
0.0
  0
LINE
  5
1D1
100
AcDbEntity
  8
ROHR
 62
     7
100
AcDbLine
 10
2.135442
 20
-4.158575
 30
0.0
 11
0.942061
 21
-5.3523
 31
0.0
  0
LINE
  5
1D0
100
AcDbEntity
  8
ROHR
 62
     7
100
AcDbLine
 10
2.078598
 20
-2.624818
 30
0.0
 11
1.012514
 21
-3.690731
 31
0.0
  0
LINE
  5
1CF
100
AcDbEntity
  8
ROHR
 62
     7
100
AcDbLine
 10
2.137337
 20
-4.687052
 30
0.0
 11
0.906921
 21
-5.917641
 31
0.0
  0
LINE
  5
1CE
100
AcDbEntity
  8
ROHR
 62
     7
100
AcDbLine
 10
1.951991
 20
-1.160308
 30
0.0
 11
1.028878
 21
-2.083249
 31
0.0
  0
LINE
  5
1CD
100
AcDbEntity
  8
ROHR
 62
     7
100
AcDbLine
 10
1.517909
 20
1.596113
 30
0.0
 11
0.916912
 21
0.995288
 31
0.0
  0
LINE
  5
1CC
100
AcDbEntity
  8
ROHR
 62
     7
100
AcDbLine
 10
1.763372
 20
0.24219
 30
0.0
 11
0.995805
 21
-0.525722
 31
0.0
  0
LINE
  5
1CB
100
AcDbEntity
  8
ROHR
 62
     7
100
AcDbLine
 10
1.688269
 20
0.696943
 30
0.0
 11
0.974618
 21
-0.016192
 31
0.0
  0
LINE
  5
1CA
100
AcDbEntity
  8
ROHR
 62
     7
100
AcDbLine
 10
1.606793
 20
1.146183
 30
0.0
 11
0.948435
 21
0.487826
 31
0.0
  0
LINE
  5
1C9
100
AcDbEntity
  8
ROHR
 62
     7
100
AcDbLine
 10
1.895664
 20
-0.686263
 30
0.0
 11
1.023193
 21
-1.558561
 31
0.0
  0
LINE
  5
1C8
100
AcDbEntity
  8
ROHR
 62
     7
100
AcDbLine
 10
1.832963
 20
-0.218764
 30
0.0
 11
1.011997
 21
-1.03973
 31
0.0
  0
LINE
  5
1C7
100
AcDbEntity
  8
ROHR
 62
     7
100
AcDbLine
 10
-0.806669
 20
3.505729
 30
0.0
 11
-1.490176
 21
2.822567
 31
0.0
  0
LINE
  5
1C6
100
AcDbEntity
  8
ROHR
 62
     7
100
AcDbLine
 10
-0.866614
 20
2.915584
 30
0.0
 11
-1.606104
 21
2.175922
 31
0.0
  0
LINE
  5
1C5
100
AcDbEntity
  8
ROHR
 62
     7
100
AcDbLine
 10
-0.738284
 20
4.104487
 30
0.0
 11
-1.35909
 21
3.483336
 31
0.0
  0
LINE
  5
1C4
100
AcDbEntity
  8
ROHR
 62
     7
100
AcDbLine
 10
-0.57447
 20
5.329218
 30
0.0
 11
-1.047309
 21
4.855862
 31
0.0
  0
LINE
  5
1C3
100
AcDbEntity
  8
ROHR
 62
     7
100
AcDbLine
 10
-0.660942
 20
4.712202
 30
0.0
 11
-1.212157
 21
4.160986
 31
0.0
  0
LINE
  5
1C2
100
AcDbEntity
  8
ROHR
 62
     7
100
AcDbLine
 10
-0.477835
 20
5.955537
 30
0.0
 11
-0.863513
 21
5.57003
 31
0.0
  0
LINE
  5
1C1
100
AcDbEntity
  8
ROHR
 62
     7
100
AcDbLine
 10
-0.124023
 20
7.90081
 30
0.0
 11
-0.173116
 21
7.851717
 31
0.0
  0
LINE
  5
1C0
100
AcDbEntity
  8
ROHR
 62
     7
100
AcDbLine
 10
-0.253559
 20
7.241074
 30
0.0
 11
-0.428914
 21
7.065719
 31
0.0
  0
LINE
  5
1BF
100
AcDbEntity
  8
ROHR
 62
     7
100
AcDbLine
 10
-0.371037
 20
6.593224
 30
0.0
 11
-0.658185
 21
6.305903
 31
0.0
  0
LINE
  5
1BE
100
AcDbEntity
  8
ROHR
 62
     7
100
AcDbLine
 10
1.050582
 20
3.771691
 30
0.0
 11
0.696598
 21
3.417879
 31
0.0
  0
LINE
  5
1BD
100
AcDbEntity
  8
ROHR
 62
     7
100
AcDbLine
 10
1.14825
 20
3.339331
 30
0.0
 11
0.749308
 21
2.940389
 31
0.0
  0
LINE
  5
1BC
100
AcDbEntity
  8
ROHR
 62
     7
100
AcDbLine
 10
1.244024
 20
2.90456
 30
0.0
 11
0.797884
 21
2.458765
 31
0.0
  0
LINE
  5
1BB
100
AcDbEntity
  8
ROHR
 62
     7
100
AcDbLine
 10
1.337903
 20
2.468411
 30
0.0
 11
0.842326
 21
1.972317
 31
0.0
  0
LINE
  5
1BA
100
AcDbEntity
  8
ROHR
 62
     7
100
AcDbLine
 10
0.531923
 20
5.904894
 30
0.0
 11
0.372759
 21
5.74573
 31
0.0
  0
LINE
  5
1B9
100
AcDbEntity
  8
ROHR
 62
     7
100
AcDbLine
 10
0.63941
 20
5.48218
 30
0.0
 11
0.445106
 21
5.287877
 31
0.0
  0
LINE
  5
1B8
100
AcDbEntity
  8
ROHR
 62
     7
100
AcDbLine
 10
0.745174
 20
5.0574
 30
0.0
 11
0.513836
 21
4.826579
 31
0.0
  0
LINE
  5
1B7
100
AcDbEntity
  8
ROHR
 62
     7
100
AcDbLine
 10
0.848699
 20
4.630553
 30
0.0
 11
0.578776
 21
4.360802
 31
0.0
  0
LINE
  5
1B6
100
AcDbEntity
  8
ROHR
 62
     7
100
AcDbLine
 10
0.950502
 20
4.202327
 30
0.0
 11
0.63941
 21
3.891235
 31
0.0
  0
LINE
  5
1B5
100
AcDbEntity
  8
ROHR
 62
     7
100
AcDbLine
 10
-0.033934
 20
7.990899
 30
0.0
 11
-0.042891
 21
7.981942
 31
0.0
  0
LINE
  5
1B4
100
AcDbEntity
  8
ROHR
 62
     7
100
AcDbLine
 10
0.082855
 20
7.577315
 30
0.0
 11
0.047198
 21
7.541659
 31
0.0
  0
LINE
  5
1B3
100
AcDbEntity
  8
ROHR
 62
     7
100
AcDbLine
 10
0.197921
 20
7.162009
 30
0.0
 11
0.133842
 21
7.09793
 31
0.0
  0
LINE
  5
1B2
100
AcDbEntity
  8
ROHR
 62
     7
100
AcDbLine
 10
0.311092
 20
6.745152
 30
0.0
 11
0.217041
 21
6.651101
 31
0.0
  0
LINE
  5
1B1
100
AcDbEntity
  8
ROHR
 62
     7
100
AcDbLine
 10
0.422369
 20
6.325884
 30
0.0
 11
0.296795
 21
6.200138
 31
0.0
  0
ENDBLK
  5
1EE
100
AcDbEntity
  8
ROHR
100
AcDbBlockEnd
  0
BLOCK
  5
1F2
100
AcDbEntity
  8
SCHRAUBEN
 62
     7
100
AcDbBlockBegin
  2
AI9-BLK3
 70
     0
 10
0.0
 20
0.0
 30
0.0
  3
AI9-BLK3
  1

  0
LINE
  5
22F
100
AcDbEntity
  8
SCHRAUBEN
 62
     7
100
AcDbLine
 10
-0.639754
 20
-5.48175
 30
0.0
 11
-0.445451
 21
-5.287446
 31
0.0
  0
LINE
  5
22E
100
AcDbEntity
  8
SCHRAUBEN
 62
     7
100
AcDbLine
 10
-0.745174
 20
-5.057659
 30
0.0
 11
-0.514008
 21
-4.826148
 31
0.0
  0
LINE
  5
22D
100
AcDbEntity
  8
SCHRAUBEN
 62
     7
100
AcDbLine
 10
-2.054655
 20
6.361455
 30
0.0
 11
-0.474734
 21
7.941203
 31
0.0
  0
LINE
  5
22C
100
AcDbEntity
  8
SCHRAUBEN
 62
     7
100
AcDbLine
 10
-2.111844
 20
5.773377
 30
0.0
 11
0.10542
 21
7.990813
 31
0.0
  0
LINE
  5
22B
100
AcDbEntity
  8
SCHRAUBEN
 62
     7
100
AcDbLine
 10
-2.129414
 20
5.225607
 30
0.0
 11
0.560173
 21
7.915538
 31
0.0
  0
LINE
  5
22A
100
AcDbEntity
  8
SCHRAUBEN
 62
     7
100
AcDbLine
 10
-1.763544
 20
-0.242276
 30
0.0
 11
-0.995633
 21
0.525635
 31
0.0
  0
LINE
  5
229
100
AcDbEntity
  8
SCHRAUBEN
 62
     7
100
AcDbLine
 10
-1.688097
 20
-0.697029
 30
0.0
 11
-0.974618
 21
0.016623
 31
0.0
  0
LINE
  5
228
100
AcDbEntity
  8
SCHRAUBEN
 62
     7
100
AcDbLine
 10
-0.848872
 20
-4.630811
 30
0.0
 11
-0.578776
 21
-4.360371
 31
0.0
  0
LINE
  5
227
100
AcDbEntity
  8
SCHRAUBEN
 62
     7
100
AcDbLine
 10
-0.950846
 20
-4.201897
 30
0.0
 11
-0.639754
 21
-3.891149
 31
0.0
  0
LINE
  5
226
100
AcDbEntity
  8
SCHRAUBEN
 62
     7
100
AcDbLine
 10
-1.05041
 20
-3.771604
 30
0.0
 11
-0.696598
 21
-3.417449
 31
0.0
  0
LINE
  5
225
100
AcDbEntity
  8
SCHRAUBEN
 62
     7
100
AcDbLine
 10
-1.14825
 20
-3.339073
 30
0.0
 11
-0.749308
 21
-2.940131
 31
0.0
  0
LINE
  5
224
100
AcDbEntity
  8
SCHRAUBEN
 62
     7
100
AcDbLine
 10
-1.244368
 20
-2.904646
 30
0.0
 11
-0.797884
 21
-2.458506
 31
0.0
  0
LINE
  5
223
100
AcDbEntity
  8
SCHRAUBEN
 62
     7
100
AcDbLine
 10
-1.337731
 20
-2.468325
 30
0.0
 11
-0.842326
 21
-1.972403
 31
0.0
  0
LINE
  5
222
100
AcDbEntity
  8
SCHRAUBEN
 62
     7
100
AcDbLine
 10
-1.429715
 20
-2.029592
 30
0.0
 11
-0.882633
 21
-1.481994
 31
0.0
  0
LINE
  5
221
100
AcDbEntity
  8
SCHRAUBEN
 62
     7
100
AcDbLine
 10
-1.607137
 20
-1.145925
 30
0.0
 11
-0.948779
 21
-0.487739
 31
0.0
  0
LINE
  5
220
100
AcDbEntity
  8
SCHRAUBEN
 62
     7
100
AcDbLine
 10
-1.518254
 20
-1.596027
 30
0.0
 11
-0.917084
 21
-0.99503
 31
0.0
  0
LINE
  5
21F
100
AcDbEntity
  8
SCHRAUBEN
 62
     7
100
AcDbLine
 10
-2.135615
 20
4.159005
 30
0.0
 11
-0.941889
 21
5.352386
 31
0.0
  0
LINE
  5
21E
100
AcDbEntity
  8
SCHRAUBEN
 62
     7
100
AcDbLine
 10
-2.124935
 20
3.63914
 30
0.0
 11
-0.971861
 21
4.792214
 31
0.0
  0
LINE
  5
21D
100
AcDbEntity
  8
SCHRAUBEN
 62
     7
100
AcDbLine
 10
-2.106331
 20
3.128061
 30
0.0
 11
-0.995288
 21
4.238587
 31
0.0
  0
LINE
  5
21C
100
AcDbEntity
  8
SCHRAUBEN
 62
     7
100
AcDbLine
 10
-2.043631
 20
2.129327
 30
0.0
 11
-1.023538
 21
3.14942
 31
0.0
  0
LINE
  5
21B
100
AcDbEntity
  8
SCHRAUBEN
 62
     7
100
AcDbLine
 10
-2.001256
 20
1.64133
 30
0.0
 11
-1.029395
 21
2.61388
 31
0.0
  0
LINE
  5
21A
100
AcDbEntity
  8
SCHRAUBEN
 62
     7
100
AcDbLine
 10
-2.078771
 20
2.624732
 30
0.0
 11
-1.012858
 21
3.690989
 31
0.0
  0
LINE
  5
219
100
AcDbEntity
  8
SCHRAUBEN
 62
     7
100
AcDbLine
 10
-1.952336
 20
1.160394
 30
0.0
 11
-1.028706
 21
2.08368
 31
0.0
  0
LINE
  5
218
100
AcDbEntity
  8
SCHRAUBEN
 62
     7
100
AcDbLine
 10
-1.895836
 20
0.686349
 30
0.0
 11
-1.023193
 21
1.559164
 31
0.0
  0
LINE
  5
217
100
AcDbEntity
  8
SCHRAUBEN
 62
     7
100
AcDbLine
 10
-1.832791
 20
0.21885
 30
0.0
 11
-1.012169
 21
1.039816
 31
0.0
  0
LINE
  5
216
100
AcDbEntity
  8
SCHRAUBEN
 62
     7
100
AcDbLine
 10
-2.137337
 20
4.687655
 30
0.0
 11
-0.906749
 21
5.918071
 31
0.0
  0
LINE
  5
215
100
AcDbEntity
  8
SCHRAUBEN
 62
     7
100
AcDbLine
 10
1.029395
 20
-0.630711
 30
0.0
 11
1.941656
 21
0.280861
 31
0.0
  0
LINE
  5
214
100
AcDbEntity
  8
SCHRAUBEN
 62
     7
100
AcDbLine
 10
1.052821
 20
-0.077429
 30
0.0
 11
1.996777
 21
0.866872
 31
0.0
  0
LINE
  5
213
100
AcDbEntity
  8
SCHRAUBEN
 62
     7
100
AcDbLine
 10
0.660425
 20
-4.711771
 30
0.0
 11
1.211985
 21
-4.160556
 31
0.0
  0
LINE
  5
212
100
AcDbEntity
  8
SCHRAUBEN
 62
     7
100
AcDbLine
 10
0.574297
 20
-5.328788
 30
0.0
 11
1.046965
 21
-4.85612
 31
0.0
  0
LINE
  5
211
100
AcDbEntity
  8
SCHRAUBEN
 62
     7
100
AcDbLine
 10
0.124023
 20
-7.900207
 30
0.0
 11
0.172599
 21
-7.851631
 31
0.0
  0
LINE
  5
210
100
AcDbEntity
  8
SCHRAUBEN
 62
     7
100
AcDbLine
 10
0.033762
 20
-7.990813
 30
0.0
 11
0.043064
 21
-7.981511
 31
0.0
  0
LINE
  5
20F
100
AcDbEntity
  8
SCHRAUBEN
 62
     7
100
AcDbLine
 10
0.253215
 20
-7.240816
 30
0.0
 11
0.428914
 21
-7.065116
 31
0.0
  0
LINE
  5
20E
100
AcDbEntity
  8
SCHRAUBEN
 62
     7
100
AcDbLine
 10
-0.083027
 20
-7.577401
 30
0.0
 11
-0.047542
 21
-7.541228
 31
0.0
  0
LINE
  5
20D
100
AcDbEntity
  8
SCHRAUBEN
 62
     7
100
AcDbLine
 10
-0.197748
 20
-7.161923
 30
0.0
 11
-0.134359
 21
-7.097844
 31
0.0
  0
LINE
  5
20C
100
AcDbEntity
  8
SCHRAUBEN
 62
     7
100
AcDbLine
 10
-0.311092
 20
-6.744722
 30
0.0
 11
-0.217041
 21
-6.650671
 31
0.0
  0
LINE
  5
20B
100
AcDbEntity
  8
SCHRAUBEN
 62
     7
100
AcDbLine
 10
0.47749
 20
-5.955795
 30
0.0
 11
0.862996
 21
-5.570289
 31
0.0
  0
LINE
  5
20A
100
AcDbEntity
  8
SCHRAUBEN
 62
     7
100
AcDbLine
 10
-0.532267
 20
-5.904463
 30
0.0
 11
-0.373104
 21
-5.745989
 31
0.0
  0
LINE
  5
209
100
AcDbEntity
  8
SCHRAUBEN
 62
     7
100
AcDbLine
 10
0.371037
 20
-6.592793
 30
0.0
 11
0.658013
 21
-6.305472
 31
0.0
  0
LINE
  5
208
100
AcDbEntity
  8
SCHRAUBEN
 62
     7
100
AcDbLine
 10
-0.422713
 20
-6.325798
 30
0.0
 11
-0.296967
 21
-6.200052
 31
0.0
  0
LINE
  5
207
100
AcDbEntity
  8
SCHRAUBEN
 62
     7
100
AcDbLine
 10
0.737939
 20
-4.104401
 30
0.0
 11
1.35909
 21
-3.483594
 31
0.0
  0
LINE
  5
206
100
AcDbEntity
  8
SCHRAUBEN
 62
     7
100
AcDbLine
 10
0.806841
 20
-3.505299
 30
0.0
 11
1.490004
 21
-2.821964
 31
0.0
  0
LINE
  5
205
100
AcDbEntity
  8
SCHRAUBEN
 62
     7
100
AcDbLine
 10
0.866786
 20
-2.914981
 30
0.0
 11
1.606104
 21
-2.175836
 31
0.0
  0
LINE
  5
204
100
AcDbEntity
  8
SCHRAUBEN
 62
     7
100
AcDbLine
 10
0.918807
 20
-2.332588
 30
0.0
 11
1.708423
 21
-1.542972
 31
0.0
  0
LINE
  5
203
100
AcDbEntity
  8
SCHRAUBEN
 62
     7
100
AcDbLine
 10
1.000111
 20
-1.190883
 30
0.0
 11
1.87551
 21
-0.315485
 31
0.0
  0
LINE
  5
202
100
AcDbEntity
  8
SCHRAUBEN
 62
     7
100
AcDbLine
 10
0.962904
 20
-1.757946
 30
0.0
 11
1.797995
 21
-0.923199
 31
0.0
  0
LINE
  5
201
100
AcDbEntity
  8
SCHRAUBEN
 62
     7
100
AcDbLine
 10
1.017681
 20
4.130239
 30
0.0
 11
2.120456
 21
5.233014
 31
0.0
  0
LINE
  5
200
100
AcDbEntity
  8
SCHRAUBEN
 62
     7
100
AcDbLine
 10
1.041452
 20
3.62381
 30
0.0
 11
2.13217
 21
4.714699
 31
0.0
  0
LINE
  5
1FF
100
AcDbEntity
  8
SCHRAUBEN
 62
     7
100
AcDbLine
 10
1.081071
 20
2.072311
 30
0.0
 11
2.12459
 21
3.115658
 31
0.0
  0
LINE
  5
1FE
100
AcDbEntity
  8
SCHRAUBEN
 62
     7
100
AcDbLine
 10
1.083138
 20
1.543833
 30
0.0
 11
2.105987
 21
2.566855
 31
0.0
  0
LINE
  5
1FD
100
AcDbEntity
  8
SCHRAUBEN
 62
     7
100
AcDbLine
 10
1.079004
 20
1.009844
 30
0.0
 11
2.078426
 21
2.009266
 31
0.0
  0
LINE
  5
1FC
100
AcDbEntity
  8
SCHRAUBEN
 62
     7
100
AcDbLine
 10
1.068669
 20
0.469308
 30
0.0
 11
2.042942
 21
1.442892
 31
0.0
  0
LINE
  5
1FB
100
AcDbEntity
  8
SCHRAUBEN
 62
     7
100
AcDbLine
 10
1.0604
 20
3.112041
 30
0.0
 11
2.137337
 21
4.18915
 31
0.0
  0
LINE
  5
1FA
100
AcDbEntity
  8
SCHRAUBEN
 62
     7
100
AcDbLine
 10
1.073492
 20
2.594932
 30
0.0
 11
2.134926
 21
3.656366
 31
0.0
  0
LINE
  5
1F9
100
AcDbEntity
  8
SCHRAUBEN
 62
     7
100
AcDbLine
 10
-0.03135
 20
6.793642
 30
0.0
 11
0.942234
 21
7.767054
 31
0.0
  0
LINE
  5
1F8
100
AcDbEntity
  8
SCHRAUBEN
 62
     7
100
AcDbLine
 10
0.401009
 20
6.695801
 30
0.0
 11
1.267795
 21
7.562415
 31
0.0
  0
LINE
  5
1F7
100
AcDbEntity
  8
SCHRAUBEN
 62
     7
100
AcDbLine
 10
0.694187
 20
6.45809
 30
0.0
 11
1.544781
 21
7.308684
 31
0.0
  0
LINE
  5
1F6
100
AcDbEntity
  8
SCHRAUBEN
 62
     7
100
AcDbLine
 10
0.868164
 20
6.102212
 30
0.0
 11
1.773191
 21
7.007066
 31
0.0
  0
LINE
  5
1F5
100
AcDbEntity
  8
SCHRAUBEN
 62
     7
100
AcDbLine
 10
0.916395
 20
5.62007
 30
0.0
 11
1.950269
 21
6.653944
 31
0.0
  0
LINE
  5
1F4
100
AcDbEntity
  8
SCHRAUBEN
 62
     7
100
AcDbLine
 10
0.95498
 20
5.128111
 30
0.0
 11
2.064646
 21
6.237604
 31
0.0
  0
LINE
  5
1F3
100
AcDbEntity
  8
SCHRAUBEN
 62
     7
100
AcDbLine
 10
0.988742
 20
4.631845
 30
0.0
 11
2.101164
 21
5.744094
 31
0.0
  0
ENDBLK
  5
230
100
AcDbEntity
  8
SCHRAUBEN
100
AcDbBlockEnd
  0
ENDSEC
  0
SECTION
  2
ENTITIES
  0
INSERT
  5
1F1
100
AcDbEntity
  8
SCHRAUBEN
 62
     7
100
AcDbBlockReference
  2
AI9-BLK3
 10
166.78224
 20
152.355128
 30
0.0
  0
INSERT
  5
1AF
100
AcDbEntity
  8
ROHR
  6
AI9-LType2
 62
     7
100
AcDbBlockReference
  2
AI9-BLK2
 10
94.934085
 20
141.893837
 30
0.0
  0
LINE
  5
1AC
100
AcDbEntity
  8
GETRENNT
  6
AI9-LType2
 62
     7
100
AcDbLine
 10
100.847247
 20
207.06712
 30
0.0
 11
159.596804
 21
207.06712
 31
0.0
  0
LINE
  5
1AB
100
AcDbEntity
  8
GETRENNT
  6
AI9-LType2
 62
     7
100
AcDbLine
 10
100.769732
 20
87.321802
 30
0.0
 11
159.51929
 21
87.321802
 31
0.0
  0
SPLINE
  5
1A8
100
AcDbEntity
  8
DAEMMUNG
 62
     7
100
AcDbSpline
210
0.0
220
0.0
230
1.0
 70
     8
 71
     3
 72
    17
 73
    13
 74
     0
 42
0.00000001
 43
0.00000001
 40
0.0
 40
0.0
 40
0.0
 40
0.0
 40
1.0
 40
1.0
 40
1.0
 40
2.0
 40
2.0
 40
2.0
 40
3.0
 40
3.0
 40
3.0
 40
4.0
 40
4.0
 40
4.0
 40
4.0
 10
113.6678249782986
 20
192.67902289496527
 30
0.0
 10
112.91576063368055
 20
192.38498399522567
 30
0.0
 10
112.05999891493055
 20
192.62682969835069
 30
0.0
 10
111.57286241319443
 20
193.27054578993054
 30
0.0
 10
111.08538140190971
 20
193.91443413628471
 30
0.0
 10
111.08538140190971
 20
194.80378553602429
 30
0.0
 10
111.57286241319443
 20
195.44767388237847
 30
0.0
 10
112.05999891493055
 20
196.09156222873261
 30
0.0
 10
112.91576063368055
 20
196.33306342230901
 30
0.0
 10
113.6678249782986
 20
196.03902452256943
 30
0.0
 10
113.6678249782986
 20
196.03902452256943
 30
0.0
 10
117.98797471788194
 20
194.35902370876735
 30
0.0
 10
117.98797471788194
 20
194.35902370876735
 30
0.0
  0
SPLINE
  5
1A7
100
AcDbEntity
  8
DAEMMUNG
 62
     7
100
AcDbSpline
210
0.0
220
0.0
230
1.0
 70
     8
 71
     3
 72
    17
 73
    13
 74
     0
 42
0.00000001
 43
0.00000001
 40
0.0
 40
0.0
 40
0.0
 40
0.0
 40
1.0
 40
1.0
 40
1.0
 40
2.0
 40
2.0
 40
2.0
 40
3.0
 40
3.0
 40
3.0
 40
4.0
 40
4.0
 40
4.0
 40
4.0
 10
117.98797471788194
 20
194.35902370876735
 30
0.0
 10
118.76553276909721
 20
194.11080457899303
 30
0.0
 10
119.61474880642361
 20
194.38985731336803
 30
0.0
 10
120.09327256944444
 20
195.05097113715277
 30
0.0
 10
120.57179633246527
 20
195.71225721571179
 30
0.0
 10
120.57179633246527
 20
196.605914984809
 30
0.0
 10
120.09327256944444
 20
197.26720106336805
 30
0.0
 10
119.61474880642361
 20
197.92831488715277
 30
0.0
 10
118.76553276909721
 20
198.20736762152777
 30
0.0
 10
117.98797471788194
 20
197.95914849175347
 30
0.0
 10
117.98797471788194
 20
197.95914849175347
 30
0.0
 10
113.6678249782986
 20
196.51909857855901
 30
0.0
 10
113.6678249782986
 20
196.51909857855901
 30
0.0
  0
SPLINE
  5
1A6
100
AcDbEntity
  8
DAEMMUNG
 62
     7
100
AcDbSpline
210
0.0
220
0.0
230
1.0
 70
     8
 71
     3
 72
    14
 73
    10
 74
     0
 42
0.00000001
 43
0.00000001
 40
0.0
 40
0.0
 40
0.0
 40
0.0
 40
1.0
 40
1.0
 40
1.0
 40
2.0
 40
2.0
 40
2.0
 40
3.0
 40
3.0
 40
3.0
 40
3.0
 10
111.21147189670138
 20
171.19489067925346
 30
0.0
 10
111.16909722222221
 20
171.81139051649305
 30
0.0
 10
111.44504937065972
 20
172.40687527126735
 30
0.0
 10
111.94321017795139
 20
172.77274441189235
 30
0.0
 10
112.44137098524304
 20
173.13861355251734
 30
0.0
 10
113.09214952256943
 20
173.22422417534722
 30
0.0
 10
113.6678249782986
 20
172.99908718532984
 30
0.0
 10
113.6678249782986
 20
172.99908718532984
 30
0.0
 10
117.98797471788194
 20
171.31908637152776
 30
0.0
 10
117.98797471788194
 20
171.31908637152776
 30
0.0
  0
SPLINE
  5
1A5
100
AcDbEntity
  8
DAEMMUNG
 62
     7
100
AcDbSpline
210
0.0
220
0.0
230
1.0
 70
     8
 71
     3
 72
    17
 73
    13
 74
     0
 42
0.00000001
 43
0.00000001
 40
0.0
 40
0.0
 40
0.0
 40
0.0
 40
1.0
 40
1.0
 40
1.0
 40
2.0
 40
2.0
 40
2.0
 40
3.0
 40
3.0
 40
3.0
 40
4.0
 40
4.0
 40
4.0
 40
4.0
 10
117.98797471788194
 20
190.51894802517359
 30
0.0
 10
118.76553276909721
 20
190.27072889539929
 30
0.0
 10
119.61474880642361
 20
190.54978162977429
 30
0.0
 10
120.09327256944444
 20
191.210895453559
 30
0.0
 10
120.57179633246527
 20
191.87218153211805
 30
0.0
 10
120.57179633246527
 20
192.76583930121527
 30
0.0
 10
120.09327256944444
 20
193.42712537977428
 30
0.0
 10
119.61474880642361
 20
194.088239203559
 30
0.0
 10
118.76553276909721
 20
194.367291937934
 30
0.0
 10
117.98797471788194
 20
194.1190728081597
 30
0.0
 10
117.98797471788194
 20
194.1190728081597
 30
0.0
 10
113.6678249782986
 20
192.67902289496527
 30
0.0
 10
113.6678249782986
 20
192.67902289496527
 30
0.0
  0
SPLINE
  5
1A4
100
AcDbEntity
  8
DAEMMUNG
 62
     7
100
AcDbSpline
210
0.0
220
0.0
230
1.0
 70
     8
 71
     3
 72
    17
 73
    13
 74
     0
 42
0.00000001
 43
0.00000001
 40
0.0
 40
0.0
 40
0.0
 40
0.0
 40
1.0
 40
1.0
 40
1.0
 40
2.0
 40
2.0
 40
2.0
 40
3.0
 40
3.0
 40
3.0
 40
4.0
 40
4.0
 40
4.0
 40
4.0
 10
113.6678249782986
 20
188.8389472113715
 30
0.0
 10
112.91576063368055
 20
188.54525282118053
 30
0.0
 10
112.05999891493055
 20
188.78675401475692
 30
0.0
 10
111.57286241319443
 20
189.4306423611111
 30
0.0
 10
111.08538140190971
 20
190.07453070746527
 30
0.0
 10
111.08538140190971
 20
190.96370985243053
 30
0.0
 10
111.57286241319443
 20
191.6075981987847
 30
0.0
 10
112.05999891493055
 20
192.25148654513887
 30
0.0
 10
112.91576063368055
 20
192.49298773871527
 30
0.0
 10
113.6678249782986
 20
192.19894883897567
 30
0.0
 10
113.6678249782986
 20
192.19894883897567
 30
0.0
 10
117.98797471788194
 20
190.51894802517359
 30
0.0
 10
117.98797471788194
 20
190.51894802517359
 30
0.0
  0
SPLINE
  5
1A3
100
AcDbEntity
  8
DAEMMUNG
 62
     7
100
AcDbSpline
210
0.0
220
0.0
230
1.0
 70
     8
 71
     3
 72
    17
 73
    13
 74
     0
 42
0.00000001
 43
0.00000001
 40
0.0
 40
0.0
 40
0.0
 40
0.0
 40
1.0
 40
1.0
 40
1.0
 40
2.0
 40
2.0
 40
2.0
 40
3.0
 40
3.0
 40
3.0
 40
4.0
 40
4.0
 40
4.0
 40
4.0
 10
113.6678249782986
 20
181.15914035373262
 30
0.0
 10
112.91576063368055
 20
180.86510145399305
 30
0.0
 10
112.05999891493055
 20
181.10660264756942
 30
0.0
 10
111.57286241319443
 20
181.75049099392359
 30
0.0
 10
111.08538140190971
 20
182.39437934027777
 30
0.0
 10
111.08538140190971
 20
183.28373074001735
 30
0.0
 10
111.57286241319443
 20
183.92761908637152
 30
0.0
 10
112.05999891493055
 20
184.57150743272567
 30
0.0
 10
112.91576063368055
 20
184.81318088107636
 30
0.0
 10
113.6678249782986
 20
184.51914198133679
 30
0.0
 10
113.6678249782986
 20
184.51914198133679
 30
0.0
 10
117.98797471788194
 20
182.83914116753471
 30
0.0
 10
117.98797471788194
 20
182.83914116753471
 30
0.0
  0
SPLINE
  5
1A2
100
AcDbEntity
  8
DAEMMUNG
 62
     7
100
AcDbSpline
210
0.0
220
0.0
230
1.0
 70
     8
 71
     3
 72
    17
 73
    13
 74
     0
 42
0.00000001
 43
0.00000001
 40
0.0
 40
0.0
 40
0.0
 40
0.0
 40
1.0
 40
1.0
 40
1.0
 40
2.0
 40
2.0
 40
2.0
 40
3.0
 40
3.0
 40
3.0
 40
4.0
 40
4.0
 40
4.0
 40
4.0
 10
113.6678249782986
 20
173.47916124131942
 30
0.0
 10
112.91576063368055
 20
173.18512234157984
 30
0.0
 10
112.05999891493055
 20
173.42679578993054
 30
0.0
 10
111.57286241319443
 20
174.07068413628471
 30
0.0
 10
111.08538140190971
 20
174.71457248263889
 30
0.0
 10
111.08538140190971
 20
175.60357937282984
 30
0.0
 10
111.57286241319443
 20
176.24746771918402
 30
0.0
 10
112.05999891493055
 20
176.89135606553819
 30
0.0
 10
112.91576063368055
 20
177.13302951388889
 30
0.0
 10
113.6678249782986
 20
176.83916286892361
 30
0.0
 10
113.6678249782986
 20
176.83916286892361
 30
0.0
 10
117.98797471788194
 20
175.1591620551215
 30
0.0
 10
117.98797471788194
 20
175.1591620551215
 30
0.0
  0
SPLINE
  5
1A1
100
AcDbEntity
  8
DAEMMUNG
 62
     7
100
AcDbSpline
210
0.0
220
0.0
230
1.0
 70
     8
 71
     3
 72
    17
 73
    13
 74
     0
 42
0.00000001
 43
0.00000001
 40
0.0
 40
0.0
 40
0.0
 40
0.0
 40
1.0
 40
1.0
 40
1.0
 40
2.0
 40
2.0
 40
2.0
 40
3.0
 40
3.0
 40
3.0
 40
4.0
 40
4.0
 40
4.0
 40
4.0
 10
113.6678249782986
 20
177.31906467013889
 30
0.0
 10
112.91576063368055
 20
177.02502577039928
 30
0.0
 10
112.05999891493055
 20
177.26687147352428
 30
0.0
 10
111.57286241319443
 20
177.91075981987845
 30
0.0
 10
111.08538140190971
 20
178.55464816623262
 30
0.0
 10
111.08538140190971
 20
179.44365505642361
 30
0.0
 10
111.57286241319443
 20
180.08754340277775
 30
0.0
 10
112.05999891493055
 20
180.73143174913193
 30
0.0
 10
112.91576063368055
 20
180.97310519748262
 30
0.0
 10
113.6678249782986
 20
180.67906629774305
 30
0.0
 10
113.6678249782986
 20
180.67906629774305
 30
0.0
 10
117.98797471788194
 20
178.99906548394097
 30
0.0
 10
117.98797471788194
 20
178.99906548394097
 30
0.0
  0
SPLINE
  5
1A0
100
AcDbEntity
  8
DAEMMUNG
 62
     7
100
AcDbSpline
210
0.0
220
0.0
230
1.0
 70
     8
 71
     3
 72
    17
 73
    13
 74
     0
 42
0.00000001
 43
0.00000001
 40
0.0
 40
0.0
 40
0.0
 40
0.0
 40
1.0
 40
1.0
 40
1.0
 40
2.0
 40
2.0
 40
2.0
 40
3.0
 40
3.0
 40
3.0
 40
4.0
 40
4.0
 40
4.0
 40
4.0
 10
113.6678249782986
 20
184.99921603732636
 30
0.0
 10
112.91576063368055
 20
184.70517713758679
 30
0.0
 10
112.05999891493055
 20
184.94667833116318
 30
0.0
 10
111.57286241319443
 20
185.59056667751733
 30
0.0
 10
111.08538140190971
 20
186.2344550238715
 30
0.0
 10
111.08538140190971
 20
187.12363416883679
 30
0.0
 10
111.57286241319443
 20
187.76752251519096
 30
0.0
 10
112.05999891493055
 20
188.41141086154514
 30
0.0
 10
112.91576063368055
 20
188.65325656467013
 30
0.0
 10
113.6678249782986
 20
188.35921766493053
 30
0.0
 10
113.6678249782986
 20
188.35921766493053
 30
0.0
 10
117.98797471788194
 20
186.67921685112844
 30
0.0
 10
117.98797471788194
 20
186.67921685112844
 30
0.0
  0
SPLINE
  5
19F
100
AcDbEntity
  8
DAEMMUNG
 62
     7
100
AcDbSpline
210
0.0
220
0.0
230
1.0
 70
     8
 71
     3
 72
    17
 73
    13
 74
     0
 42
0.00000001
 43
0.00000001
 40
0.0
 40
0.0
 40
0.0
 40
0.0
 40
1.0
 40
1.0
 40
1.0
 40
2.0
 40
2.0
 40
2.0
 40
3.0
 40
3.0
 40
3.0
 40
4.0
 40
4.0
 40
4.0
 40
4.0
 10
117.98797471788194
 20
186.67921685112844
 30
0.0
 10
118.76553276909721
 20
186.43082546657985
 30
0.0
 10
119.61474880642361
 20
186.70987820095485
 30
0.0
 10
120.09327256944444
 20
187.37116427951386
 30
0.0
 10
120.57179633246527
 20
188.03210584852428
 30
0.0
 10
120.57179633246527
 20
188.92610812717012
 30
0.0
 10
120.09327256944444
 20
189.58722195095484
 30
0.0
 10
119.61474880642361
 20
190.24816351996526
 30
0.0
 10
118.76553276909721
 20
190.52756076388889
 30
0.0
 10
117.98797471788194
 20
190.27916937934026
 30
0.0
 10
117.98797471788194
 20
190.27916937934026
 30
0.0
 10
113.6678249782986
 20
188.8389472113715
 30
0.0
 10
113.6678249782986
 20
188.8389472113715
 30
0.0
  0
SPLINE
  5
19E
100
AcDbEntity
  8
DAEMMUNG
 62
     7
100
AcDbSpline
210
0.0
220
0.0
230
1.0
 70
     8
 71
     3
 72
    17
 73
    13
 74
     0
 42
0.00000001
 43
0.00000001
 40
0.0
 40
0.0
 40
0.0
 40
0.0
 40
1.0
 40
1.0
 40
1.0
 40
2.0
 40
2.0
 40
2.0
 40
3.0
 40
3.0
 40
3.0
 40
4.0
 40
4.0
 40
4.0
 40
4.0
 10
117.98797471788194
 20
178.99906548394097
 30
0.0
 10
118.76553276909721
 20
178.75067409939234
 30
0.0
 10
119.61474880642361
 20
179.02972683376734
 30
0.0
 10
120.09327256944444
 20
179.69101291232639
 30
0.0
 10
120.57179633246527
 20
180.3521267361111
 30
0.0
 10
120.57179633246527
 20
181.24595675998262
 30
0.0
 10
120.09327256944444
 20
181.90707058376734
 30
0.0
 10
119.61474880642361
 20
182.56835666232638
 30
0.0
 10
118.76553276909721
 20
182.84740939670138
 30
0.0
 10
117.98797471788194
 20
182.59901801215275
 30
0.0
 10
117.98797471788194
 20
182.59901801215275
 30
0.0
 10
113.6678249782986
 20
181.15914035373262
 30
0.0
 10
113.6678249782986
 20
181.15914035373262
 30
0.0
  0
SPLINE
  5
19D
100
AcDbEntity
  8
DAEMMUNG
 62
     7
100
AcDbSpline
210
0.0
220
0.0
230
1.0
 70
     8
 71
     3
 72
    17
 73
    13
 74
     0
 42
0.00000001
 43
0.00000001
 40
0.0
 40
0.0
 40
0.0
 40
0.0
 40
1.0
 40
1.0
 40
1.0
 40
2.0
 40
2.0
 40
2.0
 40
3.0
 40
3.0
 40
3.0
 40
4.0
 40
4.0
 40
4.0
 40
4.0
 10
117.98797471788194
 20
182.83914116753471
 30
0.0
 10
118.76553276909721
 20
182.59074978298611
 30
0.0
 10
119.61474880642361
 20
182.86980251736111
 30
0.0
 10
120.09327256944444
 20
183.53108859592012
 30
0.0
 10
120.57179633246527
 20
184.19220241970484
 30
0.0
 10
120.57179633246527
 20
185.08603244357639
 30
0.0
 10
120.09327256944444
 20
185.7471462673611
 30
0.0
 10
119.61474880642361
 20
186.40843234592012
 30
0.0
 10
118.76553276909721
 20
186.68748508029512
 30
0.0
 10
117.98797471788194
 20
186.43909369574652
 30
0.0
 10
117.98797471788194
 20
186.43909369574652
 30
0.0
 10
113.6678249782986
 20
184.99921603732636
 30
0.0
 10
113.6678249782986
 20
184.99921603732636
 30
0.0
  0
SPLINE
  5
19C
100
AcDbEntity
  8
DAEMMUNG
 62
     7
100
AcDbSpline
210
0.0
220
0.0
230
1.0
 70
     8
 71
     3
 72
    17
 73
    13
 74
     0
 42
0.00000001
 43
0.00000001
 40
0.0
 40
0.0
 40
0.0
 40
0.0
 40
1.0
 40
1.0
 40
1.0
 40
2.0
 40
2.0
 40
2.0
 40
3.0
 40
3.0
 40
3.0
 40
4.0
 40
4.0
 40
4.0
 40
4.0
 10
117.98797471788194
 20
171.31908637152776
 30
0.0
 10
118.76553276909721
 20
171.07086724175346
 30
0.0
 10
119.61474880642361
 20
171.34991997612846
 30
0.0
 10
120.09327256944444
 20
172.01103379991318
 30
0.0
 10
120.57179633246527
 20
172.67231987847219
 30
0.0
 10
120.57179633246527
 20
173.56597764756944
 30
0.0
 10
120.09327256944444
 20
174.22726372612846
 30
0.0
 10
119.61474880642361
 20
174.88837754991317
 30
0.0
 10
118.76553276909721
 20
175.16743028428817
 30
0.0
 10
117.98797471788194
 20
174.91921115451387
 30
0.0
 10
117.98797471788194
 20
174.91921115451387
 30
0.0
 10
113.6678249782986
 20
173.47916124131942
 30
0.0
 10
113.6678249782986
 20
173.47916124131942
 30
0.0
  0
SPLINE
  5
19B
100
AcDbEntity
  8
DAEMMUNG
 62
     7
100
AcDbSpline
210
0.0
220
0.0
230
1.0
 70
     8
 71
     3
 72
    17
 73
    13
 74
     0
 42
0.00000001
 43
0.00000001
 40
0.0
 40
0.0
 40
0.0
 40
0.0
 40
1.0
 40
1.0
 40
1.0
 40
2.0
 40
2.0
 40
2.0
 40
3.0
 40
3.0
 40
3.0
 40
4.0
 40
4.0
 40
4.0
 40
4.0
 10
117.98797471788194
 20
175.1591620551215
 30
0.0
 10
118.76553276909721
 20
174.9109429253472
 30
0.0
 10
119.61474880642361
 20
175.1899956597222
 30
0.0
 10
120.09327256944444
 20
175.85093722873262
 30
0.0
 10
120.57179633246527
 20
176.51239556206596
 30
0.0
 10
120.57179633246527
 20
177.40605333116318
 30
0.0
 10
120.09327256944444
 20
178.0669949001736
 30
0.0
 10
119.61474880642361
 20
178.72828097873261
 30
0.0
 10
118.76553276909721
 20
179.00733371310761
 30
0.0
 10
117.98797471788194
 20
178.75928683810761
 30
0.0
 10
117.98797471788194
 20
178.75928683810761
 30
0.0
 10
113.6678249782986
 20
177.31906467013889
 30
0.0
 10
113.6678249782986
 20
177.31906467013889
 30
0.0
  0
LINE
  5
19A
100
AcDbEntity
  8
DAEMMUNG
 62
     7
100
AcDbLine
 10
114.932864
 20
207.06712
 30
0.0
 11
117.987975
 21
205.879079
 31
0.0
  0
SPLINE
  5
199
100
AcDbEntity
  8
DAEMMUNG
 62
     7
100
AcDbSpline
210
0.0
220
0.0
230
1.0
 70
     8
 71
     3
 72
    17
 73
    13
 74
     0
 42
0.00000001
 43
0.00000001
 40
0.0
 40
0.0
 40
0.0
 40
0.0
 40
1.0
 40
1.0
 40
1.0
 40
2.0
 40
2.0
 40
2.0
 40
3.0
 40
3.0
 40
3.0
 40
4.0
 40
4.0
 40
4.0
 40
4.0
 10
113.6678249782986
 20
196.51909857855901
 30
0.0
 10
112.91576063368055
 20
196.22505967881943
 30
0.0
 10
112.05999891493055
 20
196.46673312717013
 30
0.0
 10
111.57286241319443
 20
197.11062147352428
 30
0.0
 10
111.08538140190971
 20
197.75450981987845
 30
0.0
 10
111.08538140190971
 20
198.64386121961803
 30
0.0
 10
111.57286241319443
 20
199.28774956597221
 30
0.0
 10
112.05999891493055
 20
199.93129340277775
 30
0.0
 10
112.91576063368055
 20
200.17313910590275
 30
0.0
 10
113.6678249782986
 20
199.87910020616317
 30
0.0
 10
113.6678249782986
 20
199.87910020616317
 30
0.0
 10
117.98797471788194
 20
198.19909939236109
 30
0.0
 10
117.98797471788194
 20
198.19909939236109
 30
0.0
  0
SPLINE
  5
198
100
AcDbEntity
  8
DAEMMUNG
 62
     7
100
AcDbSpline
210
0.0
220
0.0
230
1.0
 70
     8
 71
     3
 72
    17
 73
    13
 74
     0
 42
0.00000001
 43
0.00000001
 40
0.0
 40
0.0
 40
0.0
 40
0.0
 40
1.0
 40
1.0
 40
1.0
 40
2.0
 40
2.0
 40
2.0
 40
3.0
 40
3.0
 40
3.0
 40
4.0
 40
4.0
 40
4.0
 40
4.0
 10
117.98797471788194
 20
198.19909939236109
 30
0.0
 10
118.76553276909721
 20
197.95088026258679
 30
0.0
 10
119.61474880642361
 20
198.22993299696179
 30
0.0
 10
120.09327256944444
 20
198.89104682074651
 30
0.0
 10
120.57179633246527
 20
199.55233289930553
 30
0.0
 10
120.57179633246527
 20
200.44599066840277
 30
0.0
 10
120.09327256944444
 20
201.10727674696179
 30
0.0
 10
119.61474880642361
 20
201.7683905707465
 30
0.0
 10
118.76553276909721
 20
202.0474433051215
 30
0.0
 10
117.98797471788194
 20
201.79922417534721
 30
0.0
 10
117.98797471788194
 20
201.79922417534721
 30
0.0
 10
113.6678249782986
 20
200.35917426215275
 30
0.0
 10
113.6678249782986
 20
200.35917426215275
 30
0.0
  0
SPLINE
  5
197
100
AcDbEntity
  8
DAEMMUNG
 62
     7
100
AcDbSpline
210
0.0
220
0.0
230
1.0
 70
     8
 71
     3
 72
    17
 73
    13
 74
     0
 42
0.00000001
 43
0.00000001
 40
0.0
 40
0.0
 40
0.0
 40
0.0
 40
1.0
 40
1.0
 40
1.0
 40
2.0
 40
2.0
 40
2.0
 40
3.0
 40
3.0
 40
3.0
 40
4.0
 40
4.0
 40
4.0
 40
4.0
 10
117.98797471788194
 20
202.03900282118053
 30
0.0
 10
118.76553276909721
 20
201.79095594618053
 30
0.0
 10
119.61474880642361
 20
202.07000868055553
 30
0.0
 10
120.09327256944444
 20
202.73095024956595
 30
0.0
 10
120.57179633246527
 20
203.39206407335067
 30
0.0
 10
120.57179633246527
 20
204.28589409722221
 30
0.0
 10
120.09327256944444
 20
204.94700792100693
 30
0.0
 10
119.61474880642361
 20
205.60829399956594
 30
0.0
 10
118.76553276909721
 20
205.88734673394094
 30
0.0
 10
117.98797471788194
 20
205.63895534939235
 30
0.0
 10
117.98797471788194
 20
205.63895534939235
 30
0.0
 10
113.6678249782986
 20
204.19907769097222
 30
0.0
 10
113.6678249782986
 20
204.19907769097222
 30
0.0
  0
SPLINE
  5
196
100
AcDbEntity
  8
DAEMMUNG
 62
     7
100
AcDbSpline
210
0.0
220
0.0
230
1.0
 70
     8
 71
     3
 72
    17
 73
    13
 74
     0
 42
0.00000001
 43
0.00000001
 40
0.0
 40
0.0
 40
0.0
 40
0.0
 40
1.0
 40
1.0
 40
1.0
 40
2.0
 40
2.0
 40
2.0
 40
3.0
 40
3.0
 40
3.0
 40
4.0
 40
4.0
 40
4.0
 40
4.0
 10
113.6678249782986
 20
200.35917426215275
 30
0.0
 10
112.91576063368055
 20
200.06513536241317
 30
0.0
 10
112.05999891493055
 20
200.30680881076387
 30
0.0
 10
111.57286241319443
 20
200.95069715711804
 30
0.0
 10
111.08538140190971
 20
201.59458550347222
 30
0.0
 10
111.08538140190971
 20
202.48359239366317
 30
0.0
 10
111.57286241319443
 20
203.12748074001735
 30
0.0
 10
112.05999891493055
 20
203.77136908637152
 30
0.0
 10
112.91576063368055
 20
204.01304253472222
 30
0.0
 10
113.6678249782986
 20
203.71900363498261
 30
0.0
 10
113.6678249782986
 20
203.71900363498261
 30
0.0
 10
117.98797471788194
 20
202.03900282118053
 30
0.0
 10
117.98797471788194
 20
202.03900282118053
 30
0.0
  0
SPLINE
  5
195
100
AcDbEntity
  8
DAEMMUNG
 62
     7
100
AcDbSpline
210
0.0
220
0.0
230
1.0
 70
     8
 71
     3
 72
    11
 73
     7
 74
     0
 42
0.00000001
 43
0.00000001
 40
0.0
 40
0.0
 40
0.0
 40
0.0
 40
1.0
 40
1.0
 40
1.0
 40
2.0
 40
2.0
 40
2.0
 40
2.0
 10
113.6678249782986
 20
204.19907769097222
 30
0.0
 10
112.89371202256943
 20
203.89642605251734
 30
0.0
 10
112.01245659722221
 20
204.16204291449651
 30
0.0
 10
111.53496636284721
 20
204.84244927300347
 30
0.0
 10
111.05713161892361
 20
205.52302788628469
 30
0.0
 10
111.10605197482639
 20
206.44149034288193
 30
0.0
 10
111.65382215711804
 20
207.06711968315972
 30
0.0
  0
SPLINE
  5
194
100
AcDbEntity
  8
DAEMMUNG
 62
     7
100
AcDbSpline
210
0.0
220
0.0
230
1.0
 70
     8
 71
     3
 72
     8
 73
     4
 74
     0
 42
0.00000001
 43
0.00000001
 40
0.0
 40
0.0
 40
0.0
 40
0.0
 40
1.0
 40
1.0
 40
1.0
 40
1.0
 10
117.98797471788194
 20
205.8790785047743
 30
0.0
 10
118.96775987413193
 20
205.56643608940971
 30
0.0
 10
120.01713595920138
 20
206.09422471788193
 30
0.0
 10
120.35062120225693
 20
207.06711968315972
 30
0.0
  0
SPLINE
  5
193
100
AcDbEntity
  8
DAEMMUNG
 62
     7
100
AcDbSpline
210
0.0
220
0.0
230
1.0
 70
     8
 71
     3
 72
    17
 73
    13
 74
     0
 42
0.00000001
 43
0.00000001
 40
0.0
 40
0.0
 40
0.0
 40
0.0
 40
1.0
 40
1.0
 40
1.0
 40
2.0
 40
2.0
 40
2.0
 40
3.0
 40
3.0
 40
3.0
 40
4.0
 40
4.0
 40
4.0
 40
4.0
 10
113.62889539930555
 20
108.80645073784721
 30
0.0
 10
112.8771755642361
 20
108.51292860243055
 30
0.0
 10
112.02141384548609
 20
108.75408528645832
 30
0.0
 10
111.53393283420138
 20
109.39797363281249
 30
0.0
 10
111.04679633246526
 20
110.04186197916665
 30
0.0
 10
111.04679633246526
 20
110.93138563368055
 30
0.0
 10
111.53393283420138
 20
111.57527398003471
 30
0.0
 10
112.02141384548609
 20
112.21916232638888
 30
0.0
 10
112.8771755642361
 20
112.46031901041665
 30
0.0
 10
113.62889539930555
 20
112.16645236545138
 30
0.0
 10
113.62889539930555
 20
112.16645236545138
 30
0.0
 10
117.94904513888888
 20
110.48627929687498
 30
0.0
 10
117.94904513888888
 20
110.48627929687498
 30
0.0
  0
SPLINE
  5
192
100
AcDbEntity
  8
DAEMMUNG
 62
     7
100
AcDbSpline
210
0.0
220
0.0
230
1.0
 70
     8
 71
     3
 72
    17
 73
    13
 74
     0
 42
0.00000001
 43
0.00000001
 40
0.0
 40
0.0
 40
0.0
 40
0.0
 40
1.0
 40
1.0
 40
1.0
 40
2.0
 40
2.0
 40
2.0
 40
3.0
 40
3.0
 40
3.0
 40
4.0
 40
4.0
 40
4.0
 40
4.0
 10
117.94904513888888
 20
110.48627929687498
 30
0.0
 10
118.72694769965277
 20
110.23823242187498
 30
0.0
 10
119.57581922743054
 20
110.51728515624998
 30
0.0
 10
120.05434299045137
 20
111.17839898003471
 30
0.0
 10
120.53355577256943
 20
111.83985731336804
 30
0.0
 10
120.53355577256943
 20
112.73317057291666
 30
0.0
 10
120.05434299045137
 20
113.39462890624999
 30
0.0
 10
119.57581922743054
 20
114.05574273003471
 30
0.0
 10
118.72694769965277
 20
114.33479546440971
 30
0.0
 10
117.94904513888888
 20
114.08674858940971
 30
0.0
 10
117.94904513888888
 20
114.08674858940971
 30
0.0
 10
113.62889539930555
 20
112.64635416666665
 30
0.0
 10
113.62889539930555
 20
112.64635416666665
 30
0.0
  0
SPLINE
  5
191
100
AcDbEntity
  8
DAEMMUNG
 62
     7
100
AcDbSpline
210
0.0
220
0.0
230
1.0
 70
     8
 71
     3
 72
    14
 73
    10
 74
     0
 42
0.00000001
 43
0.00000001
 40
0.0
 40
0.0
 40
0.0
 40
0.0
 40
1.0
 40
1.0
 40
1.0
 40
2.0
 40
2.0
 40
2.0
 40
3.0
 40
3.0
 40
3.0
 40
3.0
 10
111.17288682725693
 20
87.321801757812494
 30
0.0
 10
111.13051215277777
 20
87.938818359374991
 30
0.0
 10
111.40646430121527
 20
88.534130859374997
 30
0.0
 10
111.90462510850693
 20
88.899999999999991
 30
0.0
 10
112.4027859157986
 20
89.265869140624986
 30
0.0
 10
113.05321994357638
 20
89.35165201822916
 30
0.0
 10
113.62889539930555
 20
89.126342773437486
 30
0.0
 10
113.62889539930555
 20
89.126342773437486
 30
0.0
 10
117.94904513888888
 20
87.446514214409717
 30
0.0
 10
117.94904513888888
 20
87.446514214409717
 30
0.0
  0
SPLINE
  5
190
100
AcDbEntity
  8
DAEMMUNG
 62
     7
100
AcDbSpline
210
0.0
220
0.0
230
1.0
 70
     8
 71
     3
 72
    17
 73
    13
 74
     0
 42
0.00000001
 43
0.00000001
 40
0.0
 40
0.0
 40
0.0
 40
0.0
 40
1.0
 40
1.0
 40
1.0
 40
2.0
 40
2.0
 40
2.0
 40
3.0
 40
3.0
 40
3.0
 40
4.0
 40
4.0
 40
4.0
 40
4.0
 10
117.94904513888888
 20
106.64672037760415
 30
0.0
 10
118.72694769965277
 20
106.39832899305554
 30
0.0
 10
119.57581922743054
 20
106.67738172743054
 30
0.0
 10
120.05434299045137
 20
107.33884006076389
 30
0.0
 10
120.53355577256943
 20
107.99960937499999
 30
0.0
 10
120.53355577256943
 20
108.89361165364582
 30
0.0
 10
120.05434299045137
 20
109.55472547743055
 30
0.0
 10
119.57581922743054
 20
110.21549479166666
 30
0.0
 10
118.72694769965277
 20
110.49454752604166
 30
0.0
 10
117.94904513888888
 20
110.24650065104166
 30
0.0
 10
117.94904513888888
 20
110.24650065104166
 30
0.0
 10
113.62889539930555
 20
108.80645073784721
 30
0.0
 10
113.62889539930555
 20
108.80645073784721
 30
0.0
  0
SPLINE
  5
18F
100
AcDbEntity
  8
DAEMMUNG
 62
     7
100
AcDbSpline
210
0.0
220
0.0
230
1.0
 70
     8
 71
     3
 72
    17
 73
    13
 74
     0
 42
0.00000001
 43
0.00000001
 40
0.0
 40
0.0
 40
0.0
 40
0.0
 40
1.0
 40
1.0
 40
1.0
 40
2.0
 40
2.0
 40
2.0
 40
3.0
 40
3.0
 40
3.0
 40
4.0
 40
4.0
 40
4.0
 40
4.0
 10
113.62889539930555
 20
104.96620279947916
 30
0.0
 10
112.8771755642361
 20
104.6726806640625
 30
0.0
 10
112.02141384548609
 20
104.91418185763888
 30
0.0
 10
111.53393283420138
 20
105.55807020399304
 30
0.0
 10
111.04679633246526
 20
106.20195855034721
 30
0.0
 10
111.04679633246526
 20
107.0911376953125
 30
0.0
 10
111.53393283420138
 20
107.73502604166666
 30
0.0
 10
112.02141384548609
 20
108.37891438802082
 30
0.0
 10
112.8771755642361
 20
108.62041558159721
 30
0.0
 10
113.62889539930555
 20
108.32689344618055
 30
0.0
 10
113.62889539930555
 20
108.32689344618055
 30
0.0
 10
117.94904513888888
 20
106.64672037760415
 30
0.0
 10
117.94904513888888
 20
106.64672037760415
 30
0.0
  0
SPLINE
  5
18E
100
AcDbEntity
  8
DAEMMUNG
 62
     7
100
AcDbSpline
210
0.0
220
0.0
230
1.0
 70
     8
 71
     3
 72
    17
 73
    13
 74
     0
 42
0.00000001
 43
0.00000001
 40
0.0
 40
0.0
 40
0.0
 40
0.0
 40
1.0
 40
1.0
 40
1.0
 40
2.0
 40
2.0
 40
2.0
 40
3.0
 40
3.0
 40
3.0
 40
4.0
 40
4.0
 40
4.0
 40
4.0
 10
113.62889539930555
 20
97.28674045138888
 30
0.0
 10
112.8771755642361
 20
96.992529296874991
 30
0.0
 10
112.02141384548609
 20
97.234030490451374
 30
0.0
 10
111.53393283420138
 20
97.87826334635416
 30
0.0
 10
111.04679633246526
 20
98.521807183159709
 30
0.0
 10
111.04679633246526
 20
99.410986328124991
 30
0.0
 10
111.53393283420138
 20
100.05487467447915
 30
0.0
 10
112.02141384548609
 20
100.69876302083333
 30
0.0
 10
112.8771755642361
 20
100.94060872395832
 30
0.0
 10
113.62889539930555
 20
100.64674207899304
 30
0.0
 10
113.62889539930555
 20
100.64674207899304
 30
0.0
 10
117.94904513888888
 20
98.966569010416663
 30
0.0
 10
117.94904513888888
 20
98.966569010416663
 30
0.0
  0
SPLINE
  5
18D
100
AcDbEntity
  8
DAEMMUNG
 62
     7
100
AcDbSpline
210
0.0
220
0.0
230
1.0
 70
     8
 71
     3
 72
    17
 73
    13
 74
     0
 42
0.00000001
 43
0.00000001
 40
0.0
 40
0.0
 40
0.0
 40
0.0
 40
1.0
 40
1.0
 40
1.0
 40
2.0
 40
2.0
 40
2.0
 40
3.0
 40
3.0
 40
3.0
 40
4.0
 40
4.0
 40
4.0
 40
4.0
 10
113.62889539930555
 20
89.606589084201374
 30
0.0
 10
112.8771755642361
 20
89.312377929687486
 30
0.0
 10
112.02141384548609
 20
89.554223632812494
 30
0.0
 10
111.53393283420138
 20
90.198111979166654
 30
0.0
 10
111.04679633246526
 20
90.842000325520829
 30
0.0
 10
111.04679633246526
 20
91.730834960937486
 30
0.0
 10
111.53393283420138
 20
92.37472330729166
 30
0.0
 10
112.02141384548609
 20
93.01861165364582
 30
0.0
 10
112.8771755642361
 20
93.260457356770829
 30
0.0
 10
113.62889539930555
 20
92.966590711805551
 30
0.0
 10
113.62889539930555
 20
92.966590711805551
 30
0.0
 10
117.94904513888888
 20
91.286417643229157
 30
0.0
 10
117.94904513888888
 20
91.286417643229157
 30
0.0
  0
SPLINE
  5
18C
100
AcDbEntity
  8
DAEMMUNG
 62
     7
100
AcDbSpline
210
0.0
220
0.0
230
1.0
 70
     8
 71
     3
 72
    17
 73
    13
 74
     0
 42
0.00000001
 43
0.00000001
 40
0.0
 40
0.0
 40
0.0
 40
0.0
 40
1.0
 40
1.0
 40
1.0
 40
2.0
 40
2.0
 40
2.0
 40
3.0
 40
3.0
 40
3.0
 40
4.0
 40
4.0
 40
4.0
 40
4.0
 10
113.62889539930555
 20
93.446492513020829
 30
0.0
 10
112.8771755642361
 20
93.152625868055551
 30
0.0
 10
112.02141384548609
 20
93.394471571180546
 30
0.0
 10
111.53393283420138
 20
94.03835991753472
 30
0.0
 10
111.04679633246526
 20
94.68224826388888
 30
0.0
 10
111.04679633246526
 20
95.571082899305551
 30
0.0
 10
111.53393283420138
 20
96.214971245659711
 30
0.0
 10
112.02141384548609
 20
96.858859592013886
 30
0.0
 10
112.8771755642361
 20
97.10070529513888
 30
0.0
 10
113.62889539930555
 20
96.806494140624991
 30
0.0
 10
113.62889539930555
 20
96.806494140624991
 30
0.0
 10
117.94904513888888
 20
95.126665581597209
 30
0.0
 10
117.94904513888888
 20
95.126665581597209
 30
0.0
  0
SPLINE
  5
18B
100
AcDbEntity
  8
DAEMMUNG
 62
     7
100
AcDbSpline
210
0.0
220
0.0
230
1.0
 70
     8
 71
     3
 72
    17
 73
    13
 74
     0
 42
0.00000001
 43
0.00000001
 40
0.0
 40
0.0
 40
0.0
 40
0.0
 40
1.0
 40
1.0
 40
1.0
 40
2.0
 40
2.0
 40
2.0
 40
3.0
 40
3.0
 40
3.0
 40
4.0
 40
4.0
 40
4.0
 40
4.0
 10
113.62889539930555
 20
101.12664388020832
 30
0.0
 10
112.8771755642361
 20
100.83277723524304
 30
0.0
 10
112.02141384548609
 20
101.07393391927083
 30
0.0
 10
111.53393283420138
 20
101.71782226562499
 30
0.0
 10
111.04679633246526
 20
102.36171061197916
 30
0.0
 10
111.04679633246526
 20
103.25123426649304
 30
0.0
 10
111.53393283420138
 20
103.89512261284722
 30
0.0
 10
112.02141384548609
 20
104.53901095920138
 30
0.0
 10
112.8771755642361
 20
104.78016764322916
 30
0.0
 10
113.62889539930555
 20
104.4866455078125
 30
0.0
 10
113.62889539930555
 20
104.4866455078125
 30
0.0
 10
117.94904513888888
 20
102.80681694878471
 30
0.0
 10
117.94904513888888
 20
102.80681694878471
 30
0.0
  0
SPLINE
  5
18A
100
AcDbEntity
  8
DAEMMUNG
 62
     7
100
AcDbSpline
210
0.0
220
0.0
230
1.0
 70
     8
 71
     3
 72
    17
 73
    13
 74
     0
 42
0.00000001
 43
0.00000001
 40
0.0
 40
0.0
 40
0.0
 40
0.0
 40
1.0
 40
1.0
 40
1.0
 40
2.0
 40
2.0
 40
2.0
 40
3.0
 40
3.0
 40
3.0
 40
4.0
 40
4.0
 40
4.0
 40
4.0
 10
117.94904513888888
 20
102.80681694878471
 30
0.0
 10
118.72694769965277
 20
102.55808105468749
 30
0.0
 10
119.57581922743054
 20
102.83713378906249
 30
0.0
 10
120.05434299045137
 20
103.49859212239582
 30
0.0
 10
120.53355577256943
 20
104.15970594618055
 30
0.0
 10
120.53355577256943
 20
105.05370822482638
 30
0.0
 10
120.05434299045137
 20
105.71447753906249
 30
0.0
 10
119.57581922743054
 20
106.37593587239583
 30
0.0
 10
118.72694769965277
 20
106.65498860677083
 30
0.0
 10
117.94904513888888
 20
106.40659722222222
 30
0.0
 10
117.94904513888888
 20
106.40659722222222
 30
0.0
 10
113.62889539930555
 20
104.96620279947916
 30
0.0
 10
113.62889539930555
 20
104.96620279947916
 30
0.0
  0
SPLINE
  5
189
100
AcDbEntity
  8
DAEMMUNG
 62
     7
100
AcDbSpline
210
0.0
220
0.0
230
1.0
 70
     8
 71
     3
 72
    17
 73
    13
 74
     0
 42
0.00000001
 43
0.00000001
 40
0.0
 40
0.0
 40
0.0
 40
0.0
 40
1.0
 40
1.0
 40
1.0
 40
2.0
 40
2.0
 40
2.0
 40
3.0
 40
3.0
 40
3.0
 40
4.0
 40
4.0
 40
4.0
 40
4.0
 10
117.94904513888888
 20
95.126665581597209
 30
0.0
 10
118.72694769965277
 20
94.877929687499986
 30
0.0
 10
119.57581922743054
 20
95.157671440972209
 30
0.0
 10
120.05434299045137
 20
95.818440755208329
 30
0.0
 10
120.53355577256943
 20
96.479554578993046
 30
0.0
 10
120.53355577256943
 20
97.373556857638874
 30
0.0
 10
120.05434299045137
 20
98.034326171874994
 30
0.0
 10
119.57581922743054
 20
98.695784505208323
 30
0.0
 10
118.72694769965277
 20
98.974837239583323
 30
0.0
 10
117.94904513888888
 20
98.726445855034711
 30
0.0
 10
117.94904513888888
 20
98.726445855034711
 30
0.0
 10
113.62889539930555
 20
97.28674045138888
 30
0.0
 10
113.62889539930555
 20
97.28674045138888
 30
0.0
  0
SPLINE
  5
188
100
AcDbEntity
  8
DAEMMUNG
 62
     7
100
AcDbSpline
210
0.0
220
0.0
230
1.0
 70
     8
 71
     3
 72
    17
 73
    13
 74
     0
 42
0.00000001
 43
0.00000001
 40
0.0
 40
0.0
 40
0.0
 40
0.0
 40
1.0
 40
1.0
 40
1.0
 40
2.0
 40
2.0
 40
2.0
 40
3.0
 40
3.0
 40
3.0
 40
4.0
 40
4.0
 40
4.0
 40
4.0
 10
117.94904513888888
 20
98.966569010416663
 30
0.0
 10
118.72694769965277
 20
98.718177625868051
 30
0.0
 10
119.57581922743054
 20
98.997230360243051
 30
0.0
 10
120.05434299045137
 20
99.65868869357638
 30
0.0
 10
120.53355577256943
 20
100.31945800781249
 30
0.0
 10
120.53355577256943
 20
101.21346028645833
 30
0.0
 10
120.05434299045137
 20
101.87457411024305
 30
0.0
 10
119.57581922743054
 20
102.53603244357637
 30
0.0
 10
118.72694769965277
 20
102.81508517795137
 30
0.0
 10
117.94904513888888
 20
102.56634928385415
 30
0.0
 10
117.94904513888888
 20
102.56634928385415
 30
0.0
 10
113.62889539930555
 20
101.12664388020832
 30
0.0
 10
113.62889539930555
 20
101.12664388020832
 30
0.0
  0
SPLINE
  5
187
100
AcDbEntity
  8
DAEMMUNG
 62
     7
100
AcDbSpline
210
0.0
220
0.0
230
1.0
 70
     8
 71
     3
 72
    17
 73
    13
 74
     0
 42
0.00000001
 43
0.00000001
 40
0.0
 40
0.0
 40
0.0
 40
0.0
 40
1.0
 40
1.0
 40
1.0
 40
2.0
 40
2.0
 40
2.0
 40
3.0
 40
3.0
 40
3.0
 40
4.0
 40
4.0
 40
4.0
 40
4.0
 10
117.94904513888888
 20
87.446514214409717
 30
0.0
 10
118.72694769965277
 20
87.198467339409717
 30
0.0
 10
119.57581922743054
 20
87.477520073784717
 30
0.0
 10
120.05434299045137
 20
88.138289388020823
 30
0.0
 10
120.53355577256943
 20
88.799747721354152
 30
0.0
 10
120.53355577256943
 20
89.693405490451383
 30
0.0
 10
120.05434299045137
 20
90.354863823784711
 30
0.0
 10
119.57581922743054
 20
91.015633138020831
 30
0.0
 10
118.72694769965277
 20
91.294685872395831
 30
0.0
 10
117.94904513888888
 20
91.046638997395831
 30
0.0
 10
117.94904513888888
 20
91.046638997395831
 30
0.0
 10
113.62889539930555
 20
89.606589084201374
 30
0.0
 10
113.62889539930555
 20
89.606589084201374
 30
0.0
  0
SPLINE
  5
186
100
AcDbEntity
  8
DAEMMUNG
 62
     7
100
AcDbSpline
210
0.0
220
0.0
230
1.0
 70
     8
 71
     3
 72
    17
 73
    13
 74
     0
 42
0.00000001
 43
0.00000001
 40
0.0
 40
0.0
 40
0.0
 40
0.0
 40
1.0
 40
1.0
 40
1.0
 40
2.0
 40
2.0
 40
2.0
 40
3.0
 40
3.0
 40
3.0
 40
4.0
 40
4.0
 40
4.0
 40
4.0
 10
117.94904513888888
 20
91.286417643229157
 30
0.0
 10
118.72694769965277
 20
91.038370768229157
 30
0.0
 10
119.57581922743054
 20
91.317423502604157
 30
0.0
 10
120.05434299045137
 20
91.978537326388874
 30
0.0
 10
120.53355577256943
 20
92.639995659722217
 30
0.0
 10
120.53355577256943
 20
93.533308919270823
 30
0.0
 10
120.05434299045137
 20
94.194767252604152
 30
0.0
 10
119.57581922743054
 20
94.855881076388883
 30
0.0
 10
118.72694769965277
 20
95.134933810763883
 30
0.0
 10
117.94904513888888
 20
94.886886935763883
 30
0.0
 10
117.94904513888888
 20
94.886886935763883
 30
0.0
 10
113.62889539930555
 20
93.446492513020829
 30
0.0
 10
113.62889539930555
 20
93.446492513020829
 30
0.0
  0
LINE
  5
185
100
AcDbEntity
  8
DAEMMUNG
 62
     7
100
AcDbLine
 10
114.893934
 20
123.194548
 30
0.0
 11
117.949045
 21
122.006679
 31
0.0
  0
SPLINE
  5
184
100
AcDbEntity
  8
DAEMMUNG
 62
     7
100
AcDbSpline
210
0.0
220
0.0
230
1.0
 70
     8
 71
     3
 72
    17
 73
    13
 74
     0
 42
0.00000001
 43
0.00000001
 40
0.0
 40
0.0
 40
0.0
 40
0.0
 40
1.0
 40
1.0
 40
1.0
 40
2.0
 40
2.0
 40
2.0
 40
3.0
 40
3.0
 40
3.0
 40
4.0
 40
4.0
 40
4.0
 40
4.0
 10
113.62889539930555
 20
112.64635416666665
 30
0.0
 10
112.8771755642361
 20
112.35248752170138
 30
0.0
 10
112.02141384548609
 20
112.59433322482639
 30
0.0
 10
111.53393283420138
 20
113.23822157118055
 30
0.0
 10
111.04679633246526
 20
113.88210991753471
 30
0.0
 10
111.04679633246526
 20
114.77128906249999
 30
0.0
 10
111.53393283420138
 20
115.41517740885416
 30
0.0
 10
112.02141384548609
 20
116.05906575520832
 30
0.0
 10
112.8771755642361
 20
116.30056694878471
 30
0.0
 10
113.62889539930555
 20
116.00635579427082
 30
0.0
 10
113.62889539930555
 20
116.00635579427082
 30
0.0
 10
117.94904513888888
 20
114.32652723524305
 30
0.0
 10
117.94904513888888
 20
114.32652723524305
 30
0.0
  0
SPLINE
  5
183
100
AcDbEntity
  8
DAEMMUNG
 62
     7
100
AcDbSpline
210
0.0
220
0.0
230
1.0
 70
     8
 71
     3
 72
    17
 73
    13
 74
     0
 42
0.00000001
 43
0.00000001
 40
0.0
 40
0.0
 40
0.0
 40
0.0
 40
1.0
 40
1.0
 40
1.0
 40
2.0
 40
2.0
 40
2.0
 40
3.0
 40
3.0
 40
3.0
 40
4.0
 40
4.0
 40
4.0
 40
4.0
 10
117.94904513888888
 20
114.32652723524305
 30
0.0
 10
118.72694769965277
 20
114.07848036024305
 30
0.0
 10
119.57581922743054
 20
114.35753309461805
 30
0.0
 10
120.05434299045137
 20
115.01830240885415
 30
0.0
 10
120.53355577256943
 20
115.67976074218748
 30
0.0
 10
120.53355577256943
 20
116.57341851128471
 30
0.0
 10
120.05434299045137
 20
117.23487684461804
 30
0.0
 10
119.57581922743054
 20
117.89564615885416
 30
0.0
 10
118.72694769965277
 20
118.17469889322916
 30
0.0
 10
117.94904513888888
 20
117.92665201822916
 30
0.0
 10
117.94904513888888
 20
117.92665201822916
 30
0.0
 10
113.62889539930555
 20
116.48660210503471
 30
0.0
 10
113.62889539930555
 20
116.48660210503471
 30
0.0
  0
SPLINE
  5
182
100
AcDbEntity
  8
DAEMMUNG
 62
     7
100
AcDbSpline
210
0.0
220
0.0
230
1.0
 70
     8
 71
     3
 72
    17
 73
    13
 74
     0
 42
0.00000001
 43
0.00000001
 40
0.0
 40
0.0
 40
0.0
 40
0.0
 40
1.0
 40
1.0
 40
1.0
 40
2.0
 40
2.0
 40
2.0
 40
3.0
 40
3.0
 40
3.0
 40
4.0
 40
4.0
 40
4.0
 40
4.0
 10
117.94904513888888
 20
118.16643066406249
 30
0.0
 10
118.72694769965277
 20
117.91838378906249
 30
0.0
 10
119.57581922743054
 20
118.19743652343749
 30
0.0
 10
120.05434299045137
 20
118.85855034722221
 30
0.0
 10
120.53355577256943
 20
119.52000868055555
 30
0.0
 10
120.53355577256943
 20
120.41332194010415
 30
0.0
 10
120.05434299045137
 20
121.07478027343748
 30
0.0
 10
119.57581922743054
 20
121.73589409722221
 30
0.0
 10
118.72694769965277
 20
122.01494683159721
 30
0.0
 10
117.94904513888888
 20
121.76689995659721
 30
0.0
 10
117.94904513888888
 20
121.76689995659721
 30
0.0
 10
113.62889539930555
 20
120.32650553385416
 30
0.0
 10
113.62889539930555
 20
120.32650553385416
 30
0.0
  0
SPLINE
  5
181
100
AcDbEntity
  8
DAEMMUNG
 62
     7
100
AcDbSpline
210
0.0
220
0.0
230
1.0
 70
     8
 71
     3
 72
    17
 73
    13
 74
     0
 42
0.00000001
 43
0.00000001
 40
0.0
 40
0.0
 40
0.0
 40
0.0
 40
1.0
 40
1.0
 40
1.0
 40
2.0
 40
2.0
 40
2.0
 40
3.0
 40
3.0
 40
3.0
 40
4.0
 40
4.0
 40
4.0
 40
4.0
 10
113.62889539930555
 20
116.48660210503471
 30
0.0
 10
112.8771755642361
 20
116.19239095052082
 30
0.0
 10
112.02141384548609
 20
116.43423665364583
 30
0.0
 10
111.53393283420138
 20
117.07812499999999
 30
0.0
 10
111.04679633246526
 20
117.72201334635416
 30
0.0
 10
111.04679633246526
 20
118.61084798177082
 30
0.0
 10
111.53393283420138
 20
119.25473632812499
 30
0.0
 10
112.02141384548609
 20
119.89862467447915
 30
0.0
 10
112.8771755642361
 20
120.14047037760416
 30
0.0
 10
113.62889539930555
 20
119.84660373263888
 30
0.0
 10
113.62889539930555
 20
119.84660373263888
 30
0.0
 10
117.94904513888888
 20
118.16643066406249
 30
0.0
 10
117.94904513888888
 20
118.16643066406249
 30
0.0
  0
SPLINE
  5
180
100
AcDbEntity
  8
DAEMMUNG
 62
     7
100
AcDbSpline
210
0.0
220
0.0
230
1.0
 70
     8
 71
     3
 72
    11
 73
     7
 74
     0
 42
0.00000001
 43
0.00000001
 40
0.0
 40
0.0
 40
0.0
 40
0.0
 40
1.0
 40
1.0
 40
1.0
 40
2.0
 40
2.0
 40
2.0
 40
2.0
 10
113.62889539930555
 20
120.32650553385416
 30
0.0
 10
112.85478244357638
 20
120.02368164062499
 30
0.0
 10
111.97421603732639
 20
120.28929850260415
 30
0.0
 10
111.49638129340276
 20
120.97004937065971
 30
0.0
 10
111.01820203993054
 20
121.65045572916665
 30
0.0
 10
111.06781141493055
 20
122.56926269531249
 30
0.0
 10
111.61523708767361
 20
123.19454752604166
 30
0.0
  0
SPLINE
  5
17F
100
AcDbEntity
  8
DAEMMUNG
 62
     7
100
AcDbSpline
210
0.0
220
0.0
230
1.0
 70
     8
 71
     3
 72
     8
 73
     4
 74
     0
 42
0.00000001
 43
0.00000001
 40
0.0
 40
0.0
 40
0.0
 40
0.0
 40
1.0
 40
1.0
 40
1.0
 40
1.0
 10
117.94904513888888
 20
122.00667860243054
 30
0.0
 10
118.92883029513888
 20
121.69386393229165
 30
0.0
 10
119.97855088975693
 20
122.22165256076387
 30
0.0
 10
120.31169162326388
 20
123.19454752604166
 30
0.0
  0
HATCH
  5
17D
100
AcDbEntity
  8
WASSER
 62
   152
100
AcDbHatch
 10
0.0
 20
0.0
 30
0.0
210
0.0
220
0.0
230
1.0
  2
SOLID
 70
     1
 71
     0
 91
        1
 92
        1
 93
        1
 72
     4
 94
        3
 73
     0
 74
     0
 95
       23
 96
       19
 40
0.0
 40
0.0
 40
0.0
 40
0.0
 40
1.0
 40
1.0
 40
1.0
 40
2.0
 40
2.0
 40
2.0
 40
3.0
 40
3.0
 40
3.0
 40
4.0
 40
4.0
 40
4.0
 40
5.0
 40
5.0
 40
5.0
 40
6.0
 40
6.0
 40
6.0
 40
6.0
 10
89.20678575303819
 20
125.85347222222221
 10
89.20678575303819
 20
125.85347222222221
 10
88.781660970052073
 20
126.11529947916665
 10
88.203746202256937
 20
126.39194064670137
 10
83.437112087673597
 20
128.67190483940971
 10
84.599487304687486
 20
124.05203179253471
 10
79.881429036458329
 20
126.95555826822915
 10
79.216353352864573
 20
127.36483561197916
 10
78.602265082465266
 20
126.36713595920138
 10
79.26751302083332
 20
125.95785861545137
 10
79.26751302083332
 20
125.95785861545137
 10
79.692637803819437
 20
125.69568684895832
 10
80.270380316840274
 20
125.41939019097221
 10
85.030985514322907
 20
123.14080403645832
 10
83.8742947048611
 20
127.75206434461805
 10
88.593041992187494
 20
124.85508355034722
 10
89.258117675781236
 20
124.44615071614582
 10
89.872033691406244
 20
125.44419487847222
 10
89.20678575303819
 20
125.85347222222221
 97
        0
 75
     0
 76
     1
 98
        1
 10
0.0
 20
0.0
  0
HATCH
  5
17C
100
AcDbEntity
  8
WASSER
 62
   152
100
AcDbHatch
 10
0.0
 20
0.0
 30
0.0
210
0.0
220
0.0
230
1.0
  2
SOLID
 70
     1
 71
     0
 91
        1
 92
        1
 93
        1
 72
     4
 94
        3
 73
     0
 74
     0
 95
       23
 96
       19
 40
0.0
 40
0.0
 40
0.0
 40
0.0
 40
1.0
 40
1.0
 40
1.0
 40
2.0
 40
2.0
 40
2.0
 40
3.0
 40
3.0
 40
3.0
 40
4.0
 40
4.0
 40
4.0
 40
5.0
 40
5.0
 40
5.0
 40
6.0
 40
6.0
 40
6.0
 40
6.0
 10
89.20678575303819
 20
123.09808485243055
 10
89.20678575303819
 20
123.09808485243055
 10
88.781660970052073
 20
123.35991210937499
 10
88.203746202256937
 20
123.63586425781249
 10
83.437112087673597
 20
125.91582845052082
 10
84.599487304687486
 20
121.29664442274304
 10
79.881429036458329
 20
124.19982638888888
 10
79.216353352864573
 20
124.60944824218748
 10
78.602265082465266
 20
123.61174858940971
 10
79.26751302083332
 20
123.20247124565971
 10
79.26751302083332
 20
123.20247124565971
 10
79.692637803819437
 20
122.94029947916665
 10
80.270380316840274
 20
122.66400282118055
 10
85.030985514322907
 20
120.38541666666666
 10
83.8742947048611
 20
124.99667697482637
 10
88.593041992187494
 20
122.09969618055554
 10
89.258117675781236
 20
121.69076334635416
 10
89.872033691406244
 20
122.68880750868054
 10
89.20678575303819
 20
123.09808485243055
 97
        0
 75
     0
 76
     1
 98
        1
 10
0.0
 20
0.0
  0
HATCH
  5
17B
100
AcDbEntity
  8
WASSER
 62
   152
100
AcDbHatch
 10
0.0
 20
0.0
 30
0.0
210
0.0
220
0.0
230
1.0
  2
SOLID
 70
     1
 71
     0
 91
        1
 92
        1
 93
        1
 72
     4
 94
        3
 73
     0
 74
     0
 95
       23
 96
       19
 40
0.0
 40
0.0
 40
0.0
 40
0.0
 40
1.0
 40
1.0
 40
1.0
 40
2.0
 40
2.0
 40
2.0
 40
3.0
 40
3.0
 40
3.0
 40
4.0
 40
4.0
 40
4.0
 40
5.0
 40
5.0
 40
5.0
 40
6.0
 40
6.0
 40
6.0
 40
6.0
 10
89.20678575303819
 20
120.34200846354166
 10
89.20678575303819
 20
120.34200846354166
 10
88.781660970052073
 20
120.60418023003471
 10
88.203746202256937
 20
120.88047688802082
 10
83.437112087673597
 20
123.16044108072916
 10
84.599487304687486
 20
118.54056803385416
 10
79.881429036458329
 20
121.44443901909722
 10
79.216353352864573
 20
121.85406087239582
 10
78.602265082465266
 20
120.85636121961805
 10
79.26751302083332
 20
120.44708387586805
 10
79.26751302083332
 20
120.44708387586805
 10
79.692637803819437
 20
120.18456759982638
 10
80.270380316840274
 20
119.90792643229166
 10
85.030985514322907
 20
117.62968478732638
 10
83.8742947048611
 20
122.24060058593749
 10
88.593041992187494
 20
119.34430881076388
 10
89.258117675781236
 20
118.93503146701387
 10
89.872033691406244
 20
119.93342013888888
 10
89.20678575303819
 20
120.34200846354166
 97
        0
 75
     0
 76
     1
 98
        1
 10
0.0
 20
0.0
  0
HATCH
  5
17A
100
AcDbEntity
  8
WASSER
 62
   152
100
AcDbHatch
 10
0.0
 20
0.0
 30
0.0
210
0.0
220
0.0
230
1.0
  2
SOLID
 70
     1
 71
     0
 91
        1
 92
        1
 93
        1
 72
     4
 94
        3
 73
     0
 74
     0
 95
       23
 96
       19
 40
0.0
 40
0.0
 40
0.0
 40
0.0
 40
1.0
 40
1.0
 40
1.0
 40
2.0
 40
2.0
 40
2.0
 40
3.0
 40
3.0
 40
3.0
 40
4.0
 40
4.0
 40
4.0
 40
5.0
 40
5.0
 40
5.0
 40
6.0
 40
6.0
 40
6.0
 40
6.0
 10
89.20678575303819
 20
128.60403645833333
 10
89.20678575303819
 20
128.60403645833333
 10
88.781660970052073
 20
128.86620822482638
 10
88.203746202256937
 20
129.14250488281249
 10
83.437112087673597
 20
131.42212456597221
 10
84.599487304687486
 20
126.80259602864582
 10
79.881429036458329
 20
129.70646701388887
 10
79.216353352864573
 20
130.11574435763887
 10
78.602265082465266
 20
129.11770019531249
 10
79.26751302083332
 20
128.70842285156249
 10
79.26751302083332
 20
128.70842285156249
 10
79.692637803819437
 20
128.44659559461803
 10
80.270380316840274
 20
128.16995442708333
 10
85.030985514322907
 20
125.89171278211805
 10
83.8742947048611
 20
130.50262858072915
 10
88.593041992187494
 20
127.60633680555554
 10
89.258117675781236
 20
127.19705946180554
 10
89.872033691406244
 20
128.19475911458332
 10
89.20678575303819
 20
128.60403645833333
 97
        0
 75
     0
 76
     1
 98
        1
 10
0.0
 20
0.0
  0
HATCH
  5
178
100
AcDbEntity
  8
SCHRAFFUR
 62
     7
100
AcDbHatch
 10
0.0
 20
0.0
 30
0.0
210
0.0
220
0.0
230
1.0
  2
SOLID
 70
     1
 71
     0
 91
        4
 92
        1
 93
        1
 72
     4
 94
        3
 73
     0
 74
     0
 95
       20
 96
       16
 40
0.0
 40
0.0
 40
0.0
 40
0.0
 40
1.0
 40
1.0
 40
1.0
 40
2.0
 40
2.0
 40
2.0
 40
3.0
 40
3.0
 40
3.0
 40
4.0
 40
4.0
 40
4.0
 40
5.0
 40
5.0
 40
5.0
 40
5.0
 10
122.43662651909722
 20
170.71481662326389
 10
122.43662651909722
 20
170.71481662326389
 10
122.43662651909722
 20
171.19489067925346
 10
122.43662651909722
 20
171.19489067925346
 10
122.43662651909722
 20
171.19489067925346
 10
127.23702256944443
 20
171.19489067925346
 10
127.23702256944443
 20
171.19489067925346
 10
127.23702256944443
 20
171.19489067925346
 10
127.23702256944443
 20
165.86825629340277
 10
127.23702256944443
 20
165.86825629340277
 10
127.23702256944443
 20
165.86825629340277
 10
122.43662651909722
 20
165.86825629340277
 10
122.43662651909722
 20
165.86825629340277
 10
122.43662651909722
 20
165.86825629340277
 10
122.43662651909722
 20
170.71481662326389
 10
122.43662651909722
 20
170.71481662326389
 97
        0
 92
        1
 93
        1
 72
     4
 94
        3
 73
     0
 74
     0
 95
       17
 96
       13
 40
0.0
 40
0.0
 40
0.0
 40
0.0
 40
1.0
 40
1.0
 40
1.0
 40
2.0
 40
2.0
 40
2.0
 40
3.0
 40
3.0
 40
3.0
 40
4.0
 40
4.0
 40
4.0
 40
4.0
 10
122.43662651909722
 20
165.86825629340277
 10
122.43662651909722
 20
165.86825629340277
 10
127.23702256944443
 20
165.86825629340277
 10
127.23702256944443
 20
165.86825629340277
 10
127.23702256944443
 20
165.86825629340277
 10
127.23702256944443
 20
147.19480523003472
 10
127.23702256944443
 20
147.19480523003472
 10
127.23702256944443
 20
147.19480523003472
 10
122.43662651909722
 20
147.19480523003472
 10
122.43662651909722
 20
147.19480523003472
 10
122.43662651909722
 20
147.19480523003472
 10
122.43662651909722
 20
165.86825629340277
 10
122.43662651909722
 20
165.86825629340277
 97
        0
 92
        1
 93
        1
 72
     4
 94
        3
 73
     0
 74
     0
 95
       17
 96
       13
 40
0.0
 40
0.0
 40
0.0
 40
0.0
 40
1.0
 40
1.0
 40
1.0
 40
2.0
 40
2.0
 40
2.0
 40
3.0
 40
3.0
 40
3.0
 40
4.0
 40
4.0
 40
4.0
 40
4.0
 10
122.43662651909722
 20
147.19480523003472
 10
122.43662651909722
 20
147.19480523003472
 10
127.23702256944443
 20
147.19480523003472
 10
127.23702256944443
 20
147.19480523003472
 10
127.23702256944443
 20
147.19480523003472
 10
127.23702256944443
 20
128.52100965711804
 10
127.23702256944443
 20
128.52100965711804
 10
127.23702256944443
 20
128.52100965711804
 10
122.43662651909722
 20
128.52100965711804
 10
122.43662651909722
 20
128.52100965711804
 10
122.43662651909722
 20
128.52100965711804
 10
122.43662651909722
 20
147.19480523003472
 10
122.43662651909722
 20
147.19480523003472
 97
        0
 92
        1
 93
        1
 72
     4
 94
        3
 73
     0
 74
     0
 95
       17
 96
       13
 40
0.0
 40
0.0
 40
0.0
 40
0.0
 40
1.0
 40
1.0
 40
1.0
 40
2.0
 40
2.0
 40
2.0
 40
3.0
 40
3.0
 40
3.0
 40
4.0
 40
4.0
 40
4.0
 40
4.0
 10
122.43662651909722
 20
128.52100965711804
 10
122.43662651909722
 20
128.52100965711804
 10
127.23702256944443
 20
128.52100965711804
 10
127.23702256944443
 20
128.52100965711804
 10
127.23702256944443
 20
128.52100965711804
 10
127.23702256944443
 20
123.19454752604166
 10
127.23702256944443
 20
123.19454752604166
 10
127.23702256944443
 20
123.19454752604166
 10
122.43662651909722
 20
123.19454752604166
 10
122.43662651909722
 20
123.19454752604166
 10
122.43662651909722
 20
123.19454752604166
 10
122.43662651909722
 20
128.52100965711804
 10
122.43662651909722
 20
128.52100965711804
 97
        0
 75
     0
 76
     1
 98
        1
 10
0.0
 20
0.0
  0
HATCH
  5
177
100
AcDbEntity
  8
SCHRAFFUR
 62
     7
100
AcDbHatch
 10
0.0
 20
0.0
 30
0.0
210
0.0
220
0.0
230
1.0
  2
SOLID
 70
     1
 71
     0
 91
        4
 92
        1
 93
        1
 72
     4
 94
        3
 73
     0
 74
     0
 95
       20
 96
       16
 40
0.0
 40
0.0
 40
0.0
 40
0.0
 40
1.0
 40
1.0
 40
1.0
 40
2.0
 40
2.0
 40
2.0
 40
3.0
 40
3.0
 40
3.0
 40
4.0
 40
4.0
 40
4.0
 40
5.0
 40
5.0
 40
5.0
 40
5.0
 10
103.48446723090277
 20
170.71481662326389
 10
103.48446723090277
 20
170.71481662326389
 10
103.48446723090277
 20
171.19489067925346
 10
103.48446723090277
 20
171.19489067925346
 10
103.48446723090277
 20
171.19489067925346
 10
108.28451877170139
 20
171.19489067925346
 10
108.28451877170139
 20
171.19489067925346
 10
108.28451877170139
 20
171.19489067925346
 10
108.28451877170139
 20
165.86825629340277
 10
108.28451877170139
 20
165.86825629340277
 10
108.28451877170139
 20
165.86825629340277
 10
103.48446723090277
 20
165.86825629340277
 10
103.48446723090277
 20
165.86825629340277
 10
103.48446723090277
 20
165.86825629340277
 10
103.48446723090277
 20
170.71481662326389
 10
103.48446723090277
 20
170.71481662326389
 97
        0
 92
        1
 93
        1
 72
     4
 94
        3
 73
     0
 74
     0
 95
       17
 96
       13
 40
0.0
 40
0.0
 40
0.0
 40
0.0
 40
1.0
 40
1.0
 40
1.0
 40
2.0
 40
2.0
 40
2.0
 40
3.0
 40
3.0
 40
3.0
 40
4.0
 40
4.0
 40
4.0
 40
4.0
 10
103.48446723090277
 20
165.86825629340277
 10
103.48446723090277
 20
165.86825629340277
 10
108.28451877170139
 20
165.86825629340277
 10
108.28451877170139
 20
165.86825629340277
 10
108.28451877170139
 20
165.86825629340277
 10
108.28451877170139
 20
147.19480523003472
 10
108.28451877170139
 20
147.19480523003472
 10
108.28451877170139
 20
147.19480523003472
 10
103.48446723090277
 20
147.19480523003472
 10
103.48446723090277
 20
147.19480523003472
 10
103.48446723090277
 20
147.19480523003472
 10
103.48446723090277
 20
165.86825629340277
 10
103.48446723090277
 20
165.86825629340277
 97
        0
 92
        1
 93
        1
 72
     4
 94
        3
 73
     0
 74
     0
 95
       17
 96
       13
 40
0.0
 40
0.0
 40
0.0
 40
0.0
 40
1.0
 40
1.0
 40
1.0
 40
2.0
 40
2.0
 40
2.0
 40
3.0
 40
3.0
 40
3.0
 40
4.0
 40
4.0
 40
4.0
 40
4.0
 10
103.48446723090277
 20
147.19480523003472
 10
103.48446723090277
 20
147.19480523003472
 10
108.28451877170139
 20
147.19480523003472
 10
108.28451877170139
 20
147.19480523003472
 10
108.28451877170139
 20
147.19480523003472
 10
108.28451877170139
 20
128.52100965711804
 10
108.28451877170139
 20
128.52100965711804
 10
108.28451877170139
 20
128.52100965711804
 10
103.48446723090277
 20
128.52100965711804
 10
103.48446723090277
 20
128.52100965711804
 10
103.48446723090277
 20
128.52100965711804
 10
103.48446723090277
 20
147.19480523003472
 10
103.48446723090277
 20
147.19480523003472
 97
        0
 92
        1
 93
        1
 72
     4
 94
        3
 73
     0
 74
     0
 95
       17
 96
       13
 40
0.0
 40
0.0
 40
0.0
 40
0.0
 40
1.0
 40
1.0
 40
1.0
 40
2.0
 40
2.0
 40
2.0
 40
3.0
 40
3.0
 40
3.0
 40
4.0
 40
4.0
 40
4.0
 40
4.0
 10
103.48446723090277
 20
128.52100965711804
 10
103.48446723090277
 20
128.52100965711804
 10
108.28451877170139
 20
128.52100965711804
 10
108.28451877170139
 20
128.52100965711804
 10
108.28451877170139
 20
128.52100965711804
 10
108.28451877170139
 20
123.19454752604166
 10
108.28451877170139
 20
123.19454752604166
 10
108.28451877170139
 20
123.19454752604166
 10
103.48446723090277
 20
123.19454752604166
 10
103.48446723090277
 20
123.19454752604166
 10
103.48446723090277
 20
123.19454752604166
 10
103.48446723090277
 20
128.52100965711804
 10
103.48446723090277
 20
128.52100965711804
 97
        0
 75
     0
 76
     1
 98
        1
 10
0.0
 20
0.0
  0
LINE
  5
176
100
AcDbEntity
  8
SCHRAFFUR
 62
     7
100
AcDbLine
 10
147.664716
 20
207.06712
 30
0.0
 11
147.895193
 21
206.83716
 31
0.0
  0
LINE
  5
175
100
AcDbEntity
  8
SCHRAFFUR
 62
     7
100
AcDbLine
 10
142.276931
 20
207.06712
 30
0.0
 11
142.506719
 21
206.83716
 31
0.0
  0
LINE
  5
174
100
AcDbEntity
  8
SCHRAFFUR
 62
     7
100
AcDbLine
 10
145.200784
 20
204.142923
 30
0.0
 11
147.895193
 21
201.448858
 31
0.0
  0
LINE
  5
173
100
AcDbEntity
  8
SCHRAFFUR
 62
     7
100
AcDbLine
 10
136.888458
 20
207.06712
 30
0.0
 11
137.11859
 21
206.83716
 31
0.0
  0
LINE
  5
172
100
AcDbEntity
  8
SCHRAFFUR
 62
     7
100
AcDbLine
 10
139.812999
 20
204.142923
 30
0.0
 11
142.506719
 21
201.448858
 31
0.0
  0
LINE
  5
171
100
AcDbEntity
  8
SCHRAFFUR
 62
     7
100
AcDbLine
 10
145.200784
 20
198.754966
 30
0.0
 11
147.895193
 21
196.060729
 31
0.0
  0
LINE
  5
170
100
AcDbEntity
  8
SCHRAFFUR
 62
     7
100
AcDbLine
 10
131.500328
 20
207.06712
 30
0.0
 11
131.730116
 21
206.83716
 31
0.0
  0
LINE
  5
16F
100
AcDbEntity
  8
SCHRAFFUR
 62
     7
100
AcDbLine
 10
134.424525
 20
204.142923
 30
0.0
 11
137.11859
 21
201.448858
 31
0.0
  0
LINE
  5
16E
100
AcDbEntity
  8
SCHRAFFUR
 62
     7
100
AcDbLine
 10
139.812999
 20
198.754966
 30
0.0
 11
142.506719
 21
196.060729
 31
0.0
  0
LINE
  5
16D
100
AcDbEntity
  8
SCHRAFFUR
 62
     7
100
AcDbLine
 10
145.200784
 20
193.366836
 30
0.0
 11
147.895193
 21
190.672772
 31
0.0
  0
LINE
  5
16C
100
AcDbEntity
  8
SCHRAFFUR
 62
     7
100
AcDbLine
 10
126.112543
 20
207.06712
 30
0.0
 11
126.342331
 21
206.83716
 31
0.0
  0
LINE
  5
16B
100
AcDbEntity
  8
SCHRAFFUR
 62
     7
100
AcDbLine
 10
129.036396
 20
204.142923
 30
0.0
 11
131.730116
 21
201.448858
 31
0.0
  0
LINE
  5
16A
100
AcDbEntity
  8
SCHRAFFUR
 62
     7
100
AcDbLine
 10
134.424525
 20
198.754966
 30
0.0
 11
137.11859
 21
196.060729
 31
0.0
  0
LINE
  5
169
100
AcDbEntity
  8
SCHRAFFUR
 62
     7
100
AcDbLine
 10
139.812999
 20
193.366836
 30
0.0
 11
142.506719
 21
190.672772
 31
0.0
  0
LINE
  5
168
100
AcDbEntity
  8
SCHRAFFUR
 62
     7
100
AcDbLine
 10
145.200784
 20
187.978535
 30
0.0
 11
147.895193
 21
185.28447
 31
0.0
  0
LINE
  5
167
100
AcDbEntity
  8
SCHRAFFUR
 62
     7
100
AcDbLine
 10
120.72407
 20
207.06712
 30
0.0
 11
120.954202
 21
206.83716
 31
0.0
  0
LINE
  5
166
100
AcDbEntity
  8
SCHRAFFUR
 62
     7
100
AcDbLine
 10
123.647922
 20
204.142923
 30
0.0
 11
126.342331
 21
201.448858
 31
0.0
  0
LINE
  5
165
100
AcDbEntity
  8
SCHRAFFUR
 62
     7
100
AcDbLine
 10
129.036396
 20
198.754966
 30
0.0
 11
131.730116
 21
196.060729
 31
0.0
  0
LINE
  5
164
100
AcDbEntity
  8
SCHRAFFUR
 62
     7
100
AcDbLine
 10
134.424525
 20
193.366836
 30
0.0
 11
137.11859
 21
190.672772
 31
0.0
  0
LINE
  5
163
100
AcDbEntity
  8
SCHRAFFUR
 62
     7
100
AcDbLine
 10
139.812999
 20
187.978535
 30
0.0
 11
142.506719
 21
185.28447
 31
0.0
  0
LINE
  5
162
100
AcDbEntity
  8
SCHRAFFUR
 62
     7
100
AcDbLine
 10
145.200784
 20
182.590578
 30
0.0
 11
147.895193
 21
179.896341
 31
0.0
  0
LINE
  5
161
100
AcDbEntity
  8
SCHRAFFUR
 62
     7
100
AcDbLine
 10
120.632086
 20
201.771319
 30
0.0
 11
120.954202
 21
201.448858
 31
0.0
  0
LINE
  5
160
100
AcDbEntity
  8
SCHRAFFUR
 62
     7
100
AcDbLine
 10
123.647922
 20
198.754966
 30
0.0
 11
126.342331
 21
196.060729
 31
0.0
  0
LINE
  5
15F
100
AcDbEntity
  8
SCHRAFFUR
 62
     7
100
AcDbLine
 10
129.036396
 20
193.366836
 30
0.0
 11
131.730116
 21
190.672772
 31
0.0
  0
LINE
  5
15E
100
AcDbEntity
  8
SCHRAFFUR
 62
     7
100
AcDbLine
 10
134.424525
 20
187.978535
 30
0.0
 11
137.11859
 21
185.28447
 31
0.0
  0
LINE
  5
15D
100
AcDbEntity
  8
SCHRAFFUR
 62
     7
100
AcDbLine
 10
139.812999
 20
182.590578
 30
0.0
 11
142.506719
 21
179.896341
 31
0.0
  0
LINE
  5
15C
100
AcDbEntity
  8
SCHRAFFUR
 62
     7
100
AcDbLine
 10
145.200784
 20
177.202276
 30
0.0
 11
147.895193
 21
174.508384
 31
0.0
  0
LINE
  5
15B
100
AcDbEntity
  8
SCHRAFFUR
 62
     7
100
AcDbLine
 10
120.632086
 20
196.383017
 30
0.0
 11
120.954202
 21
196.060729
 31
0.0
  0
LINE
  5
15A
100
AcDbEntity
  8
SCHRAFFUR
 62
     7
100
AcDbLine
 10
123.647922
 20
193.366836
 30
0.0
 11
126.342331
 21
190.672772
 31
0.0
  0
LINE
  5
159
100
AcDbEntity
  8
SCHRAFFUR
 62
     7
100
AcDbLine
 10
129.036396
 20
187.978535
 30
0.0
 11
131.730116
 21
185.28447
 31
0.0
  0
LINE
  5
158
100
AcDbEntity
  8
SCHRAFFUR
 62
     7
100
AcDbLine
 10
134.424525
 20
182.590578
 30
0.0
 11
137.11859
 21
179.896341
 31
0.0
  0
LINE
  5
157
100
AcDbEntity
  8
SCHRAFFUR
 62
     7
100
AcDbLine
 10
139.812999
 20
177.202276
 30
0.0
 11
142.506719
 21
174.508384
 31
0.0
  0
LINE
  5
156
100
AcDbEntity
  8
SCHRAFFUR
 62
     7
100
AcDbLine
 10
145.200784
 20
171.814147
 30
0.0
 11
145.820212
 21
171.194891
 31
0.0
  0
LINE
  5
155
100
AcDbEntity
  8
SCHRAFFUR
 62
     7
100
AcDbLine
 10
120.632086
 20
190.994888
 30
0.0
 11
120.954202
 21
190.672772
 31
0.0
  0
LINE
  5
154
100
AcDbEntity
  8
SCHRAFFUR
 62
     7
100
AcDbLine
 10
123.647922
 20
187.978535
 30
0.0
 11
126.342331
 21
185.28447
 31
0.0
  0
LINE
  5
153
100
AcDbEntity
  8
SCHRAFFUR
 62
     7
100
AcDbLine
 10
129.036396
 20
182.590578
 30
0.0
 11
131.730116
 21
179.896341
 31
0.0
  0
LINE
  5
152
100
AcDbEntity
  8
SCHRAFFUR
 62
     7
100
AcDbLine
 10
134.424525
 20
177.202276
 30
0.0
 11
137.11859
 21
174.508384
 31
0.0
  0
LINE
  5
151
100
AcDbEntity
  8
SCHRAFFUR
 62
     7
100
AcDbLine
 10
139.812999
 20
171.814147
 30
0.0
 11
140.432083
 21
171.194891
 31
0.0
  0
LINE
  5
150
100
AcDbEntity
  8
SCHRAFFUR
 62
     7
100
AcDbLine
 10
120.632086
 20
185.606586
 30
0.0
 11
120.954202
 21
185.28447
 31
0.0
  0
LINE
  5
14F
100
AcDbEntity
  8
SCHRAFFUR
 62
     7
100
AcDbLine
 10
123.647922
 20
182.590578
 30
0.0
 11
126.342331
 21
179.896341
 31
0.0
  0
LINE
  5
14E
100
AcDbEntity
  8
SCHRAFFUR
 62
     7
100
AcDbLine
 10
129.036396
 20
177.202276
 30
0.0
 11
131.730116
 21
174.508384
 31
0.0
  0
LINE
  5
14D
100
AcDbEntity
  8
SCHRAFFUR
 62
     7
100
AcDbLine
 10
134.424525
 20
171.814147
 30
0.0
 11
135.043609
 21
171.194891
 31
0.0
  0
LINE
  5
14C
100
AcDbEntity
  8
SCHRAFFUR
 62
     7
100
AcDbLine
 10
120.632086
 20
180.218629
 30
0.0
 11
120.954202
 21
179.896341
 31
0.0
  0
LINE
  5
14B
100
AcDbEntity
  8
SCHRAFFUR
 62
     7
100
AcDbLine
 10
123.647922
 20
177.202276
 30
0.0
 11
126.342331
 21
174.508384
 31
0.0
  0
LINE
  5
14A
100
AcDbEntity
  8
SCHRAFFUR
 62
     7
100
AcDbLine
 10
129.036396
 20
171.814147
 30
0.0
 11
129.655824
 21
171.194891
 31
0.0
  0
LINE
  5
149
100
AcDbEntity
  8
SCHRAFFUR
 62
     7
100
AcDbLine
 10
120.632086
 20
174.830328
 30
0.0
 11
120.954202
 21
174.508384
 31
0.0
  0
LINE
  5
148
100
AcDbEntity
  8
SCHRAFFUR
 62
     7
100
AcDbLine
 10
123.647922
 20
171.814147
 30
0.0
 11
124.267695
 21
171.194891
 31
0.0
  0
LINE
  5
147
100
AcDbEntity
  8
SCHRAFFUR
 62
     7
100
AcDbLine
 10
147.626476
 20
123.194548
 30
0.0
 11
147.856264
 21
122.96476
 31
0.0
  0
LINE
  5
146
100
AcDbEntity
  8
SCHRAFFUR
 62
     7
100
AcDbLine
 10
142.238002
 20
123.194548
 30
0.0
 11
142.468134
 21
122.96476
 31
0.0
  0
LINE
  5
145
100
AcDbEntity
  8
SCHRAFFUR
 62
     7
100
AcDbLine
 10
145.161854
 20
120.270695
 30
0.0
 11
147.856264
 21
117.576286
 31
0.0
  0
LINE
  5
144
100
AcDbEntity
  8
SCHRAFFUR
 62
     7
100
AcDbLine
 10
136.849873
 20
123.194548
 30
0.0
 11
137.07966
 21
122.96476
 31
0.0
  0
LINE
  5
143
100
AcDbEntity
  8
SCHRAFFUR
 62
     7
100
AcDbLine
 10
139.77407
 20
120.270695
 30
0.0
 11
142.468134
 21
117.576286
 31
0.0
  0
LINE
  5
142
100
AcDbEntity
  8
SCHRAFFUR
 62
     7
100
AcDbLine
 10
145.161854
 20
114.882566
 30
0.0
 11
147.856264
 21
112.188156
 31
0.0
  0
LINE
  5
141
100
AcDbEntity
  8
SCHRAFFUR
 62
     7
100
AcDbLine
 10
131.461399
 20
123.194548
 30
0.0
 11
131.691876
 21
122.96476
 31
0.0
  0
LINE
  5
140
100
AcDbEntity
  8
SCHRAFFUR
 62
     7
100
AcDbLine
 10
134.38594
 20
120.270695
 30
0.0
 11
137.07966
 21
117.576286
 31
0.0
  0
LINE
  5
13F
100
AcDbEntity
  8
SCHRAFFUR
 62
     7
100
AcDbLine
 10
139.77407
 20
114.882566
 30
0.0
 11
142.468134
 21
112.188156
 31
0.0
  0
LINE
  5
13E
100
AcDbEntity
  8
SCHRAFFUR
 62
     7
100
AcDbLine
 10
145.161854
 20
109.494092
 30
0.0
 11
147.856264
 21
106.800372
 31
0.0
  0
LINE
  5
13D
100
AcDbEntity
  8
SCHRAFFUR
 62
     7
100
AcDbLine
 10
126.073614
 20
123.194548
 30
0.0
 11
126.303746
 21
122.96476
 31
0.0
  0
LINE
  5
13C
100
AcDbEntity
  8
SCHRAFFUR
 62
     7
100
AcDbLine
 10
128.997466
 20
120.270695
 30
0.0
 11
131.691876
 21
117.576286
 31
0.0
  0
LINE
  5
13B
100
AcDbEntity
  8
SCHRAFFUR
 62
     7
100
AcDbLine
 10
134.38594
 20
114.882566
 30
0.0
 11
137.07966
 21
112.188156
 31
0.0
  0
LINE
  5
13A
100
AcDbEntity
  8
SCHRAFFUR
 62
     7
100
AcDbLine
 10
139.77407
 20
109.494092
 30
0.0
 11
142.468134
 21
106.800372
 31
0.0
  0
LINE
  5
139
100
AcDbEntity
  8
SCHRAFFUR
 62
     7
100
AcDbLine
 10
145.161854
 20
104.105962
 30
0.0
 11
147.856264
 21
101.411898
 31
0.0
  0
LINE
  5
138
100
AcDbEntity
  8
SCHRAFFUR
 62
     7
100
AcDbLine
 10
120.685484
 20
123.194548
 30
0.0
 11
120.915272
 21
122.96476
 31
0.0
  0
LINE
  5
137
100
AcDbEntity
  8
SCHRAFFUR
 62
     7
100
AcDbLine
 10
123.609682
 20
120.270695
 30
0.0
 11
126.303746
 21
117.576286
 31
0.0
  0
LINE
  5
136
100
AcDbEntity
  8
SCHRAFFUR
 62
     7
100
AcDbLine
 10
128.997466
 20
114.882566
 30
0.0
 11
131.691876
 21
112.188156
 31
0.0
  0
LINE
  5
135
100
AcDbEntity
  8
SCHRAFFUR
 62
     7
100
AcDbLine
 10
134.38594
 20
109.494092
 30
0.0
 11
137.07966
 21
106.800372
 31
0.0
  0
LINE
  5
134
100
AcDbEntity
  8
SCHRAFFUR
 62
     7
100
AcDbLine
 10
139.77407
 20
104.105962
 30
0.0
 11
142.468134
 21
101.411898
 31
0.0
  0
LINE
  5
133
100
AcDbEntity
  8
SCHRAFFUR
 62
     7
100
AcDbLine
 10
145.161854
 20
98.718178
 30
0.0
 11
147.856264
 21
96.023768
 31
0.0
  0
LINE
  5
132
100
AcDbEntity
  8
SCHRAFFUR
 62
     7
100
AcDbLine
 10
120.5935
 20
117.898747
 30
0.0
 11
120.915272
 21
117.576286
 31
0.0
  0
LINE
  5
131
100
AcDbEntity
  8
SCHRAFFUR
 62
     7
100
AcDbLine
 10
123.609682
 20
114.882566
 30
0.0
 11
126.303746
 21
112.188156
 31
0.0
  0
LINE
  5
130
100
AcDbEntity
  8
SCHRAFFUR
 62
     7
100
AcDbLine
 10
128.997466
 20
109.494092
 30
0.0
 11
131.691876
 21
106.800372
 31
0.0
  0
LINE
  5
12F
100
AcDbEntity
  8
SCHRAFFUR
 62
     7
100
AcDbLine
 10
134.38594
 20
104.105962
 30
0.0
 11
137.07966
 21
101.411898
 31
0.0
  0
LINE
  5
12E
100
AcDbEntity
  8
SCHRAFFUR
 62
     7
100
AcDbLine
 10
139.77407
 20
98.718178
 30
0.0
 11
142.468134
 21
96.023768
 31
0.0
  0
LINE
  5
12D
100
AcDbEntity
  8
SCHRAFFUR
 62
     7
100
AcDbLine
 10
145.161854
 20
93.329704
 30
0.0
 11
147.856264
 21
90.635984
 31
0.0
  0
LINE
  5
12C
100
AcDbEntity
  8
SCHRAFFUR
 62
     7
100
AcDbLine
 10
120.5935
 20
112.510617
 30
0.0
 11
120.915272
 21
112.188156
 31
0.0
  0
LINE
  5
12B
100
AcDbEntity
  8
SCHRAFFUR
 62
     7
100
AcDbLine
 10
123.609682
 20
109.494092
 30
0.0
 11
126.303746
 21
106.800372
 31
0.0
  0
LINE
  5
12A
100
AcDbEntity
  8
SCHRAFFUR
 62
     7
100
AcDbLine
 10
128.997466
 20
104.105962
 30
0.0
 11
131.691876
 21
101.411898
 31
0.0
  0
LINE
  5
129
100
AcDbEntity
  8
SCHRAFFUR
 62
     7
100
AcDbLine
 10
134.38594
 20
98.718178
 30
0.0
 11
137.07966
 21
96.023768
 31
0.0
  0
LINE
  5
128
100
AcDbEntity
  8
SCHRAFFUR
 62
     7
100
AcDbLine
 10
139.77407
 20
93.329704
 30
0.0
 11
142.468134
 21
90.635984
 31
0.0
  0
LINE
  5
127
100
AcDbEntity
  8
SCHRAFFUR
 62
     7
100
AcDbLine
 10
145.161854
 20
87.941574
 30
0.0
 11
145.781627
 21
87.321802
 31
0.0
  0
LINE
  5
126
100
AcDbEntity
  8
SCHRAFFUR
 62
     7
100
AcDbLine
 10
120.5935
 20
107.122144
 30
0.0
 11
120.915272
 21
106.800372
 31
0.0
  0
LINE
  5
125
100
AcDbEntity
  8
SCHRAFFUR
 62
     7
100
AcDbLine
 10
123.609682
 20
104.105962
 30
0.0
 11
126.303746
 21
101.411898
 31
0.0
  0
LINE
  5
124
100
AcDbEntity
  8
SCHRAFFUR
 62
     7
100
AcDbLine
 10
128.997466
 20
98.718178
 30
0.0
 11
131.691876
 21
96.023768
 31
0.0
  0
LINE
  5
123
100
AcDbEntity
  8
SCHRAFFUR
 62
     7
100
AcDbLine
 10
134.38594
 20
93.329704
 30
0.0
 11
137.07966
 21
90.635984
 31
0.0
  0
LINE
  5
122
100
AcDbEntity
  8
SCHRAFFUR
 62
     7
100
AcDbLine
 10
139.77407
 20
87.941574
 30
0.0
 11
140.393153
 21
87.321802
 31
0.0
  0
LINE
  5
121
100
AcDbEntity
  8
SCHRAFFUR
 62
     7
100
AcDbLine
 10
120.5935
 20
101.734014
 30
0.0
 11
120.915272
 21
101.411898
 31
0.0
  0
LINE
  5
120
100
AcDbEntity
  8
SCHRAFFUR
 62
     7
100
AcDbLine
 10
123.609682
 20
98.718178
 30
0.0
 11
126.303746
 21
96.023768
 31
0.0
  0
LINE
  5
11F
100
AcDbEntity
  8
SCHRAFFUR
 62
     7
100
AcDbLine
 10
128.997466
 20
93.329704
 30
0.0
 11
131.691876
 21
90.635984
 31
0.0
  0
LINE
  5
11E
100
AcDbEntity
  8
SCHRAFFUR
 62
     7
100
AcDbLine
 10
134.38594
 20
87.941574
 30
0.0
 11
135.005368
 21
87.321802
 31
0.0
  0
LINE
  5
11D
100
AcDbEntity
  8
SCHRAFFUR
 62
     7
100
AcDbLine
 10
120.5935
 20
96.346229
 30
0.0
 11
120.915272
 21
96.023768
 31
0.0
  0
LINE
  5
11C
100
AcDbEntity
  8
SCHRAFFUR
 62
     7
100
AcDbLine
 10
123.609682
 20
93.329704
 30
0.0
 11
126.303746
 21
90.635984
 31
0.0
  0
LINE
  5
11B
100
AcDbEntity
  8
SCHRAFFUR
 62
     7
100
AcDbLine
 10
128.997466
 20
87.941574
 30
0.0
 11
129.617239
 21
87.321802
 31
0.0
  0
LINE
  5
11A
100
AcDbEntity
  8
SCHRAFFUR
 62
     7
100
AcDbLine
 10
120.5935
 20
90.957756
 30
0.0
 11
120.915272
 21
90.635984
 31
0.0
  0
LINE
  5
119
100
AcDbEntity
  8
SCHRAFFUR
 62
     7
100
AcDbLine
 10
123.609682
 20
87.941574
 30
0.0
 11
124.228765
 21
87.321802
 31
0.0
  0
LINE
  5
118
100
AcDbEntity
  8
SCHRAFFUR
 62
     7
100
AcDbLine
 10
101.431879
 20
200.468039
 30
0.0
 11
108.031304
 21
207.06712
 31
0.0
  0
LINE
  5
117
100
AcDbEntity
  8
SCHRAFFUR
 62
     7
100
AcDbLine
 10
101.431879
 20
189.691608
 30
0.0
 11
108.955279
 21
197.215008
 31
0.0
  0
LINE
  5
116
100
AcDbEntity
  8
SCHRAFFUR
 62
     7
100
AcDbLine
 10
108.955279
 20
197.215008
 30
0.0
 11
111.031638
 21
199.291539
 31
0.0
  0
LINE
  5
115
100
AcDbEntity
  8
SCHRAFFUR
 62
     7
100
AcDbLine
 10
101.431879
 20
178.91535
 30
0.0
 11
111.031638
 21
188.51528
 31
0.0
  0
LINE
  5
114
100
AcDbEntity
  8
SCHRAFFUR
 62
     7
100
AcDbLine
 10
104.487335
 20
171.194891
 30
0.0
 11
111.031638
 21
177.739194
 31
0.0
  0
LINE
  5
113
100
AcDbEntity
  8
SCHRAFFUR
 62
     7
100
AcDbLine
 10
149.43205
 20
205.362831
 30
0.0
 11
151.136339
 21
207.06712
 31
0.0
  0
LINE
  5
112
100
AcDbEntity
  8
SCHRAFFUR
 62
     7
100
AcDbLine
 10
149.43205
 20
194.5864
 30
0.0
 11
159.031809
 21
204.186331
 31
0.0
  0
LINE
  5
111
100
AcDbEntity
  8
SCHRAFFUR
 62
     7
100
AcDbLine
 10
149.43205
 20
183.810141
 30
0.0
 11
159.031809
 21
193.410072
 31
0.0
  0
LINE
  5
110
100
AcDbEntity
  8
SCHRAFFUR
 62
     7
100
AcDbLine
 10
149.43205
 20
173.03371
 30
0.0
 11
159.031809
 21
182.633641
 31
0.0
  0
LINE
  5
10F
100
AcDbEntity
  8
SCHRAFFUR
 62
     7
100
AcDbLine
 10
101.39295
 20
114.21904
 30
0.0
 11
103.263292
 21
116.088694
 31
0.0
  0
LINE
  5
10E
100
AcDbEntity
  8
SCHRAFFUR
 62
     7
100
AcDbLine
 10
158.369317
 20
171.194891
 30
0.0
 11
159.031809
 21
171.857383
 31
0.0
  0
LINE
  5
10D
100
AcDbEntity
  8
SCHRAFFUR
 62
     7
100
AcDbLine
 10
103.263292
 20
116.088694
 30
0.0
 11
110.369146
 21
123.194548
 31
0.0
  0
LINE
  5
10C
100
AcDbEntity
  8
SCHRAFFUR
 62
     7
100
AcDbLine
 10
101.39295
 20
103.442437
 30
0.0
 11
110.993397
 21
113.042196
 31
0.0
  0
LINE
  5
10B
100
AcDbEntity
  8
SCHRAFFUR
 62
     7
100
AcDbLine
 10
101.39295
 20
92.666178
 30
0.0
 11
110.993397
 21
102.266281
 31
0.0
  0
LINE
  5
10A
100
AcDbEntity
  8
SCHRAFFUR
 62
     7
100
AcDbLine
 10
106.825865
 20
87.321802
 30
0.0
 11
110.993397
 21
91.489678
 31
0.0
  0
LINE
  5
109
100
AcDbEntity
  8
SCHRAFFUR
 62
     7
100
AcDbLine
 10
149.393121
 20
119.113832
 30
0.0
 11
153.474525
 21
123.194548
 31
0.0
  0
LINE
  5
108
100
AcDbEntity
  8
SCHRAFFUR
 62
     7
100
AcDbLine
 10
149.393121
 20
108.337229
 30
0.0
 11
158.993224
 21
117.936987
 31
0.0
  0
LINE
  5
107
100
AcDbEntity
  8
SCHRAFFUR
 62
     7
100
AcDbLine
 10
149.393121
 20
97.56097
 30
0.0
 11
158.993224
 21
107.161073
 31
0.0
  0
LINE
  5
106
100
AcDbEntity
  8
SCHRAFFUR
 62
     7
100
AcDbLine
 10
149.930556
 20
87.321802
 30
0.0
 11
158.993224
 21
96.38447
 31
0.0
  0
LINE
  5
105
100
AcDbEntity
  8
SCHRAFFUR
 62
     7
100
AcDbLine
 10
101.431879
 20
205.855996
 30
0.0
 11
102.643175
 21
207.06712
 31
0.0
  0
LINE
  5
104
100
AcDbEntity
  8
SCHRAFFUR
 62
     7
100
AcDbLine
 10
102.057164
 20
195.704678
 30
0.0
 11
104.750884
 21
198.398915
 31
0.0
  0
LINE
  5
103
100
AcDbEntity
  8
SCHRAFFUR
 62
     7
100
AcDbLine
 10
106.098261
 20
199.745775
 30
0.0
 11
108.791981
 21
202.440012
 31
0.0
  0
LINE
  5
102
100
AcDbEntity
  8
SCHRAFFUR
 62
     7
100
AcDbLine
 10
110.139358
 20
203.786872
 30
0.0
 11
111.031638
 21
204.679841
 31
0.0
  0
LINE
  5
101
100
AcDbEntity
  8
SCHRAFFUR
 62
     7
100
AcDbLine
 10
101.431879
 20
184.303651
 30
0.0
 11
102.057164
 21
184.928419
 31
0.0
  0
LINE
  5
100
100
AcDbEntity
  8
SCHRAFFUR
 62
     7
100
AcDbLine
 10
103.403852
 20
186.275279
 30
0.0
 11
106.098261
 21
188.969516
 31
0.0
  0
LINE
  5
FF
100
AcDbEntity
  8
SCHRAFFUR
 62
     7
100
AcDbLine
 10
107.444949
 20
190.316376
 30
0.0
 11
110.139358
 21
193.010613
 31
0.0
  0
LINE
  5
FE
100
AcDbEntity
  8
SCHRAFFUR
 62
     7
100
AcDbLine
 10
101.431879
 20
173.52722
 30
0.0
 11
103.403852
 21
175.499193
 31
0.0
  0
LINE
  5
FD
100
AcDbEntity
  8
SCHRAFFUR
 62
     7
100
AcDbLine
 10
104.750884
 20
176.846225
 30
0.0
 11
107.444949
 21
179.54029
 31
0.0
  0
LINE
  5
FC
100
AcDbEntity
  8
SCHRAFFUR
 62
     7
100
AcDbLine
 10
108.791981
 20
180.887322
 30
0.0
 11
111.031638
 21
183.127151
 31
0.0
  0
LINE
  5
FB
100
AcDbEntity
  8
SCHRAFFUR
 62
     7
100
AcDbLine
 10
110.139358
 20
171.458096
 30
0.0
 11
111.031638
 21
172.350892
 31
0.0
  0
LINE
  5
FA
100
AcDbEntity
  8
SCHRAFFUR
 62
     7
100
AcDbLine
 10
149.43205
 20
199.974702
 30
0.0
 11
150.550328
 21
201.092807
 31
0.0
  0
LINE
  5
F9
100
AcDbEntity
  8
SCHRAFFUR
 62
     7
100
AcDbLine
 10
151.897361
 20
202.440012
 30
0.0
 11
154.591425
 21
205.133904
 31
0.0
  0
LINE
  5
F8
100
AcDbEntity
  8
SCHRAFFUR
 62
     7
100
AcDbLine
 10
155.938458
 20
206.481109
 30
0.0
 11
156.524468
 21
207.06712
 31
0.0
  0
LINE
  5
F7
100
AcDbEntity
  8
SCHRAFFUR
 62
     7
100
AcDbLine
 10
149.43205
 20
189.198443
 30
0.0
 11
151.897361
 21
191.663581
 31
0.0
  0
LINE
  5
F6
100
AcDbEntity
  8
SCHRAFFUR
 62
     7
100
AcDbLine
 10
153.244048
 20
193.010613
 30
0.0
 11
155.938458
 21
195.704678
 31
0.0
  0
LINE
  5
F5
100
AcDbEntity
  8
SCHRAFFUR
 62
     7
100
AcDbLine
 10
157.285145
 20
197.05171
 30
0.0
 11
159.031809
 21
198.798374
 31
0.0
  0
LINE
  5
F4
100
AcDbEntity
  8
SCHRAFFUR
 62
     7
100
AcDbLine
 10
150.550328
 20
179.54029
 30
0.0
 11
153.244048
 21
182.234182
 31
0.0
  0
LINE
  5
F3
100
AcDbEntity
  8
SCHRAFFUR
 62
     7
100
AcDbLine
 10
154.591425
 20
183.581387
 30
0.0
 11
157.285145
 21
186.275279
 31
0.0
  0
LINE
  5
F2
100
AcDbEntity
  8
SCHRAFFUR
 62
     7
100
AcDbLine
 10
158.632522
 20
187.622484
 30
0.0
 11
159.031809
 21
188.021943
 31
0.0
  0
LINE
  5
F1
100
AcDbEntity
  8
SCHRAFFUR
 62
     7
100
AcDbLine
 10
101.39295
 20
119.606825
 30
0.0
 11
102.057164
 21
120.270695
 31
0.0
  0
LINE
  5
F0
100
AcDbEntity
  8
SCHRAFFUR
 62
     7
100
AcDbLine
 10
103.403852
 20
121.617383
 30
0.0
 11
104.981017
 21
123.194548
 31
0.0
  0
LINE
  5
EF
100
AcDbEntity
  8
SCHRAFFUR
 62
     7
100
AcDbLine
 10
152.981188
 20
171.194891
 30
0.0
 11
154.591425
 21
172.805128
 31
0.0
  0
LINE
  5
EE
100
AcDbEntity
  8
SCHRAFFUR
 62
     7
100
AcDbLine
 10
155.938458
 20
174.151988
 30
0.0
 11
158.632522
 21
176.846225
 31
0.0
  0
LINE
  5
ED
100
AcDbEntity
  8
SCHRAFFUR
 62
     7
100
AcDbLine
 10
101.39295
 20
108.830566
 30
0.0
 11
103.403852
 21
110.841469
 31
0.0
  0
LINE
  5
EC
100
AcDbEntity
  8
SCHRAFFUR
 62
     7
100
AcDbLine
 10
104.750884
 20
112.188156
 30
0.0
 11
107.444949
 21
114.882566
 31
0.0
  0
LINE
  5
EB
100
AcDbEntity
  8
SCHRAFFUR
 62
     7
100
AcDbLine
 10
108.791981
 20
116.229598
 30
0.0
 11
110.993397
 21
118.430669
 31
0.0
  0
LINE
  5
EA
100
AcDbEntity
  8
SCHRAFFUR
 62
     7
100
AcDbLine
 10
102.057164
 20
98.718178
 30
0.0
 11
104.750884
 21
101.411898
 31
0.0
  0
LINE
  5
E9
100
AcDbEntity
  8
SCHRAFFUR
 62
     7
100
AcDbLine
 10
106.098261
 20
102.759275
 30
0.0
 11
108.791981
 21
105.452995
 31
0.0
  0
LINE
  5
E8
100
AcDbEntity
  8
SCHRAFFUR
 62
     7
100
AcDbLine
 10
110.139358
 20
106.800372
 30
0.0
 11
110.993397
 21
107.654411
 31
0.0
  0
LINE
  5
E7
100
AcDbEntity
  8
SCHRAFFUR
 62
     7
100
AcDbLine
 10
101.437391
 20
87.321802
 30
0.0
 11
102.057164
 21
87.941574
 31
0.0
  0
LINE
  5
E6
100
AcDbEntity
  8
SCHRAFFUR
 62
     7
100
AcDbLine
 10
103.403852
 20
89.288607
 30
0.0
 11
106.098261
 21
91.982671
 31
0.0
  0
LINE
  5
E5
100
AcDbEntity
  8
SCHRAFFUR
 62
     7
100
AcDbLine
 10
107.444949
 20
93.329704
 30
0.0
 11
110.139358
 21
96.023768
 31
0.0
  0
LINE
  5
E4
100
AcDbEntity
  8
SCHRAFFUR
 62
     7
100
AcDbLine
 10
150.550328
 20
114.882566
 30
0.0
 11
153.244048
 21
117.576286
 31
0.0
  0
LINE
  5
E3
100
AcDbEntity
  8
SCHRAFFUR
 62
     7
100
AcDbLine
 10
154.591425
 20
118.923663
 30
0.0
 11
157.285145
 21
121.617383
 31
0.0
  0
LINE
  5
E2
100
AcDbEntity
  8
SCHRAFFUR
 62
     7
100
AcDbLine
 10
158.632522
 20
122.96476
 30
0.0
 11
158.86231
 21
123.194548
 31
0.0
  0
LINE
  5
E1
100
AcDbEntity
  8
SCHRAFFUR
 62
     7
100
AcDbLine
 10
149.393121
 20
102.948755
 30
0.0
 11
150.550328
 21
104.105962
 31
0.0
  0
LINE
  5
E0
100
AcDbEntity
  8
SCHRAFFUR
 62
     7
100
AcDbLine
 10
151.897361
 20
105.452995
 30
0.0
 11
154.591425
 21
108.147059
 31
0.0
  0
LINE
  5
DF
100
AcDbEntity
  8
SCHRAFFUR
 62
     7
100
AcDbLine
 10
155.938458
 20
109.494092
 30
0.0
 11
158.632522
 21
112.188156
 31
0.0
  0
LINE
  5
DE
100
AcDbEntity
  8
SCHRAFFUR
 62
     7
100
AcDbLine
 10
149.393121
 20
92.172841
 30
0.0
 11
151.897361
 21
94.677081
 31
0.0
  0
LINE
  5
DD
100
AcDbEntity
  8
SCHRAFFUR
 62
     7
100
AcDbLine
 10
153.244048
 20
96.023768
 30
0.0
 11
155.938458
 21
98.718178
 31
0.0
  0
LINE
  5
DC
100
AcDbEntity
  8
SCHRAFFUR
 62
     7
100
AcDbLine
 10
157.285145
 20
100.064865
 30
0.0
 11
158.993224
 21
101.772599
 31
0.0
  0
LINE
  5
DB
100
AcDbEntity
  8
SCHRAFFUR
 62
     7
100
AcDbLine
 10
155.319029
 20
87.321802
 30
0.0
 11
157.285145
 21
89.288607
 31
0.0
  0
LINE
  5
DA
100
AcDbEntity
  8
SCHRAFFUR
 62
     7
100
AcDbLine
 10
158.632522
 20
90.635984
 30
0.0
 11
158.993224
 21
90.996685
 31
0.0
  0
LINE
  5
D8
100
AcDbEntity
  8
MITTELLINIE
 62
     7
100
AcDbLine
 10
118.412755
 20
128.52101
 30
0.0
 11
131.756643
 21
128.52101
 31
0.0
  0
LINE
  5
D7
100
AcDbEntity
  8
MITTELLINIE
 62
     7
100
AcDbLine
 10
118.593623
 20
165.868256
 30
0.0
 11
131.756643
 21
165.868256
 31
0.0
  0
LINE
  5
D6
100
AcDbEntity
  8
MITTELLINIE
 62
     7
100
AcDbLine
 10
99.641119
 20
165.868256
 30
0.0
 11
112.80414
 21
165.868256
 31
0.0
  0
LINE
  5
D5
100
AcDbEntity
  8
MITTELLINIE
 62
     7
100
AcDbLine
 10
99.460251
 20
128.52101
 30
0.0
 11
112.80414
 21
128.52101
 31
0.0
  0
LINE
  5
D4
100
AcDbEntity
  8
MITTELLINIE
  6
AI9-LType1
 62
     7
100
AcDbLine
 10
170.797154
 20
147.194805
 30
0.0
 11
90.317485
 21
147.194805
 31
0.0
  0
LINE
  5
D1
100
AcDbEntity
  8
AM_8
 62
     7
100
AcDbLine
 10
107.201381
 20
178.176032
 30
0.0
 11
68.791667
 21
177.172993
 31
0.0
  0
LINE
  5
D0
100
AcDbEntity
  8
AM_8
 62
     7
100
AcDbLine
 10
69.73235
 20
202.572993
 30
0.0
 11
114.295521
 21
195.1433
 31
0.0
  0
LINE
  5
CF
100
AcDbEntity
  8
AM_8
 62
     7
100
AcDbLine
 10
116.79356
 20
123.194548
 30
0.0
 11
71.030806
 21
105.41751
 31
0.0
  0
LINE
  5
CE
100
AcDbEntity
  8
AM_8
 62
     7
100
AcDbLine
 10
105.209771
 20
163.262558
 30
0.0
 11
62.912094
 21
150.361882
 31
0.0
  0
LINE
  5
CC
100
AcDbEntity
  8
AM_0
 62
     7
100
AcDbLine
 10
159.031809
 20
207.19476
 30
0.0
 11
159.031809
 21
171.194891
 31
0.0
  0
LINE
  5
CB
100
AcDbEntity
  8
AM_0
 62
     7
100
AcDbLine
 10
101.431879
 20
171.194891
 30
0.0
 11
101.431879
 21
207.06712
 31
0.0
  0
LINE
  5
CA
100
AcDbEntity
  8
AM_0
 62
     7
100
AcDbLine
 10
159.031809
 20
171.194891
 30
0.0
 11
101.431879
 21
171.194891
 31
0.0
  0
LINE
  5
C9
100
AcDbEntity
  8
AM_0
 62
     7
100
AcDbLine
 10
159.031809
 20
123.194548
 30
0.0
 11
101.431879
 21
123.194548
 31
0.0
  0
LINE
  5
C8
100
AcDbEntity
  8
AM_0
 62
     7
100
AcDbLine
 10
149.43205
 20
207.06712
 30
0.0
 11
149.43205
 21
171.194891
 31
0.0
  0
LINE
  5
C7
100
AcDbEntity
  8
AM_0
 62
     7
100
AcDbLine
 10
111.031638
 20
171.194891
 30
0.0
 11
111.031638
 21
207.06712
 31
0.0
  0
LINE
  5
C6
100
AcDbEntity
  8
AM_0
 62
     7
100
AcDbLine
 10
120.632086
 20
171.194891
 30
0.0
 11
120.632086
 21
207.06712
 31
0.0
  0
LINE
  5
C5
100
AcDbEntity
  8
AM_0
 62
     7
100
AcDbLine
 10
159.031809
 20
171.194891
 30
0.0
 11
159.031809
 21
160.394689
 31
0.0
  0
LINE
  5
C4
100
AcDbEntity
  8
AM_0
 62
     7
100
AcDbLine
 10
159.031809
 20
133.994577
 30
0.0
 11
159.031809
 21
123.194548
 31
0.0
  0
LINE
  5
C3
100
AcDbEntity
  8
AM_0
 62
     7
100
AcDbLine
 10
101.431879
 20
171.194891
 30
0.0
 11
101.431879
 21
160.394689
 31
0.0
  0
LINE
  5
C2
100
AcDbEntity
  8
AM_0
 62
     7
100
AcDbLine
 10
101.431879
 20
133.994577
 30
0.0
 11
101.431879
 21
123.194548
 31
0.0
  0
LINE
  5
C1
100
AcDbEntity
  8
AM_0
 62
     7
100
AcDbLine
 10
129.15663
 20
123.674794
 30
0.0
 11
127.237023
 21
123.674794
 31
0.0
  0
LINE
  5
C0
100
AcDbEntity
  8
AM_0
 62
     7
100
AcDbLine
 10
120.517019
 20
123.674794
 30
0.0
 11
120.517019
 21
170.714817
 31
0.0
  0
LINE
  5
BF
100
AcDbEntity
  8
AM_0
 62
     7
100
AcDbLine
 10
129.15663
 20
170.714817
 30
0.0
 11
129.15663
 21
123.674794
 31
0.0
  0
LINE
  5
BE
100
AcDbEntity
  8
AM_0
 62
     7
100
AcDbLine
 10
127.237023
 20
123.194548
 30
0.0
 11
127.237023
 21
171.194891
 31
0.0
  0
LINE
  5
BD
100
AcDbEntity
  8
AM_0
 62
     7
100
AcDbLine
 10
127.237023
 20
170.714817
 30
0.0
 11
129.15663
 21
170.714817
 31
0.0
  0
LINE
  5
BC
100
AcDbEntity
  8
AM_0
 62
     7
100
AcDbLine
 10
127.237023
 20
171.194891
 30
0.0
 11
122.436627
 21
171.194891
 31
0.0
  0
LINE
  5
BB
100
AcDbEntity
  8
AM_0
 62
     7
100
AcDbLine
 10
127.237023
 20
123.674794
 30
0.0
 11
127.237023
 21
170.714817
 31
0.0
  0
LINE
  5
BA
100
AcDbEntity
  8
AM_0
 62
     7
100
AcDbLine
 10
122.436627
 20
123.674794
 30
0.0
 11
120.517019
 21
123.674794
 31
0.0
  0
POLYLINE
  5
B4
100
AcDbEntity
  8
AM_0
 62
     7
100
AcDb2dPolyline
 66
     1
 10
0.0
 20
0.0
 30
0.0
 70
     1
  0
VERTEX
  5
B5
100
AcDbEntity
  8
AM_0
 62
     7
100
AcDbVertex
100
AcDb2dVertex
 10
129.15663
 20
168.172336
 30
0.0
  0
VERTEX
  5
B6
100
AcDbEntity
  8
AM_0
 62
     7
100
AcDbVertex
100
AcDb2dVertex
 10
129.15663
 20
163.564349
 30
0.0
  0
VERTEX
  5
B7
100
AcDbEntity
  8
AM_0
 62
     7
100
AcDbVertex
100
AcDb2dVertex
 10
129.636876
 20
163.564349
 30
0.0
  0
VERTEX
  5
B8
100
AcDbEntity
  8
AM_0
 62
     7
100
AcDbVertex
100
AcDb2dVertex
 10
129.636876
 20
168.172336
 30
0.0
  0
SEQEND
  5
B9
100
AcDbEntity
  8
AM_0
 62
     7
  0
LINE
  5
B3
100
AcDbEntity
  8
AM_0
 62
     7
100
AcDbLine
 10
122.436627
 20
171.194891
 30
0.0
 11
122.436627
 21
123.194548
 31
0.0
  0
LINE
  5
B2
100
AcDbEntity
  8
AM_0
 62
     7
100
AcDbLine
 10
122.436627
 20
123.194548
 30
0.0
 11
127.237023
 21
123.194548
 31
0.0
  0
POLYLINE
  5
AC
100
AcDbEntity
  8
AM_0
 62
     7
100
AcDb2dPolyline
 66
     1
 10
0.0
 20
0.0
 30
0.0
 70
     1
  0
VERTEX
  5
AD
100
AcDbEntity
  8
AM_0
 62
     7
100
AcDbVertex
100
AcDb2dVertex
 10
129.15663
 20
126.217274
 30
0.0
  0
VERTEX
  5
AE
100
AcDbEntity
  8
AM_0
 62
     7
100
AcDbVertex
100
AcDb2dVertex
 10
129.15663
 20
130.82509
 30
0.0
  0
VERTEX
  5
AF
100
AcDbEntity
  8
AM_0
 62
     7
100
AcDbVertex
100
AcDb2dVertex
 10
129.636876
 20
130.82509
 30
0.0
  0
VERTEX
  5
B0
100
AcDbEntity
  8
AM_0
 62
     7
100
AcDbVertex
100
AcDb2dVertex
 10
129.636876
 20
126.217274
 30
0.0
  0
SEQEND
  5
B1
100
AcDbEntity
  8
AM_0
 62
     7
  0
LINE
  5
AB
100
AcDbEntity
  8
AM_0
 62
     7
100
AcDbLine
 10
120.517019
 20
170.714817
 30
0.0
 11
122.436627
 21
170.714817
 31
0.0
  0
LINE
  5
AA
100
AcDbEntity
  8
AM_0
 62
     7
100
AcDbLine
 10
122.436627
 20
170.714817
 30
0.0
 11
122.436627
 21
123.674794
 31
0.0
  0
LINE
  5
A9
100
AcDbEntity
  8
AM_0
 62
     7
100
AcDbLine
 10
110.20447
 20
170.714817
 30
0.0
 11
110.20447
 21
123.674794
 31
0.0
  0
LINE
  5
A8
100
AcDbEntity
  8
AM_0
 62
     7
100
AcDbLine
 10
110.20447
 20
123.674794
 30
0.0
 11
108.284519
 21
123.674794
 31
0.0
  0
LINE
  5
A7
100
AcDbEntity
  8
AM_0
 62
     7
100
AcDbLine
 10
108.284519
 20
123.674794
 30
0.0
 11
108.284519
 21
170.714817
 31
0.0
  0
LINE
  5
A6
100
AcDbEntity
  8
AM_0
 62
     7
100
AcDbLine
 10
108.284519
 20
170.714817
 30
0.0
 11
110.20447
 21
170.714817
 31
0.0
  0
LINE
  5
A5
100
AcDbEntity
  8
AM_0
 62
     7
100
AcDbLine
 10
108.284519
 20
123.194548
 30
0.0
 11
108.284519
 21
171.194891
 31
0.0
  0
LINE
  5
A4
100
AcDbEntity
  8
AM_0
 62
     7
100
AcDbLine
 10
108.284519
 20
171.194891
 30
0.0
 11
103.484467
 21
171.194891
 31
0.0
  0
LINE
  5
A3
100
AcDbEntity
  8
AM_0
 62
     7
100
AcDbLine
 10
103.484467
 20
171.194891
 30
0.0
 11
103.484467
 21
123.194548
 31
0.0
  0
LINE
  5
A2
100
AcDbEntity
  8
AM_0
 62
     7
100
AcDbLine
 10
103.484467
 20
123.194548
 30
0.0
 11
108.284519
 21
123.194548
 31
0.0
  0
LINE
  5
A1
100
AcDbEntity
  8
AM_0
 62
     7
100
AcDbLine
 10
103.484467
 20
170.714817
 30
0.0
 11
103.484467
 21
123.674794
 31
0.0
  0
LINE
  5
A0
100
AcDbEntity
  8
AM_0
 62
     7
100
AcDbLine
 10
103.484467
 20
123.674794
 30
0.0
 11
101.564516
 21
123.674794
 31
0.0
  0
LINE
  5
9F
100
AcDbEntity
  8
AM_0
 62
     7
100
AcDbLine
 10
101.564516
 20
123.674794
 30
0.0
 11
101.564516
 21
170.714817
 31
0.0
  0
LINE
  5
9E
100
AcDbEntity
  8
AM_0
 62
     7
100
AcDbLine
 10
101.564516
 20
170.714817
 30
0.0
 11
103.484467
 21
170.714817
 31
0.0
  0
POLYLINE
  5
98
100
AcDbEntity
  8
AM_0
 62
     7
100
AcDb2dPolyline
 66
     1
 10
0.0
 20
0.0
 30
0.0
 70
     1
  0
VERTEX
  5
99
100
AcDbEntity
  8
AM_0
 62
     7
100
AcDbVertex
100
AcDb2dVertex
 10
110.20447
 20
168.172336
 30
0.0
  0
VERTEX
  5
9A
100
AcDbEntity
  8
AM_0
 62
     7
100
AcDbVertex
100
AcDb2dVertex
 10
110.20447
 20
163.564349
 30
0.0
  0
VERTEX
  5
9B
100
AcDbEntity
  8
AM_0
 62
     7
100
AcDbVertex
100
AcDb2dVertex
 10
110.684372
 20
163.564349
 30
0.0
  0
VERTEX
  5
9C
100
AcDbEntity
  8
AM_0
 62
     7
100
AcDbVertex
100
AcDb2dVertex
 10
110.684372
 20
168.172336
 30
0.0
  0
SEQEND
  5
9D
100
AcDbEntity
  8
AM_0
 62
     7
  0
POLYLINE
  5
92
100
AcDbEntity
  8
AM_0
 62
     7
100
AcDb2dPolyline
 66
     1
 10
0.0
 20
0.0
 30
0.0
 70
     1
  0
VERTEX
  5
93
100
AcDbEntity
  8
AM_0
 62
     7
100
AcDbVertex
100
AcDb2dVertex
 10
110.20447
 20
126.217274
 30
0.0
  0
VERTEX
  5
94
100
AcDbEntity
  8
AM_0
 62
     7
100
AcDbVertex
100
AcDb2dVertex
 10
110.20447
 20
130.82509
 30
0.0
  0
VERTEX
  5
95
100
AcDbEntity
  8
AM_0
 62
     7
100
AcDbVertex
100
AcDb2dVertex
 10
110.684372
 20
130.82509
 30
0.0
  0
VERTEX
  5
96
100
AcDbEntity
  8
AM_0
 62
     7
100
AcDbVertex
100
AcDb2dVertex
 10
110.684372
 20
126.217274
 30
0.0
  0
SEQEND
  5
97
100
AcDbEntity
  8
AM_0
 62
     7
  0
LINE
  5
91
100
AcDbEntity
  8
AM_0
 62
     7
100
AcDbLine
 10
166.79671
 20
160.394689
 30
0.0
 11
129.15663
 21
160.394689
 31
0.0
  0
LINE
  5
90
100
AcDbEntity
  8
AM_0
 62
     7
100
AcDbLine
 10
120.517019
 20
160.394689
 30
0.0
 11
110.20447
 21
160.394689
 31
0.0
  0
LINE
  5
8F
100
AcDbEntity
  8
AM_0
 62
     7
100
AcDbLine
 10
101.564516
 20
160.394689
 30
0.0
 11
94.919099
 21
160.394689
 31
0.0
  0
LINE
  5
8E
100
AcDbEntity
  8
AM_0
 62
     7
100
AcDbLine
 10
166.79671
 20
133.994577
 30
0.0
 11
129.15663
 21
133.994577
 31
0.0
  0
LINE
  5
8D
100
AcDbEntity
  8
AM_0
 62
     7
100
AcDbLine
 10
120.517019
 20
133.994577
 30
0.0
 11
110.20447
 21
133.994577
 31
0.0
  0
LINE
  5
8C
100
AcDbEntity
  8
AM_0
 62
     7
100
AcDbLine
 10
101.564516
 20
133.994577
 30
0.0
 11
94.919099
 21
133.994577
 31
0.0
  0
SPLINE
  5
8B
100
AcDbEntity
  8
AM_0
 62
     7
100
AcDbSpline
210
0.0
220
0.0
230
1.0
 70
     8
 71
     3
 72
     8
 73
     4
 74
     0
 42
0.00000001
 43
0.00000001
 40
0.0
 40
0.0
 40
0.0
 40
0.0
 40
1.0
 40
1.0
 40
1.0
 40
1.0
 10
166.87939181857638
 20
144.26475151909722
 30
0.0
 10
168.46069064670138
 20
148.82330186631944
 30
0.0
 10
169.1435085720486
 20
153.64522976345484
 30
0.0
 10
168.89029405381942
 20
158.46354031032985
 30
0.0
  0
SPLINE
  5
8A
100
AcDbEntity
  8
AM_0
 62
     7
100
AcDbSpline
210
0.0
220
0.0
230
1.0
 70
     8
 71
     3
 72
     8
 73
     4
 74
     0
 42
0.00000001
 43
0.00000001
 40
0.0
 40
0.0
 40
0.0
 40
0.0
 40
1.0
 40
1.0
 40
1.0
 40
1.0
 10
165.20714246961805
 20
151.20179578993054
 30
0.0
 10
165.6646511501736
 20
148.86636555989583
 30
0.0
 10
166.22206759982637
 20
146.55195041232636
 30
0.0
 10
166.87939181857638
 20
144.26475151909722
 30
0.0
  0
SPLINE
  5
89
100
AcDbEntity
  8
AM_0
 62
     7
100
AcDbSpline
210
0.0
220
0.0
230
1.0
 70
     8
 71
     3
 72
     8
 73
     4
 74
     0
 42
0.00000001
 43
0.00000001
 40
0.0
 40
0.0
 40
0.0
 40
0.0
 40
1.0
 40
1.0
 40
1.0
 40
1.0
 10
164.70760362413193
 20
158.50367567274304
 30
0.0
 10
164.57255588107637
 20
155.9040066189236
 30
0.0
 10
164.77064887152775
 20
153.29796413845486
 30
0.0
 10
165.29705946180553
 20
150.74876573350693
 30
0.0
  0
SPLINE
  5
88
100
AcDbEntity
  8
AM_0
 62
     7
100
AcDbSpline
210
0.0
220
0.0
230
1.0
 70
     8
 71
     3
 72
     8
 73
     4
 74
     0
 42
0.00000001
 43
0.00000001
 40
0.0
 40
0.0
 40
0.0
 40
0.0
 40
1.0
 40
1.0
 40
1.0
 40
1.0
 10
166.87939181857638
 20
144.26475151909722
 30
0.0
 10
167.8412624782986
 20
148.87566731770832
 30
0.0
 10
168.11652560763886
 20
153.6033718532986
 30
0.0
 10
167.69691297743054
 20
158.29455837673609
 30
0.0
  0
SPLINE
  5
87
100
AcDbEntity
  8
AM_0
 62
     7
100
AcDbSpline
210
0.0
220
0.0
230
1.0
 70
     8
 71
     3
 72
     8
 73
     4
 74
     0
 42
0.00000001
 43
0.00000001
 40
0.0
 40
0.0
 40
0.0
 40
0.0
 40
1.0
 40
1.0
 40
1.0
 40
1.0
 10
165.8971950954861
 20
158.29455837673609
 30
0.0
 10
165.56887749565971
 20
153.59510362413192
 30
0.0
 10
165.89960666232636
 20
148.87256673177083
 30
0.0
 10
166.87939181857638
 20
144.26475151909722
 30
0.0
  0
SPLINE
  5
86
100
AcDbEntity
  8
AM_0
 62
     7
100
AcDbSpline
210
0.0
220
0.0
230
1.0
 70
     8
 71
     3
 72
    11
 73
     7
 74
     0
 42
0.00000001
 43
0.00000001
 40
0.0
 40
0.0
 40
0.0
 40
0.0
 40
1.0
 40
1.0
 40
1.0
 40
2.0
 40
2.0
 40
2.0
 40
2.0
 10
167.69691297743054
 20
158.29455837673609
 30
0.0
 10
167.69691297743054
 20
158.79168565538194
 30
0.0
 10
167.29383680555554
 20
159.19476182725694
 30
0.0
 10
166.79670952690969
 20
159.19476182725694
 30
0.0
 10
166.29958224826387
 20
159.19476182725694
 30
0.0
 10
165.8971950954861
 20
158.79168565538194
 30
0.0
 10
165.8971950954861
 20
158.29455837673609
 30
0.0
  0
SPLINE
  5
85
100
AcDbEntity
  8
AM_0
 62
     7
100
AcDbSpline
210
0.0
220
0.0
230
1.0
 70
     8
 71
     3
 72
    11
 73
     7
 74
     0
 42
0.00000001
 43
0.00000001
 40
0.0
 40
0.0
 40
0.0
 40
0.0
 40
1.0
 40
1.0
 40
1.0
 40
2.0
 40
2.0
 40
2.0
 40
2.0
 10
168.89649522569442
 20
158.33900010850692
 30
0.0
 10
168.87203504774305
 20
159.49861924913193
 30
0.0
 10
167.91188693576387
 20
160.41880425347222
 30
0.0
 10
166.75226779513886
 20
160.39417182074652
 30
0.0
 10
165.60780707465275
 20
160.36988389756942
 30
0.0
 10
164.69347873263888
 20
159.43333468967012
 30
0.0
 10
164.69657931857637
 20
158.28818495008679
 30
0.0
  0
SPLINE
  5
84
100
AcDbEntity
  8
AM_0
 62
     7
100
AcDbSpline
210
0.0
220
0.0
230
1.0
 70
     8
 71
     3
 72
     8
 73
     4
 74
     0
 42
0.00000001
 43
0.00000001
 40
0.0
 40
0.0
 40
0.0
 40
0.0
 40
1.0
 40
1.0
 40
1.0
 40
1.0
 10
166.87939181857638
 20
144.26475151909722
 30
0.0
 10
167.44128689236109
 20
141.73984103732639
 30
0.0
 10
168.07931857638889
 20
139.2318115234375
 30
0.0
 10
168.79348687065971
 20
136.74583062065972
 30
0.0
  0
SPLINE
  5
83
100
AcDbEntity
  8
AM_0
 62
     7
100
AcDbSpline
210
0.0
220
0.0
230
1.0
 70
     8
 71
     3
 72
     8
 73
     4
 74
     0
 42
0.00000001
 43
0.00000001
 40
0.0
 40
0.0
 40
0.0
 40
0.0
 40
1.0
 40
1.0
 40
1.0
 40
1.0
 10
168.00490451388887
 20
134.37698296440971
 30
0.0
 10
168.64018012152775
 20
135.03120659722222
 30
0.0
 10
168.92233344184027
 20
135.95001356336803
 30
0.0
 10
168.76420355902775
 20
136.84746093749999
 30
0.0
  0
SPLINE
  5
82
100
AcDbEntity
  8
AM_0
 62
     7
100
AcDbSpline
210
0.0
220
0.0
230
1.0
 70
     8
 71
     3
 72
     8
 73
     4
 74
     0
 42
0.00000001
 43
0.00000001
 40
0.0
 40
0.0
 40
0.0
 40
0.0
 40
1.0
 40
1.0
 40
1.0
 40
1.0
 10
166.79670952690969
 20
133.99457736545136
 30
0.0
 10
167.22941351996525
 20
133.99457736545136
 30
0.0
 10
167.65143771701386
 20
134.12824707031248
 30
0.0
 10
168.00490451388887
 20
134.37698296440971
 30
0.0
  0
SPLINE
  5
81
100
AcDbEntity
  8
AM_0
 62
     7
100
AcDbSpline
210
0.0
220
0.0
230
1.0
 70
     8
 71
     3
 72
     8
 73
     4
 74
     0
 42
0.00000001
 43
0.00000001
 40
0.0
 40
0.0
 40
0.0
 40
0.0
 40
1.0
 40
1.0
 40
1.0
 40
1.0
 10
94.836416286892359
 20
150.12451443142359
 30
0.0
 10
94.274865722656244
 20
152.64976942274305
 30
0.0
 10
93.636661783854152
 20
155.15710991753471
 30
0.0
 10
92.922493489583331
 20
157.64326307508679
 30
0.0
  0
SPLINE
  5
80
100
AcDbEntity
  8
AM_0
 62
     7
100
AcDbSpline
210
0.0
220
0.0
230
1.0
 70
     8
 71
     3
 72
     8
 73
     4
 74
     0
 42
0.00000001
 43
0.00000001
 40
0.0
 40
0.0
 40
0.0
 40
0.0
 40
1.0
 40
1.0
 40
1.0
 40
1.0
 10
93.71090359157985
 20
160.0122829861111
 30
0.0
 10
93.075800238715274
 20
159.35840386284721
 30
0.0
 10
92.793646918402771
 20
158.43925238715278
 30
0.0
 10
92.951776801215274
 20
157.54163275824652
 30
0.0
  0
SPLINE
  5
7F
100
AcDbEntity
  8
AM_0
 62
     7
100
AcDbSpline
210
0.0
220
0.0
230
1.0
 70
     8
 71
     3
 72
     8
 73
     4
 74
     0
 42
0.00000001
 43
0.00000001
 40
0.0
 40
0.0
 40
0.0
 40
0.0
 40
1.0
 40
1.0
 40
1.0
 40
1.0
 10
94.919098578559016
 20
160.39468858506942
 30
0.0
 10
94.486566840277774
 20
160.39468858506942
 30
0.0
 10
94.06454264322916
 20
160.26119113498262
 30
0.0
 10
93.71090359157985
 20
160.0122829861111
 30
0.0
  0
SPLINE
  5
7E
100
AcDbEntity
  8
AM_0
 62
     7
100
AcDbSpline
210
0.0
220
0.0
230
1.0
 70
     8
 71
     3
 72
     8
 73
     4
 74
     0
 42
0.00000001
 43
0.00000001
 40
0.0
 40
0.0
 40
0.0
 40
0.0
 40
1.0
 40
1.0
 40
1.0
 40
1.0
 10
94.836416286892359
 20
150.12451443142359
 30
0.0
 10
93.255289713541657
 20
145.56596408420137
 30
0.0
 10
92.572644042968747
 20
140.74386393229165
 30
0.0
 10
92.825686306423606
 20
135.92555338541666
 30
0.0
  0
SPLINE
  5
7D
100
AcDbEntity
  8
AM_0
 62
     7
100
AcDbSpline
210
0.0
220
0.0
230
1.0
 70
     8
 71
     3
 72
     8
 73
     4
 74
     0
 42
0.00000001
 43
0.00000001
 40
0.0
 40
0.0
 40
0.0
 40
0.0
 40
1.0
 40
1.0
 40
1.0
 40
1.0
 10
97.008548990885402
 20
135.88524576822914
 30
0.0
 10
97.143424479166654
 20
138.48525933159721
 30
0.0
 10
96.945331488715269
 20
141.09112955729165
 30
0.0
 10
96.418748643663179
 20
143.64050021701388
 30
0.0
  0
SPLINE
  5
7C
100
AcDbEntity
  8
AM_0
 62
     7
100
AcDbSpline
210
0.0
220
0.0
230
1.0
 70
     8
 71
     3
 72
     8
 73
     4
 74
     0
 42
0.00000001
 43
0.00000001
 40
0.0
 40
0.0
 40
0.0
 40
0.0
 40
1.0
 40
1.0
 40
1.0
 40
1.0
 10
94.836416286892359
 20
150.12451443142359
 30
0.0
 10
93.874717881944434
 20
145.51359863281249
 30
0.0
 10
93.599282497829847
 20
140.78589409722221
 30
0.0
 10
94.019067382812494
 20
136.09470757378472
 30
0.0
  0
SPLINE
  5
7B
100
AcDbEntity
  8
AM_0
 62
     7
100
AcDbSpline
210
0.0
220
0.0
230
1.0
 70
     8
 71
     3
 72
     8
 73
     4
 74
     0
 42
0.00000001
 43
0.00000001
 40
0.0
 40
0.0
 40
0.0
 40
0.0
 40
1.0
 40
1.0
 40
1.0
 40
1.0
 10
95.818957519531239
 20
136.09470757378472
 30
0.0
 10
96.146930609809019
 20
140.79416232638889
 30
0.0
 10
95.816201443142347
 20
145.51669921874998
 30
0.0
 10
94.836416286892359
 20
150.12451443142359
 30
0.0
  0
SPLINE
  5
7A
100
AcDbEntity
  8
AM_0
 62
     7
100
AcDbSpline
210
0.0
220
0.0
230
1.0
 70
     8
 71
     3
 72
     8
 73
     4
 74
     0
 42
0.00000001
 43
0.00000001
 40
0.0
 40
0.0
 40
0.0
 40
0.0
 40
1.0
 40
1.0
 40
1.0
 40
1.0
 10
96.50866563585069
 20
143.18781467013886
 30
0.0
 10
96.051501464843739
 20
145.52290039062498
 30
0.0
 10
95.493395996093739
 20
147.83766004774304
 30
0.0
 10
94.836416286892359
 20
150.12451443142359
 30
0.0
  0
SPLINE
  5
79
100
AcDbEntity
  8
AM_0
 62
     7
100
AcDbSpline
210
0.0
220
0.0
230
1.0
 70
     8
 71
     3
 72
    11
 73
     7
 74
     0
 42
0.00000001
 43
0.00000001
 40
0.0
 40
0.0
 40
0.0
 40
0.0
 40
1.0
 40
1.0
 40
1.0
 40
2.0
 40
2.0
 40
2.0
 40
2.0
 10
94.019067382812494
 20
136.09470757378472
 30
0.0
 10
94.019067382812494
 20
135.59758029513887
 30
0.0
 10
94.421971299913181
 20
135.19450412326387
 30
0.0
 10
94.919098578559016
 20
135.19450412326387
 30
0.0
 10
95.415881347656239
 20
135.19450412326387
 30
0.0
 10
95.818957519531239
 20
135.59758029513887
 30
0.0
 10
95.818957519531239
 20
136.09470757378472
 30
0.0
  0
SPLINE
  5
78
100
AcDbEntity
  8
AM_0
 62
     7
100
AcDbSpline
210
0.0
220
0.0
230
1.0
 70
     8
 71
     3
 72
    11
 73
     7
 74
     0
 42
0.00000001
 43
0.00000001
 40
0.0
 40
0.0
 40
0.0
 40
0.0
 40
1.0
 40
1.0
 40
1.0
 40
2.0
 40
2.0
 40
2.0
 40
2.0
 10
92.8194851345486
 20
136.05026584201389
 30
0.0
 10
92.843945312499997
 20
134.89064670138887
 30
0.0
 10
93.80392116970485
 20
133.97080620659722
 30
0.0
 10
94.963540310329847
 20
133.99492187499999
 30
0.0
 10
96.108173285590269
 20
134.01938205295139
 30
0.0
 10
97.022501627604157
 20
134.95610351562499
 30
0.0
 10
97.018884277343744
 20
136.10090874565972
 30
0.0
  0
LINE
  5
77
100
AcDbEntity
  8
AM_0
 62
     7
100
AcDbLine
 10
158.993224
 20
123.322361
 30
0.0
 11
158.993224
 21
87.321802
 31
0.0
  0
LINE
  5
76
100
AcDbEntity
  8
AM_0
 62
     7
100
AcDbLine
 10
149.393121
 20
123.194548
 30
0.0
 11
149.393121
 21
87.321802
 31
0.0
  0
LINE
  5
75
100
AcDbEntity
  8
AM_0
 62
     7
100
AcDbLine
 10
101.39295
 20
87.321802
 30
0.0
 11
101.39295
 21
123.194548
 31
0.0
  0
LINE
  5
74
100
AcDbEntity
  8
AM_0
 62
     7
100
AcDbLine
 10
110.993397
 20
87.321802
 30
0.0
 11
110.993397
 21
123.194548
 31
0.0
  0
LINE
  5
73
100
AcDbEntity
  8
AM_0
 62
     7
100
AcDbLine
 10
120.5935
 20
87.321802
 30
0.0
 11
120.5935
 21
123.194548
 31
0.0
  0
LINE
  5
72
100
AcDbEntity
  8
AM_0
 62
     7
100
AcDbLine
 10
129.636876
 20
127.521932
 30
0.0
 11
129.636876
 21
129.519743
 31
0.0
  0
LINE
  5
71
100
AcDbEntity
  8
AM_0
 62
     7
100
AcDbLine
 10
130.836803
 20
127.521932
 30
0.0
 11
130.836803
 21
129.519743
 31
0.0
  0
SPLINE
  5
70
100
AcDbEntity
  8
AM_0
 62
     7
100
AcDbSpline
210
0.0
220
0.0
230
1.0
 70
     8
 71
     3
 72
     8
 73
     4
 74
     0
 42
0.00000001
 43
0.00000001
 40
0.0
 40
0.0
 40
0.0
 40
0.0
 40
1.0
 40
1.0
 40
1.0
 40
1.0
 10
130.72242567274304
 20
129.18694661458332
 30
0.0
 10
130.87504340277778
 20
128.75596516927081
 30
0.0
 10
130.87504340277778
 20
128.28570963541665
 30
0.0
 10
130.72242567274304
 20
127.85472819010415
 30
0.0
  0
SPLINE
  5
6F
100
AcDbEntity
  8
AM_0
 62
     7
100
AcDbSpline
210
0.0
220
0.0
230
1.0
 70
     8
 71
     3
 72
     8
 73
     4
 74
     0
 42
0.00000001
 43
0.00000001
 40
0.0
 40
0.0
 40
0.0
 40
0.0
 40
1.0
 40
1.0
 40
1.0
 40
1.0
 10
129.7509087456597
 20
127.85472819010415
 30
0.0
 10
129.59863552517359
 20
128.28570963541665
 30
0.0
 10
129.59863552517359
 20
128.75596516927081
 30
0.0
 10
129.7509087456597
 20
129.18694661458332
 30
0.0
  0
LINE
  5
6E
100
AcDbEntity
  8
AM_0
 62
     7
100
AcDbLine
 10
130.722426
 20
127.189136
 30
0.0
 11
129.750909
 21
127.189136
 31
0.0
  0
SPLINE
  5
6D
100
AcDbEntity
  8
AM_0
 62
     7
100
AcDbSpline
210
0.0
220
0.0
230
1.0
 70
     8
 71
     3
 72
     8
 73
     4
 74
     0
 42
0.00000001
 43
0.00000001
 40
0.0
 40
0.0
 40
0.0
 40
0.0
 40
1.0
 40
1.0
 40
1.0
 40
1.0
 10
130.72242567274304
 20
127.85472819010415
 30
0.0
 10
130.87504340277778
 20
127.65904676649305
 30
0.0
 10
130.87504340277778
 20
127.38516167534721
 30
0.0
 10
130.72242567274304
 20
127.18913574218749
 30
0.0
  0
LINE
  5
6C
100
AcDbEntity
  8
AM_0
 62
     7
100
AcDbLine
 10
130.722426
 20
127.854728
 30
0.0
 11
129.750909
 21
127.854728
 31
0.0
  0
SPLINE
  5
6B
100
AcDbEntity
  8
AM_0
 62
     7
100
AcDbSpline
210
0.0
220
0.0
230
1.0
 70
     8
 71
     3
 72
     8
 73
     4
 74
     0
 42
0.00000001
 43
0.00000001
 40
0.0
 40
0.0
 40
0.0
 40
0.0
 40
1.0
 40
1.0
 40
1.0
 40
1.0
 10
129.7509087456597
 20
127.18913574218749
 30
0.0
 10
129.59863552517359
 20
127.38516167534721
 30
0.0
 10
129.59863552517359
 20
127.65904676649305
 30
0.0
 10
129.7509087456597
 20
127.85472819010415
 30
0.0
  0
LINE
  5
6A
100
AcDbEntity
  8
AM_0
 62
     7
100
AcDbLine
 10
130.722426
 20
129.186947
 30
0.0
 11
129.750909
 21
129.186947
 31
0.0
  0
SPLINE
  5
69
100
AcDbEntity
  8
AM_0
 62
     7
100
AcDbSpline
210
0.0
220
0.0
230
1.0
 70
     8
 71
     3
 72
     8
 73
     4
 74
     0
 42
0.00000001
 43
0.00000001
 40
0.0
 40
0.0
 40
0.0
 40
0.0
 40
1.0
 40
1.0
 40
1.0
 40
1.0
 10
130.72242567274304
 20
129.85322808159722
 30
0.0
 10
130.87504340277778
 20
129.65720214843748
 30
0.0
 10
130.87504340277778
 20
129.38297254774304
 30
0.0
 10
130.72242567274304
 20
129.18694661458332
 30
0.0
  0
SPLINE
  5
68
100
AcDbEntity
  8
AM_0
 62
     7
100
AcDbSpline
210
0.0
220
0.0
230
1.0
 70
     8
 71
     3
 72
     8
 73
     4
 74
     0
 42
0.00000001
 43
0.00000001
 40
0.0
 40
0.0
 40
0.0
 40
0.0
 40
1.0
 40
1.0
 40
1.0
 40
1.0
 10
129.7509087456597
 20
129.18694661458332
 30
0.0
 10
129.59863552517359
 20
129.38297254774304
 30
0.0
 10
129.59863552517359
 20
129.65720214843748
 30
0.0
 10
129.7509087456597
 20
129.85322808159722
 30
0.0
  0
LINE
  5
67
100
AcDbEntity
  8
AM_0
 62
     7
100
AcDbLine
 10
130.722426
 20
129.853228
 30
0.0
 11
129.750909
 21
129.853228
 31
0.0
  0
LINE
  5
66
100
AcDbEntity
  8
AM_0
 62
     7
100
AcDbLine
 10
129.636876
 20
164.869179
 30
0.0
 11
129.636876
 21
166.867162
 31
0.0
  0
LINE
  5
65
100
AcDbEntity
  8
AM_0
 62
     7
100
AcDbLine
 10
130.836803
 20
164.869179
 30
0.0
 11
130.836803
 21
166.867162
 31
0.0
  0
SPLINE
  5
64
100
AcDbEntity
  8
AM_0
 62
     7
100
AcDbSpline
210
0.0
220
0.0
230
1.0
 70
     8
 71
     3
 72
     8
 73
     4
 74
     0
 42
0.00000001
 43
0.00000001
 40
0.0
 40
0.0
 40
0.0
 40
0.0
 40
1.0
 40
1.0
 40
1.0
 40
1.0
 10
130.72242567274304
 20
166.53419325086804
 30
0.0
 10
130.87504340277778
 20
166.10338406032986
 30
0.0
 10
130.87504340277778
 20
165.63312852647567
 30
0.0
 10
130.72242567274304
 20
165.20214708116319
 30
0.0
  0
SPLINE
  5
63
100
AcDbEntity
  8
AM_0
 62
     7
100
AcDbSpline
210
0.0
220
0.0
230
1.0
 70
     8
 71
     3
 72
     8
 73
     4
 74
     0
 42
0.00000001
 43
0.00000001
 40
0.0
 40
0.0
 40
0.0
 40
0.0
 40
1.0
 40
1.0
 40
1.0
 40
1.0
 10
129.7509087456597
 20
165.20214708116319
 30
0.0
 10
129.59863552517359
 20
165.63312852647567
 30
0.0
 10
129.59863552517359
 20
166.10338406032986
 30
0.0
 10
129.7509087456597
 20
166.53419325086804
 30
0.0
  0
LINE
  5
62
100
AcDbEntity
  8
AM_0
 62
     7
100
AcDbLine
 10
130.722426
 20
164.536382
 30
0.0
 11
129.750909
 21
164.536382
 31
0.0
  0
SPLINE
  5
61
100
AcDbEntity
  8
AM_0
 62
     7
100
AcDbSpline
210
0.0
220
0.0
230
1.0
 70
     8
 71
     3
 72
     8
 73
     4
 74
     0
 42
0.00000001
 43
0.00000001
 40
0.0
 40
0.0
 40
0.0
 40
0.0
 40
1.0
 40
1.0
 40
1.0
 40
1.0
 10
130.72242567274304
 20
165.20214708116319
 30
0.0
 10
130.87504340277778
 20
165.00629340277777
 30
0.0
 10
130.87504340277778
 20
164.73223605685763
 30
0.0
 10
130.72242567274304
 20
164.53638237847221
 30
0.0
  0
LINE
  5
60
100
AcDbEntity
  8
AM_0
 62
     7
100
AcDbLine
 10
130.722426
 20
165.202147
 30
0.0
 11
129.750909
 21
165.202147
 31
0.0
  0
SPLINE
  5
5F
100
AcDbEntity
  8
AM_0
 62
     7
100
AcDbSpline
210
0.0
220
0.0
230
1.0
 70
     8
 71
     3
 72
     8
 73
     4
 74
     0
 42
0.00000001
 43
0.00000001
 40
0.0
 40
0.0
 40
0.0
 40
0.0
 40
1.0
 40
1.0
 40
1.0
 40
1.0
 10
129.7509087456597
 20
164.53638237847221
 30
0.0
 10
129.59863552517359
 20
164.73223605685763
 30
0.0
 10
129.59863552517359
 20
165.00629340277777
 30
0.0
 10
129.7509087456597
 20
165.20214708116319
 30
0.0
  0
LINE
  5
5E
100
AcDbEntity
  8
AM_0
 62
     7
100
AcDbLine
 10
130.722426
 20
166.534193
 30
0.0
 11
129.750909
 21
166.534193
 31
0.0
  0
SPLINE
  5
5D
100
AcDbEntity
  8
AM_0
 62
     7
100
AcDbSpline
210
0.0
220
0.0
230
1.0
 70
     8
 71
     3
 72
     8
 73
     4
 74
     0
 42
0.00000001
 43
0.00000001
 40
0.0
 40
0.0
 40
0.0
 40
0.0
 40
1.0
 40
1.0
 40
1.0
 40
1.0
 10
130.72242567274304
 20
167.20030246310762
 30
0.0
 10
130.87504340277778
 20
167.0044487847222
 30
0.0
 10
130.87504340277778
 20
166.73004692925346
 30
0.0
 10
130.72242567274304
 20
166.53419325086804
 30
0.0
  0
SPLINE
  5
5C
100
AcDbEntity
  8
AM_0
 62
     7
100
AcDbSpline
210
0.0
220
0.0
230
1.0
 70
     8
 71
     3
 72
     8
 73
     4
 74
     0
 42
0.00000001
 43
0.00000001
 40
0.0
 40
0.0
 40
0.0
 40
0.0
 40
1.0
 40
1.0
 40
1.0
 40
1.0
 10
129.7509087456597
 20
166.53419325086804
 30
0.0
 10
129.59863552517359
 20
166.73004692925346
 30
0.0
 10
129.59863552517359
 20
167.0044487847222
 30
0.0
 10
129.7509087456597
 20
167.20030246310762
 30
0.0
  0
LINE
  5
5B
100
AcDbEntity
  8
AM_0
 62
     7
100
AcDbLine
 10
130.722426
 20
167.200302
 30
0.0
 11
129.750909
 21
167.200302
 31
0.0
  0
LINE
  5
5A
100
AcDbEntity
  8
AM_0
 62
     7
100
AcDbLine
 10
110.684372
 20
164.869179
 30
0.0
 11
110.684372
 21
166.867162
 31
0.0
  0
LINE
  5
59
100
AcDbEntity
  8
AM_0
 62
     7
100
AcDbLine
 10
111.884299
 20
164.869179
 30
0.0
 11
111.884299
 21
166.867162
 31
0.0
  0
SPLINE
  5
58
100
AcDbEntity
  8
AM_0
 62
     7
100
AcDbSpline
210
0.0
220
0.0
230
1.0
 70
     8
 71
     3
 72
     8
 73
     4
 74
     0
 42
0.00000001
 43
0.00000001
 40
0.0
 40
0.0
 40
0.0
 40
0.0
 40
1.0
 40
1.0
 40
1.0
 40
1.0
 10
111.77026638454861
 20
166.53419325086804
 30
0.0
 10
111.92253960503471
 20
166.10338406032986
 30
0.0
 10
111.92253960503471
 20
165.63312852647567
 30
0.0
 10
111.77026638454861
 20
165.20214708116319
 30
0.0
  0
SPLINE
  5
57
100
AcDbEntity
  8
AM_0
 62
     7
100
AcDbSpline
210
0.0
220
0.0
230
1.0
 70
     8
 71
     3
 72
     8
 73
     4
 74
     0
 42
0.00000001
 43
0.00000001
 40
0.0
 40
0.0
 40
0.0
 40
0.0
 40
1.0
 40
1.0
 40
1.0
 40
1.0
 10
110.79874945746526
 20
165.20214708116319
 30
0.0
 10
110.64613172743054
 20
165.63312852647567
 30
0.0
 10
110.64613172743054
 20
166.10338406032986
 30
0.0
 10
110.79874945746526
 20
166.53419325086804
 30
0.0
  0
LINE
  5
56
100
AcDbEntity
  8
AM_0
 62
     7
100
AcDbLine
 10
111.770266
 20
164.536382
 30
0.0
 11
110.798749
 21
164.536382
 31
0.0
  0
SPLINE
  5
55
100
AcDbEntity
  8
AM_0
 62
     7
100
AcDbSpline
210
0.0
220
0.0
230
1.0
 70
     8
 71
     3
 72
     8
 73
     4
 74
     0
 42
0.00000001
 43
0.00000001
 40
0.0
 40
0.0
 40
0.0
 40
0.0
 40
1.0
 40
1.0
 40
1.0
 40
1.0
 10
111.77026638454861
 20
165.20214708116319
 30
0.0
 10
111.92253960503471
 20
165.00629340277777
 30
0.0
 10
111.92253960503471
 20
164.73223605685763
 30
0.0
 10
111.77026638454861
 20
164.53638237847221
 30
0.0
  0
LINE
  5
54
100
AcDbEntity
  8
AM_0
 62
     7
100
AcDbLine
 10
111.770266
 20
165.202147
 30
0.0
 11
110.798749
 21
165.202147
 31
0.0
  0
SPLINE
  5
53
100
AcDbEntity
  8
AM_0
 62
     7
100
AcDbSpline
210
0.0
220
0.0
230
1.0
 70
     8
 71
     3
 72
     8
 73
     4
 74
     0
 42
0.00000001
 43
0.00000001
 40
0.0
 40
0.0
 40
0.0
 40
0.0
 40
1.0
 40
1.0
 40
1.0
 40
1.0
 10
110.79874945746526
 20
164.53638237847221
 30
0.0
 10
110.64613172743054
 20
164.73223605685763
 30
0.0
 10
110.64613172743054
 20
165.00629340277777
 30
0.0
 10
110.79874945746526
 20
165.20214708116319
 30
0.0
  0
LINE
  5
52
100
AcDbEntity
  8
AM_0
 62
     7
100
AcDbLine
 10
111.770266
 20
166.534193
 30
0.0
 11
110.798749
 21
166.534193
 31
0.0
  0
SPLINE
  5
51
100
AcDbEntity
  8
AM_0
 62
     7
100
AcDbSpline
210
0.0
220
0.0
230
1.0
 70
     8
 71
     3
 72
     8
 73
     4
 74
     0
 42
0.00000001
 43
0.00000001
 40
0.0
 40
0.0
 40
0.0
 40
0.0
 40
1.0
 40
1.0
 40
1.0
 40
1.0
 10
111.77026638454861
 20
167.20030246310762
 30
0.0
 10
111.92253960503471
 20
167.0044487847222
 30
0.0
 10
111.92253960503471
 20
166.73004692925346
 30
0.0
 10
111.77026638454861
 20
166.53419325086804
 30
0.0
  0
SPLINE
  5
50
100
AcDbEntity
  8
AM_0
 62
     7
100
AcDbSpline
210
0.0
220
0.0
230
1.0
 70
     8
 71
     3
 72
     8
 73
     4
 74
     0
 42
0.00000001
 43
0.00000001
 40
0.0
 40
0.0
 40
0.0
 40
0.0
 40
1.0
 40
1.0
 40
1.0
 40
1.0
 10
110.79874945746526
 20
166.53419325086804
 30
0.0
 10
110.64613172743054
 20
166.73004692925346
 30
0.0
 10
110.64613172743054
 20
167.0044487847222
 30
0.0
 10
110.79874945746526
 20
167.20030246310762
 30
0.0
  0
LINE
  5
4F
100
AcDbEntity
  8
AM_0
 62
     7
100
AcDbLine
 10
111.770266
 20
167.200302
 30
0.0
 11
110.798749
 21
167.200302
 31
0.0
  0
LINE
  5
4E
100
AcDbEntity
  8
AM_0
 62
     7
100
AcDbLine
 10
110.684372
 20
127.521932
 30
0.0
 11
110.684372
 21
129.519743
 31
0.0
  0
LINE
  5
4D
100
AcDbEntity
  8
AM_0
 62
     7
100
AcDbLine
 10
111.884299
 20
127.521932
 30
0.0
 11
111.884299
 21
129.519743
 31
0.0
  0
SPLINE
  5
4C
100
AcDbEntity
  8
AM_0
 62
     7
100
AcDbSpline
210
0.0
220
0.0
230
1.0
 70
     8
 71
     3
 72
     8
 73
     4
 74
     0
 42
0.00000001
 43
0.00000001
 40
0.0
 40
0.0
 40
0.0
 40
0.0
 40
1.0
 40
1.0
 40
1.0
 40
1.0
 10
111.77026638454861
 20
129.18694661458332
 30
0.0
 10
111.92253960503471
 20
128.75596516927081
 30
0.0
 10
111.92253960503471
 20
128.28570963541665
 30
0.0
 10
111.77026638454861
 20
127.85472819010415
 30
0.0
  0
SPLINE
  5
4B
100
AcDbEntity
  8
AM_0
 62
     7
100
AcDbSpline
210
0.0
220
0.0
230
1.0
 70
     8
 71
     3
 72
     8
 73
     4
 74
     0
 42
0.00000001
 43
0.00000001
 40
0.0
 40
0.0
 40
0.0
 40
0.0
 40
1.0
 40
1.0
 40
1.0
 40
1.0
 10
110.79874945746526
 20
127.85472819010415
 30
0.0
 10
110.64613172743054
 20
128.28570963541665
 30
0.0
 10
110.64613172743054
 20
128.75596516927081
 30
0.0
 10
110.79874945746526
 20
129.18694661458332
 30
0.0
  0
LINE
  5
4A
100
AcDbEntity
  8
AM_0
 62
     7
100
AcDbLine
 10
111.770266
 20
127.189136
 30
0.0
 11
110.798749
 21
127.189136
 31
0.0
  0
SPLINE
  5
49
100
AcDbEntity
  8
AM_0
 62
     7
100
AcDbSpline
210
0.0
220
0.0
230
1.0
 70
     8
 71
     3
 72
     8
 73
     4
 74
     0
 42
0.00000001
 43
0.00000001
 40
0.0
 40
0.0
 40
0.0
 40
0.0
 40
1.0
 40
1.0
 40
1.0
 40
1.0
 10
111.77026638454861
 20
127.85472819010415
 30
0.0
 10
111.92253960503471
 20
127.65904676649305
 30
0.0
 10
111.92253960503471
 20
127.38516167534721
 30
0.0
 10
111.77026638454861
 20
127.18913574218749
 30
0.0
  0
LINE
  5
48
100
AcDbEntity
  8
AM_0
 62
     7
100
AcDbLine
 10
111.770266
 20
127.854728
 30
0.0
 11
110.798749
 21
127.854728
 31
0.0
  0
SPLINE
  5
47
100
AcDbEntity
  8
AM_0
 62
     7
100
AcDbSpline
210
0.0
220
0.0
230
1.0
 70
     8
 71
     3
 72
     8
 73
     4
 74
     0
 42
0.00000001
 43
0.00000001
 40
0.0
 40
0.0
 40
0.0
 40
0.0
 40
1.0
 40
1.0
 40
1.0
 40
1.0
 10
110.79874945746526
 20
127.18913574218749
 30
0.0
 10
110.64613172743054
 20
127.38516167534721
 30
0.0
 10
110.64613172743054
 20
127.65904676649305
 30
0.0
 10
110.79874945746526
 20
127.85472819010415
 30
0.0
  0
LINE
  5
46
100
AcDbEntity
  8
AM_0
 62
     7
100
AcDbLine
 10
111.770266
 20
129.186947
 30
0.0
 11
110.798749
 21
129.186947
 31
0.0
  0
SPLINE
  5
45
100
AcDbEntity
  8
AM_0
 62
     7
100
AcDbSpline
210
0.0
220
0.0
230
1.0
 70
     8
 71
     3
 72
     8
 73
     4
 74
     0
 42
0.00000001
 43
0.00000001
 40
0.0
 40
0.0
 40
0.0
 40
0.0
 40
1.0
 40
1.0
 40
1.0
 40
1.0
 10
111.77026638454861
 20
129.85322808159722
 30
0.0
 10
111.92253960503471
 20
129.65720214843748
 30
0.0
 10
111.92253960503471
 20
129.38297254774304
 30
0.0
 10
111.77026638454861
 20
129.18694661458332
 30
0.0
  0
SPLINE
  5
44
100
AcDbEntity
  8
AM_0
 62
     7
100
AcDbSpline
210
0.0
220
0.0
230
1.0
 70
     8
 71
     3
 72
     8
 73
     4
 74
     0
 42
0.00000001
 43
0.00000001
 40
0.0
 40
0.0
 40
0.0
 40
0.0
 40
1.0
 40
1.0
 40
1.0
 40
1.0
 10
110.79874945746526
 20
129.18694661458332
 30
0.0
 10
110.64613172743054
 20
129.38297254774304
 30
0.0
 10
110.64613172743054
 20
129.65720214843748
 30
0.0
 10
110.79874945746526
 20
129.85322808159722
 30
0.0
  0
LINE
  5
43
100
AcDbEntity
  8
AM_0
 62
     7
100
AcDbLine
 10
111.770266
 20
129.853228
 30
0.0
 11
110.798749
 21
129.853228
 31
0.0
  0
POLYLINE
  5
3C
100
AcDbEntity
  8
RAHMEN
 62
     7
100
AcDb2dPolyline
 66
     1
 10
0.0
 20
0.0
 30
0.0
 70
     1
  0
VERTEX
  5
3D
100
AcDbEntity
  8
RAHMEN
 62
     7
100
AcDbVertex
100
AcDb2dVertex
 10
24.520639
 20
221.677253
 30
0.0
  0
VERTEX
  5
3E
100
AcDbEntity
  8
RAHMEN
 62
     7
100
AcDbVertex
100
AcDb2dVertex
 10
24.520639
 20
77.417497
 30
0.0
  0
VERTEX
  5
3F
100
AcDbEntity
  8
RAHMEN
 62
     7
100
AcDbVertex
100
AcDb2dVertex
 10
186.188463
 20
77.417497
 30
0.0
  0
VERTEX
  5
40
100
AcDbEntity
  8
RAHMEN
 62
     7
100
AcDbVertex
100
AcDb2dVertex
 10
186.188463
 20
221.677253
 30
0.0
  0
SEQEND
  5
41
100
AcDbEntity
  8
RAHMEN
 62
     7
  0
POLYLINE
  5
36
100
AcDbEntity
  8
RAHMEN
 62
     7
100
AcDb2dPolyline
 66
     1
 10
0.0
 20
0.0
 30
0.0
 70
     1
  0
VERTEX
  5
37
100
AcDbEntity
  8
RAHMEN
 62
     7
100
AcDbVertex
100
AcDb2dVertex
 10
167.027875
 20
94.023201
 30
0.0
  0
VERTEX
  5
38
100
AcDbEntity
  8
RAHMEN
 62
     7
100
AcDbVertex
100
AcDb2dVertex
 10
186.077875
 20
94.023201
 30
0.0
  0
VERTEX
  5
39
100
AcDbEntity
  8
RAHMEN
 62
     7
100
AcDbVertex
100
AcDb2dVertex
 10
186.077875
 20
77.265568
 30
0.0
  0
VERTEX
  5
3A
100
AcDbEntity
  8
RAHMEN
 62
     7
100
AcDbVertex
100
AcDb2dVertex
 10
167.027875
 20
77.265568
 30
0.0
  0
SEQEND
  5
3B
100
AcDbEntity
  8
RAHMEN
 62
     7
  0
MTEXT
  5
35
100
AcDbEntity
  8
RAHMEN
 62
     7
100
AcDbMText
 10
168.174059
 20
91.5667
 30
0.0
 40
9.449404
 41
0.0
 71
     1
 72
     2
  1
\fMyriad Roman|b0|i0;\H9.4494;\C7;\U+0034\U+002E\U+0033
  7
STD
210
0.0
220
0.0
230
1.0
 73
     1
 44
1.0
  0
MTEXT
  5
33
100
AcDbEntity
  8
TEXT
 62
     7
100
AcDbMText
 10
33.4238
 20
176.610408
 30
0.0
 40
5.512152
 41
0.0
 71
     1
 72
     2
  1
\fArial|b0|i0;\H5.5122;\C7;\U+0045\U+006C\U+0065\U+006D\U+0065\U+006E\U+0074\U+0077\U+0061\U+006E\U+0064
  7
STD
210
0.0
220
0.0
230
1.0
 73
     1
 44
1.0
  0
MTEXT
  5
32
100
AcDbEntity
  8
TEXT
 62
     7
100
AcDbMText
 10
33.4238
 20
184.018742
 30
0.0
 40
5.512152
 41
0.0
 71
     1
 72
     2
  1
\fArial|b0|i0;\H5.5122;\C7;\U+0044\U+006F\U+0070\U+0070\U+0065\U+006C\U+002D\U+0020\U+002F
  7
STD
210
0.0
220
0.0
230
1.0
 73
     1
 44
1.0
  0
MTEXT
  5
31
100
AcDbEntity
  8
TEXT
 62
     7
100
AcDbMText
 10
31.761886
 20
210.120507
 30
0.0
 40
5.512152
 41
0.0
 71
     1
 72
     2
  1
\fArial|b0|i0;\H5.5122;\C7;\U+0057\U+00E4\U+0072\U+006D\U+0065\U+0064\U+00E4\U+006D\U+006D\U+0075\U+006E\U+0067
  7
STD
210
0.0
220
0.0
230
1.0
 73
     1
 44
1.0
  0
MTEXT
  5
30
100
AcDbEntity
  8
TEXT
 62
     7
100
AcDbMText
 10
33.087386
 20
106.08448
 30
0.0
 40
5.512152
 41
0.0
 71
     1
 72
     2
  1
\fArial|b0|i0;\H5.5122;\C7;\U+004B\U+0065\U+0072\U+006E\U+0062\U+006F\U+0068\U+0072\U+0075\U+006E\U+0067
  7
STD
210
0.0
220
0.0
230
1.0
 73
     1
 44
1.0
  0
INSERT
  5
2A
100
AcDbEntity
  8
TEXT
 62
     7
100
AcDbBlockReference
  2
AI9-BLK1
 10
49.377176
 20
146.614307
 30
0.0
  0
ENDSEC
  0
SECTION
  2
OBJECTS
  0
DICTIONARY
  5
19
100
AcDbDictionary
280
     0
281
     1
  3
ACAD_GROUP
350
1A
  3
ACAD_MLINESTYLE
350
1B
  3
ACAD_LAYOUT
350
1E
  3
ACAD_PLOTSETTINGS
350
22
  3
ACAD_PLOTSTYLENAME
350
1F
  3
ACAD_WIPEOUT_VARS
350
23
  0
DICTIONARY
  5
1A
102
{ACAD_REACTORS
330
19
102
}
100
AcDbDictionary
280
     0
281
     1
  0
DICTIONARY
  5
1B
102
{ACAD_REACTORS
330
19
102
}
100
AcDbDictionary
280
     0
281
     1
  3
Standard
350
1C
  0
MLINESTYLE
  5
1C
102
{ACAD_REACTORS
330
1B
102
}
100
AcDbMlineStyle
  2
Standard
 70
     0
  3

 62
     0
 51
90.0
 52
90.0
 71
     2
 49
0.5
 62
   256
  6
ByLayer
 49
-0.5
 62
   256
  6
ByLayer
  0
ACDBDICTIONARYWDFLT
  5
1F
102
{ACAD_REACTORS
330
19
102
}
100
AcDbDictionary
281
     1
  3
Normal
350
1D
100
AcDbDictionaryWithDefault
340
1D
  0
ACDBPLACEHOLDER
  5
1D
102
{ACAD_REACTORS
330
1F
102
}
  0
LAYOUT
  5
20
102
{ACAD_REACTORS
330
1E
102
}
100
AcDbPlotSettings
  1

  2

  4

  6

 40
0.0
 41
0.0
 42
0.0
 43
0.0
 44
0.0
 45
0.0
 46
0.0
 47
0.0
 48
0.0
 49
0.0
140
0.0
141
0.0
142
1.0
143
1.0
 70
  1024
 72
     0
 73
     0
 74
     0
  7

 75
     0
147
1.0
148
0.0
149
0.0
100
AcDbLayout
  1
Model
 70
     0
 71
     0
 10
0.0
 20
0.0
 11
0.0
 21
0.0
 12
0.0
 22
0.0
 32
0.0
 14
0.0
 24
0.0
 34
0.0
 15
0.0
 25
0.0
 35
0.0
146
0.0
 13
0.0
 23
0.0
 33
0.0
 16
0.0
 26
0.0
 36
0.0
 17
0.0
 27
0.0
 37
0.0
 76
     0
330
A
331
0
345
0
346
0
  0
LAYOUT
  5
21
102
{ACAD_REACTORS
330
1E
102
}
100
AcDbPlotSettings
  1

  2

  4

  6

 40
0.0
 41
0.0
 42
0.0
 43
0.0
 44
0.0
 45
0.0
 46
0.0
 47
0.0
 48
0.0
 49
0.0
140
0.0
141
0.0
142
1.0
143
1.0
 70
     0
 72
     0
 73
     0
 74
     0
  7

 75
     0
147
1.0
148
0.0
149
0.0
100
AcDbLayout
  1
Layout1
 70
     0
 71
     0
 10
0.0
 20
0.0
 11
0.0
 21
0.0
 12
0.0
 22
0.0
 32
0.0
 14
0.0
 24
0.0
 34
0.0
 15
0.0
 25
0.0
 35
0.0
146
0.0
 13
0.0
 23
0.0
 33
0.0
 16
0.0
 26
0.0
 36
0.0
 17
0.0
 27
0.0
 37
0.0
 76
     0
330
B
331
0
345
0
346
0
  0
DICTIONARY
  5
1E
102
{ACAD_REACTORS
330
19
102
}
100
AcDbDictionary
280
     0
281
     1
  3
Layout1
350
21
  3
Model
350
20
  0
DICTIONARY
  5
22
102
{ACAD_REACTORS
330
19
102
}
100
AcDbDictionary
280
     0
281
     1
  0
WIPEOUTVARIABLES
  5
23
100
AcDbWipeoutVariables
 70
     1
  0
ENDSEC
  0
EOF
