  0
SECTION
  2
HEADER
  9
$ACADVER
  1
AC1015
  9
$ACADMAINTVER
 70
     6
  9
$DWGCODEPAGE
  3
ANSI_932
  9
$INSBASE
 10
0.0
 20
0.0
 30
0.0
  9
$EXTMIN
 10
24.167862
 20
76.91279
 30
1.000000E+20
  9
$EXTMAX
 10
186.541241
 20
222.030031
 30
-1.000000E+20
  9
$LIMMIN
 10
24.167862
 20
76.91279
  9
$LIMMAX
 10
186.541241
 20
222.030031
  9
$ORTHOMODE
 70
     0
  9
$REGENMODE
 70
     1
  9
$FILLMODE
 70
     1
  9
$QTEXTMODE
 70
     0
  9
$MIRRTEXT
 70
     1
  9
$LTSCALE
 40
1.0
  9
$ATTMODE
 70
     1
  9
$TEXTSIZE
 40
0.2
  9
$TRACEWID
 40
0.05
  9
$TEXTSTYLE
  7
Standard
  9
$CLAYER
  8
0
  9
$CELTYPE
  6
Continuous
  9
$CECOLOR
 62
   256
  9
$CELTSCALE
 40
1.0
  9
$DISPSILH
 70
     0
  9
$DIMSCALE
 40
1.0
  9
$DIMASZ
 40
0.18
  9
$DIMEXO
 40
0.0625
  9
$DIMDLI
 40
0.38
  9
$DIMRND
 40
0.0
  9
$DIMDLE
 40
0.0
  9
$DIMEXE
 40
0.18
  9
$DIMTP
 40
0.0
  9
$DIMTM
 40
0.0
  9
$DIMTXT
 40
0.18
  9
$DIMCEN
 40
0.09
  9
$DIMTSZ
 40
0.0
  9
$DIMTOL
 70
     0
  9
$DIMLIM
 70
     0
  9
$DIMTIH
 70
     1
  9
$DIMTOH
 70
     1
  9
$DIMSE1
 70
     0
  9
$DIMSE2
 70
     0
  9
$DIMTAD
 70
     0
  9
$DIMZIN
 70
     0
  9
$DIMBLK
  1

  9
$DIMASO
 70
     1
  9
$DIMSHO
 70
     1
  9
$DIMPOST
  1

  9
$DIMAPOST
  1

  9
$DIMALT
 70
     0
  9
$DIMALTD
 70
     2
  9
$DIMALTF
 40
25.4
  9
$DIMLFAC
 40
1.0
  9
$DIMTOFL
 70
     0
  9
$DIMTVP
 40
0.0
  9
$DIMTIX
 70
     0
  9
$DIMSOXD
 70
     0
  9
$DIMSAH
 70
     0
  9
$DIMBLK1
  1

  9
$DIMBLK2
  1

  9
$DIMSTYLE
  2
Standard
  9
$DIMCLRD
 70
     0
  9
$DIMCLRE
 70
     0
  9
$DIMCLRT
 70
     0
  9
$DIMTFAC
 40
1.0
  9
$DIMGAP
 40
0.09
  9
$DIMJUST
 70
     0
  9
$DIMSD1
 70
     0
  9
$DIMSD2
 70
     0
  9
$DIMTOLJ
 70
     1
  9
$DIMTZIN
 70
     0
  9
$DIMALTZ
 70
     0
  9
$DIMALTTZ
 70
     0
  9
$DIMUPT
 70
     0
  9
$DIMDEC
 70
     4
  9
$DIMTDEC
 70
     4
  9
$DIMALTU
 70
     2
  9
$DIMALTTD
 70
     2
  9
$DIMTXSTY
  7
Standard
  9
$DIMAUNIT
 70
     0
  9
$DIMADEC
 70
     0
  9
$DIMALTRND
 40
0.0
  9
$DIMAZIN
 70
     0
  9
$DIMDSEP
 70
     0
  9
$DIMATFIT
 70
     3
  9
$DIMFRAC
 70
     0
  9
$DIMLDRBLK
  1

  9
$DIMLUNIT
 70
     2
  9
$DIMLWD
 70
     0
  9
$DIMLWE
 70
     0
  9
$DIMTMOVE
 70
     0
  9
$LUNITS
 70
     2
  9
$LUPREC
 70
     4
  9
$SKETCHINC
 40
0.1
  9
$FILLETRAD
 40
0.0
  9
$AUNITS
 70
     0
  9
$AUPREC
 70
     0
  9
$MENU
  1
acad
  9
$ELEVATION
 40
0.0
  9
$PELEVATION
 40
0.0
  9
$THICKNESS
 40
0.0
  9
$LIMCHECK
 70
     0
  9
$CHAMFERA
 40
0.0
  9
$CHAMFERB
 40
0.0
  9
$CHAMFERC
 40
0.0
  9
$CHAMFERD
 40
0.0
  9
$SKPOLY
 70
     0
  9
$TDCREATE
 40
0.000000000
  9
$TDUCREATE
 40
0.000000000
  9
$TDUPDATE
 40
0.000000000
  9
$TDUUPDATE
 40
0.000000000
  9
$TDINDWG
 40
0.0000000000
  9
$TDUSRTIMER
 40
0.0000000000
  9
$USRTIMER
 70
     1
  9
$ANGBASE
 50
0.0
  9
$ANGDIR
 70
     0
  9
$PDMODE
 70
     0
  9
$PDSIZE
 40
0.0
  9
$PLINEWID
 40
0.0
  9
$SPLFRAME
 70
     0
  9
$SPLINETYPE
 70
     6
  9
$SPLINESEGS
 70
     8
  9
$HANDSEED
  5
231
  9
$SURFTAB1
 70
     6
  9
$SURFTAB2
 70
     6
  9
$SURFTYPE
 70
     6
  9
$SURFU
 70
     6
  9
$SURFV
 70
     6
  9
$UCSBASE
  2

  9
$UCSNAME
  2

  9
$UCSORG
 10
0.0
 20
0.0
 30
0.0
  9
$UCSXDIR
 10
1.0
 20
0.0
 30
0.0
  9
$UCSYDIR
 10
0.0
 20
1.0
 30
0.0
  9
$UCSORTHOREF
  2

  9
$UCSORTHOVIEW
 70
     0
  9
$UCSORGTOP
 10
0.0
 20
0.0
 30
0.0
  9
$UCSORGBOTTOM
 10
0.0
 20
0.0
 30
0.0
  9
$UCSORGLEFT
 10
0.0
 20
0.0
 30
0.0
  9
$UCSORGRIGHT
 10
0.0
 20
0.0
 30
0.0
  9
$UCSORGFRONT
 10
0.0
 20
0.0
 30
0.0
  9
$UCSORGBACK
 10
0.0
 20
0.0
 30
0.0
  9
$PUCSBASE
  2

  9
$PUCSNAME
  2

  9
$PUCSORG
 10
0.0
 20
0.0
 30
0.0
  9
$PUCSXDIR
 10
1.0
 20
0.0
 30
0.0
  9
$PUCSYDIR
 10
0.0
 20
1.0
 30
0.0
  9
$PUCSORTHOREF
  2

  9
$PUCSORTHOVIEW
 70
     0
  9
$PUCSORGTOP
 10
0.0
 20
0.0
 30
0.0
  9
$PUCSORGBOTTOM
 10
0.0
 20
0.0
 30
0.0
  9
$PUCSORGLEFT
 10
0.0
 20
0.0
 30
0.0
  9
$PUCSORGRIGHT
 10
0.0
 20
0.0
 30
0.0
  9
$PUCSORGFRONT
 10
0.0
 20
0.0
 30
0.0
  9
$PUCSORGBACK
 10
0.0
 20
0.0
 30
0.0
  9
$USERI1
 70
     0
  9
$USERI2
 70
     0
  9
$USERI3
 70
     0
  9
$USERI4
 70
     0
  9
$USERI5
 70
     0
  9
$USERR1
 40
0.0
  9
$USERR2
 40
0.0
  9
$USERR3
 40
0.0
  9
$USERR4
 40
0.0
  9
$USERR5
 40
0.0
  9
$WORLDVIEW
 70
     1
  9
$SHADEDGE
 70
     3
  9
$SHADEDIF
 70
    70
  9
$TILEMODE
 70
     1
  9
$MAXACTVP
 70
    16
  9
$PINSBASE
 10
0.0
 20
0.0
 30
0.0
  9
$PLIMCHECK
 70
     0
  9
$PEXTMIN
 10
1.000000E+20
 20
1.000000E+20
 30
1.000000E+20
  9
$PEXTMAX
 10
-1.000000E+20
 20
-1.000000E+20
 30
-1.000000E+20
  9
$PLIMMIN
 10
0.0
 20
0.0
  9
$PLIMMAX
 10
12.0
 20
9.0
  9
$UNITMODE
 70
     0
  9
$VISRETAIN
 70
     0
  9
$PLINEGEN
 70
     1
  9
$PSLTSCALE
 70
     0
  9
$TREEDEPTH
 70
  3020
  9
$CMLSTYLE
  2
Standard
  9
$CMLJUST
 70
     0
  9
$CMLSCALE
 40
1.0
  9
$PROXYGRAPHICS
 70
     0
  9
$MEASUREMENT
 70
     1
  9
$CELWEIGHT
370
     0
  9
$ENDCAPS
280
     0
  9
$JOINSTYLE
280
     0
  9
$LWDISPLAY
290
     0
  9
$INSUNITS
 70
     0
  9
$HYPERLINKBASE
  1

  9
$STYLESHEET
  1

  9
$XEDIT
290
     1
  9
$CEPSNTYPE
380
     0
  9
$PSTYLEMODE
290
     1
  9
$FINGERPRINTGUID
  2

  9
$VERSIONGUID
  2

  9
$EXTNAMES
290
     1
  9
$PSVPSCALE
 40
0.0
  0
ENDSEC
  0
SECTION
  2
CLASSES
  0
CLASS
  1
LWPOLYLINE
  2
AcDbPolyline
  3
AutoCAD 2000
 90
    32768
280
     0
281
     1
  0
CLASS
  1
IMAGE
  2
AcDbRasterImage
  3
ISM
 90
    32895
280
     0
281
     1
  0
CLASS
  1
OLE2FRAME
  2
AcDbOle2Frame
  3
AutoCAD 2000
 90
    32768
280
     0
281
     1
  0
CLASS
  1
HATCH
  2
AcDbHatch
  3
AutoCAD 2000
 90
        0
280
     0
281
     1
  0
CLASS
  1
DICTIONARYVAR
  2
AcDbDictionaryVar
  3
AutoCAD 2000
 90
    32768
280
     0
281
     0
  0
CLASS
  1
RASTERVARIABLES
  2
AcDbRasterVariables
  3
ISM
 90
    32768
280
     0
281
     0
  0
CLASS
  1
IMAGEDEF
  2
AcDbRasterImageDef
  3
ISM
 90
    32768
280
     0
281
     0
  0
CLASS
  1
IMAGEDEF_REACTOR
  2
AcDbRasterImageDefReactor
  3
ISM
 90
    32769
280
     0
281
     0
  0
CLASS
  1
IDBUFFER
  2
AcDbIdBuffer
  3
AutoCAD 2000
 90
    32768
280
     0
281
     0
  0
CLASS
  1
SPATIAL_FILTER
  2
AcDbSpatialFilter
  3
AutoCAD 2000
 90
    32768
280
     0
281
     0
  0
CLASS
  1
XRECORD
  2
AcDbXrecord
  3
AutoCAD 2000
 90
    32768
280
     0
281
     0
  0
CLASS
  1
SORTENTSTABLE
  2
AcDbSortentsTable
  3
AutoCAD 2000
 90
    32768
280
     0
281
     0
  0
CLASS
  1
LAYER_INDEX
  2
AcDbLayerIndex
  3
AutoCAD 2000
 90
    32768
280
     0
281
     0
  0
CLASS
  1
SPATIAL_INDEX
  2
AcDbSpatialIndex
  3
AutoCAD 2000
 90
    32768
280
     0
281
     0
  0
CLASS
  1
OBJECT_PTR
  2
CAseDLPNTableRecord
  3
"ASE-LPNTableRecord"
 90
    32769
280
     0
281
     0
  0
CLASS
  1
LAYOUT
  2
AcDbLayout
  3
AutoCAD 2000
 90
        0
280
     0
281
     0
  0
CLASS
  1
PLOTSETTINGS
  2
AcDbPlotSettings
  3
AutoCAD 2000
 90
    32768
280
     0
281
     0
  0
CLASS
  1
ACDBDICTIONARYWDFLT
  2
AcDbDictionaryWithDefault
  3
AutoCAD 2000
 90
        0
280
     0
281
     0
  0
CLASS
  1
ACDBPLACEHOLDER
  2
AcDbPlaceHolder
  3
AutoCAD 2000
 90
        0
280
     0
281
     0
  0
CLASS
  1
VBA_PROJECT
  2
AcDbVbaProject
  3
acadvba
 90
    32768
280
     0
281
     0
  0
CLASS
  1
WIPEOUT
  2
AcDbWipeout
  3
WipeOut|AutoCAD Express Tool|expresstools@autodesk.com
 90
    32895
280
     0
281
     1
  0
CLASS
  1
WIPEOUTVARIABLES
  2
AcDbWipeoutVariables
  3
WipeOut|AutoCAD Express Tool|expresstools@autodesk.com
 90
        0
280
     0
281
     0
  0
CLASS
  1
RTEXT
  2
RText
  3
RText|AutoCAD Express Tool|expresstools@autodesk.com
 90
    32768
280
     0
281
     1
  0
CLASS
  1
ARCALIGNEDTEXT
  2
AcDbArcAlignedText
  3
ATEXT|AutoCAD Express Tool|expresstools@autodesk.com
 90
    32768
280
     0
281
     1
  0
ENDSEC
  0
SECTION
  2
TABLES
  0
TABLE
  2
VPORT
  5
7
100
AcDbSymbolTable
 70
     1
  0
VPORT
  5
15
100
AcDbSymbolTableRecord
100
AcDbViewportTableRecord
  2
*ACTIVE
 70
     0
 10
0.0
 20
0.0
 11
1.0
 21
1.0
 12
6.591288
 22
4.579184
 13
0.0
 23
0.0
 14
1.0
 24
1.0
 15
0.0
 25
0.0
 16
0.0
 26
0.0
 36
1.0
 17
0.0
 27
0.0
 37
0.0
 40
9.158369
 41
0.688564
 42
50.0
 43
0.0
 44
0.0
 50
0.0
 51
0.0
 71
     0
 72
   100
 73
     1
 74
     1
 75
     0
 76
     0
 77
     0
 78
     0
281
     0
 65
     0
110
0.0
120
0.0
130
0.0
111
1.0
121
0.0
131
0.0
112
0.0
122
1.0
132
0.0
345
0
346
0
 79
     0
146
0.0
  0
ENDTAB
  0
TABLE
  2
LTYPE
  5
4
100
AcDbSymbolTable
 70
     5
  0
LTYPE
  5
11
100
AcDbSymbolTableRecord
100
AcDbLinetypeTableRecord
  2
ByBlock
 70
    64
  3

 72
    65
 73
     0
 40
0.0
  0
LTYPE
  5
12
100
AcDbSymbolTableRecord
100
AcDbLinetypeTableRecord
  2
ByLayer
 70
    64
  3

 72
    65
 73
     0
 40
0.0
  0
LTYPE
  5
13
100
AcDbSymbolTableRecord
100
AcDbLinetypeTableRecord
  2
Continuous
 70
    64
  3
Solid line
 72
    65
 73
     0
 40
0.0
  0
LTYPE
  5
8A
100
AcDbSymbolTableRecord
100
AcDbLinetypeTableRecord
  2
AI9-LType1
 70
    64
  3
Illustrator Dash Style No.1
 72
    65
 73
     4
 40
14.816667
 49
8.466667
 74
     0
 49
-2.822222
 74
     0
 49
0.705556
 74
     0
 49
-2.822222
 74
     0
  0
LTYPE
  5
186
100
AcDbSymbolTableRecord
100
AcDbLinetypeTableRecord
  2
AI9-LType2
 70
    64
  3
Illustrator Dash Style No.2
 72
    65
 73
     6
 40
17.638889
 49
8.466667
 74
     0
 49
-2.822222
 74
     0
 49
0.705556
 74
     0
 49
-2.116667
 74
     0
 49
0.705556
 74
     0
 49
-2.822222
 74
     0
  0
ENDTAB
  0
TABLE
  2
LAYER
  5
2
100
AcDbSymbolTable
 70
    14
  0
LAYER
  5
14
100
AcDbSymbolTableRecord
100
AcDbLayerTableRecord
  2
0
 70
     0
 62
     7
  6
Continuous
290
     1
370
    -3
390
1D
  0
LAYER
  5
28
100
AcDbSymbolTableRecord
100
AcDbLayerTableRecord
  2
TEXT
 70
     0
 62
     1
  6
Continuous
290
     1
370
    -3
390
1D
  0
LAYER
  5
30
100
AcDbSymbolTableRecord
100
AcDbLayerTableRecord
  2
AM_0
 70
     0
 62
   160
  6
Continuous
290
     1
370
    -3
390
1D
  0
LAYER
  5
81
100
AcDbSymbolTableRecord
100
AcDbLayerTableRecord
  2
AM_8
 70
     0
 62
     7
  6
Continuous
290
     1
370
    -3
390
1D
  0
LAYER
  5
85
100
AcDbSymbolTableRecord
100
AcDbLayerTableRecord
  2
OBJEKT
 70
     0
 62
   253
  6
Continuous
290
     1
370
    -3
390
1D
  0
LAYER
  5
87
100
AcDbSymbolTableRecord
100
AcDbLayerTableRecord
  2
MITTELLINIE
 70
     0
 62
     4
  6
Continuous
290
     1
370
    -3
390
1D
  0
LAYER
  5
8C
100
AcDbSymbolTableRecord
100
AcDbLayerTableRecord
  2
EBENE_13
 70
     0
 62
   253
  6
Continuous
290
     1
370
    -3
390
1D
  0
LAYER
  5
D1
100
AcDbSymbolTableRecord
100
AcDbLayerTableRecord
  2
SCHRAFUR01
 70
     0
 62
     4
  6
Continuous
290
     1
370
    -3
390
1D
  0
LAYER
  5
129
100
AcDbSymbolTableRecord
100
AcDbLayerTableRecord
  2
SCHRAFFUR
 70
     0
 62
     6
  6
Continuous
290
     1
370
    -3
390
1D
  0
LAYER
  5
180
100
AcDbSymbolTableRecord
100
AcDbLayerTableRecord
  2
EBENE_1
 70
     0
 62
     2
  6
Continuous
290
     1
370
    -3
390
1D
  0
LAYER
  5
185
100
AcDbSymbolTableRecord
100
AcDbLayerTableRecord
  2
GETRENNT
 70
     0
 62
     5
  6
Continuous
290
     1
370
    -3
390
1D
  0
LAYER
  5
189
100
AcDbSymbolTableRecord
100
AcDbLayerTableRecord
  2
RAHMEN
 70
     0
 62
     3
  6
Continuous
290
     1
370
    -3
390
1D
  0
LAYER
  5
197
100
AcDbSymbolTableRecord
100
AcDbLayerTableRecord
  2
SCHRAUBEN
 70
     0
 62
     1
  6
Continuous
290
     1
370
    -3
390
1D
  0
LAYER
  5
1B0
100
AcDbSymbolTableRecord
100
AcDbLayerTableRecord
  2
ROHR
 70
     0
 62
   160
  6
Continuous
290
     1
370
    -3
390
1D
  0
ENDTAB
  0
TABLE
  2
STYLE
  5
3
100
AcDbSymbolTable
 70
     5
  0
STYLE
  5
17
100
AcDbSymbolTableRecord
100
AcDbTextStyleTableRecord
  2
Standard
 70
     0
 40
0.0
 41
1.0
 50
0.0
 71
     0
 42
0.0
  3
txt
  4

  0
STYLE
  5
24
100
AcDbSymbolTableRecord
100
AcDbTextStyleTableRecord
  2
STD
 70
     0
 40
0.0
 41
1.0
 50
0.0
 71
     0
 42
0.0
  3
txt
  4

  0
STYLE
  5
25
100
AcDbSymbolTableRecord
100
AcDbTextStyleTableRecord
  2
TATESTD
 70
     4
 40
0.0
 41
1.0
 50
0.0
 71
     0
 42
0.0
  3
txt
  4

  0
STYLE
  5
26
100
AcDbSymbolTableRecord
100
AcDbTextStyleTableRecord
  2
KANJISTD
 70
     0
 40
0.0
 41
1.0
 50
0.0
 71
     0
 42
0.0
  3
txt
  4
extfont
  0
STYLE
  5
27
100
AcDbSymbolTableRecord
100
AcDbTextStyleTableRecord
  2
KANJITATE
 70
     4
 40
0.0
 41
1.0
 50
0.0
 71
     0
 42
0.0
  3
txt
  4
extfont
  0
ENDTAB
  0
TABLE
  2
VIEW
  5
5
100
AcDbSymbolTable
 70
     0
  0
ENDTAB
  0
TABLE
  2
UCS
  5
6
100
AcDbSymbolTable
 70
     0
  0
ENDTAB
  0
TABLE
  2
APPID
  5
8
100
AcDbSymbolTable
 70
     1
  0
APPID
  5
16
100
AcDbSymbolTableRecord
100
AcDbRegAppTableRecord
  2
ACAD
 70
     0
  0
ENDTAB
  0
TABLE
  2
DIMSTYLE
  5
9
100
AcDbSymbolTable
 70
     1
100
AcDbDimStyleTable
 71
     0
  0
DIMSTYLE
105
18
100
AcDbSymbolTableRecord
100
AcDbDimStyleTableRecord
  2
Standard
 70
     0
  3

  4

 40
1.0
 41
0.18
 42
0.0625
 43
0.38
 44
0.18
 45
0.0
 46
0.0
 47
0.0
 48
0.0
 71
     0
 72
     0
 73
     1
 74
     1
 75
     0
 76
     0
 77
     0
 78
     0
 79
     0
140
0.18
141
0.09
142
0.0
143
25.4
144
1.0
145
0.0
146
1.0
147
0.09
148
0.0
170
     0
171
     2
172
     0
173
     0
174
     0
175
     0
176
     0
177
     0
178
     0
179
     0
271
     4
272
     4
273
     2
274
     2
275
     0
276
     0
277
     2
278
    46
279
     0
280
     0
281
     0
282
     0
283
     1
284
     0
285
     0
286
     0
288
     0
340
17
341
0
342
0
343
0
344
0
371
    -2
372
    -2
  0
ENDTAB
  0
TABLE
  2
BLOCK_RECORD
  5
1
100
AcDbSymbolTable
 70
     5
  0
BLOCK_RECORD
  5
A
100
AcDbSymbolTableRecord
100
AcDbBlockTableRecord
  2
*MODEL_SPACE
340
20
  0
BLOCK_RECORD
  5
B
100
AcDbSymbolTableRecord
100
AcDbBlockTableRecord
  2
*PAPER_SPACE
340
21
  0
BLOCK_RECORD
  5
29
100
AcDbSymbolTableRecord
100
AcDbBlockTableRecord
  2
AI9-BLK1
340
0
102
{BLKREFS
331
2A
102
}
  0
BLOCK_RECORD
  5
51
100
AcDbSymbolTableRecord
100
AcDbBlockTableRecord
  2
AI9-BLK2
340
0
102
{BLKREFS
331
52
102
}
  0
BLOCK_RECORD
  5
56
100
AcDbSymbolTableRecord
100
AcDbBlockTableRecord
  2
AI9-BLK3
340
0
102
{BLKREFS
331
57
102
}
  0
BLOCK_RECORD
  5
1B1
100
AcDbSymbolTableRecord
100
AcDbBlockTableRecord
  2
AI9-BLK4
340
0
102
{BLKREFS
331
1B2
102
}
  0
BLOCK_RECORD
  5
1F0
100
AcDbSymbolTableRecord
100
AcDbBlockTableRecord
  2
AI9-BLK5
340
0
102
{BLKREFS
331
1F1
102
}
  0
ENDTAB
  0
ENDSEC
  0
SECTION
  2
BLOCKS
  0
BLOCK
  5
D
100
AcDbEntity
  8
0
100
AcDbBlockBegin
  2
*MODEL_SPACE
 70
     0
 10
0.0
 20
0.0
 30
0.0
  3
*MODEL_SPACE
  1

  0
ENDBLK
  5
E
100
AcDbEntity
  8
0
100
AcDbBlockEnd
  0
BLOCK
  5
F
100
AcDbEntity
 67
     1
  8
0
100
AcDbBlockBegin
  2
*PAPER_SPACE
 70
     0
 10
0.0
 20
0.0
 30
0.0
  3
*PAPER_SPACE
  1

  0
ENDBLK
  5
10
100
AcDbEntity
 67
     1
  8
0
100
AcDbBlockEnd
  0
BLOCK
  5
2B
100
AcDbEntity
  8
TEXT
 62
     7
100
AcDbBlockBegin
  2
AI9-BLK1
 70
     0
 10
0.0
 20
0.0
 30
0.0
  3
AI9-BLK1
  1

  0
MTEXT
  5
2E
100
AcDbEntity
  8
TEXT
 62
     7
100
AcDbMText
 10
-16.35249
 20
-3.617437
 30
0.0
 40
5.512152
 41
0.0
 71
     1
 72
     2
  1
\fArial|b0|i0;\H5.5122;\C7;\U+0032\U+0030
  7
STD
210
0.0
220
0.0
230
1.0
 73
     1
 44
1.0
  0
MTEXT
  5
2D
100
AcDbEntity
  8
TEXT
 62
     7
100
AcDbMText
 10
-16.35249
 20
3.790897
 30
0.0
 40
5.512152
 41
0.0
 71
     1
 72
     2
  1
\fArial|b0|i0;\H5.5122;\C7;\U+0053\U+0074\U+0061\U+006E\U+0064\U+0061\U+0072\U+0064\U+0020
  7
STD
210
0.0
220
0.0
230
1.0
 73
     1
 44
1.0
  0
MTEXT
  5
2C
100
AcDbEntity
  8
TEXT
 62
     7
100
AcDbMText
 10
-16.35249
 20
11.19923
 30
0.0
 40
5.512152
 41
0.0
 71
     1
 72
     2
  1
\fArial|b0|i0;\H5.5122;\C7;\U+0046\U+0048\U+0052\U+004B\U+002D
  7
STD
210
0.0
220
0.0
230
1.0
 73
     1
 44
1.0
  0
ENDBLK
  5
2F
100
AcDbEntity
  8
TEXT
100
AcDbBlockEnd
  0
BLOCK
  5
53
100
AcDbEntity
  8
AM_0
 62
     7
100
AcDbBlockBegin
  2
AI9-BLK2
 70
     0
 10
0.0
 20
0.0
 30
0.0
  3
AI9-BLK2
  1

  0
MTEXT
  5
54
100
AcDbEntity
  8
AM_0
 62
     7
100
AcDbMText
 10
-34.222028
 20
5.442045
 30
0.0
 40
5.512152
 41
0.0
 71
     1
 72
     2
  1
\fArial|b0|i0;\H5.5122;\C7;\U+0046\U+0075\U+0074\U+0074\U+0065\U+0072\U+0072\U+006F\U+0068\U+0072
  7
STD
210
0.0
220
0.0
230
1.0
 73
     1
 44
1.0
  0
ENDBLK
  5
55
100
AcDbEntity
  8
AM_0
100
AcDbBlockEnd
  0
BLOCK
  5
58
100
AcDbEntity
  8
AM_0
 62
     7
100
AcDbBlockBegin
  2
AI9-BLK3
 70
     0
 10
0.0
 20
0.0
 30
0.0
  3
AI9-BLK3
  1

  0
MTEXT
  5
5A
100
AcDbEntity
  8
AM_0
 62
     7
100
AcDbMText
 10
-26.698112
 20
2.254212
 30
0.0
 40
5.512152
 41
0.0
 71
     1
 72
     2
  1
\fArial|b0|i0;\H5.5122;\C7;\U+0045\U+006C\U+0065\U+006D\U+0065\U+006E\U+0074\U+0077\U+0061\U+006E\U+0064
  7
STD
210
0.0
220
0.0
230
1.0
 73
     1
 44
1.0
  0
MTEXT
  5
59
100
AcDbEntity
  8
AM_0
 62
     7
100
AcDbMText
 10
-26.698112
 20
9.662545
 30
0.0
 40
5.512152
 41
0.0
 71
     1
 72
     2
  1
\fArial|b0|i0;\H5.5122;\C7;\U+0044\U+006F\U+0070\U+0070\U+0065\U+006C\U+002F\U+002D
  7
STD
210
0.0
220
0.0
230
1.0
 73
     1
 44
1.0
  0
ENDBLK
  5
5B
100
AcDbEntity
  8
AM_0
100
AcDbBlockEnd
  0
BLOCK
  5
1B3
100
AcDbEntity
  8
ROHR
 62
     7
100
AcDbBlockBegin
  2
AI9-BLK4
 70
     0
 10
0.0
 20
0.0
 30
0.0
  3
AI9-BLK4
  1

  0
LINE
  5
1EE
100
AcDbEntity
  8
ROHR
 62
     7
100
AcDbLine
 10
0.667487
 20
-4.969722
 30
0.0
 11
1.224559
 21
-4.412995
 31
0.0
  0
LINE
  5
1ED
100
AcDbEntity
  8
ROHR
 62
     7
100
AcDbLine
 10
0.256143
 20
-7.52495
 30
0.0
 11
0.433221
 21
-7.347527
 31
0.0
  0
LINE
  5
1EC
100
AcDbEntity
  8
ROHR
 62
     7
100
AcDbLine
 10
-0.199988
 20
-7.445368
 30
0.0
 11
-0.13522
 21
-7.3806
 31
0.0
  0
LINE
  5
1EB
100
AcDbEntity
  8
ROHR
 62
     7
100
AcDbLine
 10
-0.083888
 20
-7.864636
 30
0.0
 11
-0.04737
 21
-7.828463
 31
0.0
  0
LINE
  5
1EA
100
AcDbEntity
  8
ROHR
 62
     7
100
AcDbLine
 10
0.482486
 20
-6.226493
 30
0.0
 11
0.872126
 21
-5.836853
 31
0.0
  0
LINE
  5
1E9
100
AcDbEntity
  8
ROHR
 62
     7
100
AcDbLine
 10
0.374654
 20
-6.870382
 30
0.0
 11
0.664387
 21
-6.57996
 31
0.0
  0
LINE
  5
1E8
100
AcDbEntity
  8
ROHR
 62
     7
100
AcDbLine
 10
-0.314365
 20
-7.023688
 30
0.0
 11
-0.21928
 21
-6.928604
 31
0.0
  0
LINE
  5
1E7
100
AcDbEntity
  8
ROHR
 62
     7
100
AcDbLine
 10
-0.537607
 20
-6.175161
 30
0.0
 11
-0.376721
 21
-6.014275
 31
0.0
  0
LINE
  5
1E6
100
AcDbEntity
  8
ROHR
 62
     7
100
AcDbLine
 10
-0.646128
 20
-5.747797
 30
0.0
 11
-0.450102
 21
-5.551771
 31
0.0
  0
LINE
  5
1E5
100
AcDbEntity
  8
ROHR
 62
     7
100
AcDbLine
 10
-0.75327
 20
-5.318711
 30
0.0
 11
-0.519348
 21
-5.085133
 31
0.0
  0
LINE
  5
1E4
100
AcDbEntity
  8
ROHR
 62
     7
100
AcDbLine
 10
-0.42702
 20
-6.600286
 30
0.0
 11
-0.299896
 21
-6.473162
 31
0.0
  0
LINE
  5
1E3
100
AcDbEntity
  8
ROHR
 62
     7
100
AcDbLine
 10
0.580326
 20
-5.593285
 30
0.0
 11
1.057817
 21
-5.115278
 31
0.0
  0
LINE
  5
1E2
100
AcDbEntity
  8
ROHR
 62
     7
100
AcDbLine
 10
-0.857657
 20
-4.887901
 30
0.0
 11
-0.584805
 21
-4.614705
 31
0.0
  0
LINE
  5
1E1
100
AcDbEntity
  8
ROHR
 62
     7
100
AcDbLine
 10
-0.96032
 20
-4.455025
 30
0.0
 11
-0.646128
 21
-4.14066
 31
0.0
  0
LINE
  5
1E0
100
AcDbEntity
  8
ROHR
 62
     7
100
AcDbLine
 10
-1.061262
 20
-4.019737
 30
0.0
 11
-0.703661
 21
-3.662309
 31
0.0
  0
LINE
  5
1DF
100
AcDbEntity
  8
ROHR
 62
     7
100
AcDbLine
 10
-1.160136
 20
-3.582727
 30
0.0
 11
-0.75706
 21
-3.179651
 31
0.0
  0
LINE
  5
1DE
100
AcDbEntity
  8
ROHR
 62
     7
100
AcDbLine
 10
-1.257288
 20
-3.143822
 30
0.0
 11
-0.806669
 21
-2.693031
 31
0.0
  0
LINE
  5
1DD
100
AcDbEntity
  8
ROHR
 62
     7
100
AcDbLine
 10
-2.075842
 20
6.218053
 30
0.0
 11
-0.479385
 21
7.814166
 31
0.0
  0
LINE
  5
1DC
100
AcDbEntity
  8
ROHR
 62
     7
100
AcDbLine
 10
-2.13372
 20
5.623946
 30
0.0
 11
0.106281
 21
7.864636
 31
0.0
  0
LINE
  5
1DB
100
AcDbEntity
  8
ROHR
 62
     7
100
AcDbLine
 10
-2.151634
 20
5.070319
 30
0.0
 11
0.566546
 21
7.788327
 31
0.0
  0
LINE
  5
1DA
100
AcDbEntity
  8
ROHR
 62
     7
100
AcDbLine
 10
-2.159558
 20
4.526855
 30
0.0
 11
-0.916223
 21
5.770018
 31
0.0
  0
LINE
  5
1D9
100
AcDbEntity
  8
ROHR
 62
     7
100
AcDbLine
 10
-2.157491
 20
3.992866
 30
0.0
 11
-0.952052
 21
5.198821
 31
0.0
  0
LINE
  5
1D8
100
AcDbEntity
  8
ROHR
 62
     7
100
AcDbLine
 10
-1.781976
 20
-0.453719
 30
0.0
 11
-1.005796
 21
0.321944
 31
0.0
  0
LINE
  5
1D7
100
AcDbEntity
  8
ROHR
 62
     7
100
AcDbLine
 10
-1.351683
 20
-2.703194
 30
0.0
 11
-0.850766
 21
-2.201933
 31
0.0
  0
LINE
  5
1D6
100
AcDbEntity
  8
ROHR
 62
     7
100
AcDbLine
 10
-1.444701
 20
-2.259983
 30
0.0
 11
-0.891074
 21
-1.7067
 31
0.0
  0
LINE
  5
1D5
100
AcDbEntity
  8
ROHR
 62
     7
100
AcDbLine
 10
-1.705839
 20
-0.913639
 30
0.0
 11
-0.984436
 21
-0.192581
 31
0.0
  0
LINE
  5
1D4
100
AcDbEntity
  8
ROHR
 62
     7
100
AcDbLine
 10
-1.623157
 20
-1.366842
 30
0.0
 11
-0.958253
 21
-0.701766
 31
0.0
  0
LINE
  5
1D3
100
AcDbEntity
  8
ROHR
 62
     7
100
AcDbLine
 10
-1.534273
 20
-1.821594
 30
0.0
 11
-0.926214
 21
-1.214568
 31
0.0
  0
LINE
  5
1D2
100
AcDbEntity
  8
ROHR
 62
     7
100
AcDbLine
 10
-2.065162
 20
1.942173
 30
0.0
 11
-1.03439
 21
2.972773
 31
0.0
  0
LINE
  5
1D1
100
AcDbEntity
  8
ROHR
 62
     7
100
AcDbLine
 10
-2.022443
 20
1.449179
 30
0.0
 11
-1.039558
 21
2.431548
 31
0.0
  0
LINE
  5
1D0
100
AcDbEntity
  8
ROHR
 62
     7
100
AcDbLine
 10
-1.972145
 20
0.963249
 30
0.0
 11
-1.039558
 21
1.896008
 31
0.0
  0
LINE
  5
1CF
100
AcDbEntity
  8
ROHR
 62
     7
100
AcDbLine
 10
-1.915301
 20
0.484208
 30
0.0
 11
-1.034045
 21
1.366153
 31
0.0
  0
LINE
  5
1CE
100
AcDbEntity
  8
ROHR
 62
     7
100
AcDbLine
 10
-1.851911
 20
0.012058
 30
0.0
 11
-1.022677
 21
0.841465
 31
0.0
  0
LINE
  5
1CD
100
AcDbEntity
  8
ROHR
 62
     7
100
AcDbLine
 10
-2.146811
 20
3.467661
 30
0.0
 11
-0.982024
 21
4.63262
 31
0.0
  0
LINE
  5
1CC
100
AcDbEntity
  8
ROHR
 62
     7
100
AcDbLine
 10
-2.127519
 20
2.951241
 30
0.0
 11
-1.005451
 21
4.073309
 31
0.0
  0
LINE
  5
1CB
100
AcDbEntity
  8
ROHR
 62
     7
100
AcDbLine
 10
-2.100302
 20
2.442745
 30
0.0
 11
-1.023021
 21
3.520026
 31
0.0
  0
LINE
  5
1CA
100
AcDbEntity
  8
ROHR
 62
     7
100
AcDbLine
 10
0.999594
 20
4.470528
 30
0.0
 11
2.12304
 21
5.594835
 31
0.0
  0
LINE
  5
1C9
100
AcDbEntity
  8
ROHR
 62
     7
100
AcDbLine
 10
1.028189
 20
3.963927
 30
0.0
 11
2.142333
 21
5.078071
 31
0.0
  0
LINE
  5
1C8
100
AcDbEntity
  8
ROHR
 62
     7
100
AcDbLine
 10
1.040591
 20
-0.846632
 30
0.0
 11
1.96181
 21
0.074586
 31
0.0
  0
LINE
  5
1C7
100
AcDbEntity
  8
ROHR
 62
     7
100
AcDbLine
 10
1.063673
 20
-0.287493
 30
0.0
 11
2.018309
 21
0.666626
 31
0.0
  0
LINE
  5
1C6
100
AcDbEntity
  8
ROHR
 62
     7
100
AcDbLine
 10
0.875571
 20
-3.154502
 30
0.0
 11
1.622812
 21
-2.407605
 31
0.0
  0
LINE
  5
1C5
100
AcDbEntity
  8
ROHR
 62
     7
100
AcDbLine
 10
0.928281
 20
-2.566079
 30
0.0
 11
1.726165
 21
-1.768195
 31
0.0
  0
LINE
  5
1C4
100
AcDbEntity
  8
ROHR
 62
     7
100
AcDbLine
 10
0.746035
 20
-4.355806
 30
0.0
 11
1.373732
 21
-3.728627
 31
0.0
  0
LINE
  5
1C3
100
AcDbEntity
  8
ROHR
 62
     7
100
AcDbLine
 10
0.815282
 20
-3.75102
 30
0.0
 11
1.505334
 21
-3.060623
 31
0.0
  0
LINE
  5
1C2
100
AcDbEntity
  8
ROHR
 62
     7
100
AcDbLine
 10
1.010274
 20
-1.412317
 30
0.0
 11
1.89463
 21
-0.527961
 31
0.0
  0
LINE
  5
1C1
100
AcDbEntity
  8
ROHR
 62
     7
100
AcDbLine
 10
0.973412
 20
-1.985409
 30
0.0
 11
1.816082
 21
-1.142221
 31
0.0
  0
LINE
  5
1C0
100
AcDbEntity
  8
ROHR
 62
     7
100
AcDbLine
 10
1.091923
 20
1.884639
 30
0.0
 11
2.146811
 21
2.938666
 31
0.0
  0
LINE
  5
1BF
100
AcDbEntity
  8
ROHR
 62
     7
100
AcDbLine
 10
1.094335
 20
1.350822
 30
0.0
 11
2.127863
 21
2.384178
 31
0.0
  0
LINE
  5
1BE
100
AcDbEntity
  8
ROHR
 62
     7
100
AcDbLine
 10
1.090545
 20
0.810975
 30
0.0
 11
2.100302
 21
1.820905
 31
0.0
  0
LINE
  5
1BD
100
AcDbEntity
  8
ROHR
 62
     7
100
AcDbLine
 10
1.08021
 20
0.2651
 30
0.0
 11
2.064129
 21
1.248675
 31
0.0
  0
LINE
  5
1BC
100
AcDbEntity
  8
ROHR
 62
     7
100
AcDbLine
 10
1.052304
 20
3.45233
 30
0.0
 11
2.154735
 21
4.554244
 31
0.0
  0
LINE
  5
1BB
100
AcDbEntity
  8
ROHR
 62
     7
100
AcDbLine
 10
1.071252
 20
2.935049
 30
0.0
 11
2.159558
 21
4.023699
 31
0.0
  0
LINE
  5
1BA
100
AcDbEntity
  8
ROHR
 62
     7
100
AcDbLine
 10
1.084688
 20
2.4126
 30
0.0
 11
2.156802
 21
3.484886
 31
0.0
  0
LINE
  5
1B9
100
AcDbEntity
  8
ROHR
 62
     7
100
AcDbLine
 10
0.925869
 20
5.469089
 30
0.0
 11
1.970767
 21
6.513642
 31
0.0
  0
LINE
  5
1B8
100
AcDbEntity
  8
ROHR
 62
     7
100
AcDbLine
 10
0.965488
 20
4.972306
 30
0.0
 11
2.085489
 21
6.092996
 31
0.0
  0
LINE
  5
1B7
100
AcDbEntity
  8
ROHR
 62
     7
100
AcDbLine
 10
-0.031523
 20
6.654891
 30
0.0
 11
0.952052
 21
7.638293
 31
0.0
  0
LINE
  5
1B6
100
AcDbEntity
  8
ROHR
 62
     7
100
AcDbLine
 10
0.405315
 20
6.556017
 30
0.0
 11
1.280714
 21
7.431588
 31
0.0
  0
LINE
  5
1B5
100
AcDbEntity
  8
ROHR
 62
     7
100
AcDbLine
 10
0.700905
 20
6.315721
 30
0.0
 11
1.560456
 21
7.175273
 31
0.0
  0
LINE
  5
1B4
100
AcDbEntity
  8
ROHR
 62
     7
100
AcDbLine
 10
0.877294
 20
5.956398
 30
0.0
 11
1.791966
 21
6.870554
 31
0.0
  0
ENDBLK
  5
1EF
100
AcDbEntity
  8
ROHR
100
AcDbBlockEnd
  0
BLOCK
  5
1F2
100
AcDbEntity
  8
ROHR
 62
     7
100
AcDbBlockBegin
  2
AI9-BLK5
 70
     0
 10
0.0
 20
0.0
 30
0.0
  3
AI9-BLK5
  1

  0
LINE
  5
22F
100
AcDbEntity
  8
ROHR
 62
     7
100
AcDbLine
 10
-0.482658
 20
6.017462
 30
0.0
 11
-0.872126
 21
5.627822
 31
0.0
  0
LINE
  5
22E
100
AcDbEntity
  8
ROHR
 62
     7
100
AcDbLine
 10
2.147156
 20
-3.677037
 30
0.0
 11
0.981852
 21
-4.841823
 31
0.0
  0
LINE
  5
22D
100
AcDbEntity
  8
ROHR
 62
     7
100
AcDbLine
 10
2.127863
 20
-3.160272
 30
0.0
 11
1.005623
 21
-4.28234
 31
0.0
  0
LINE
  5
22C
100
AcDbEntity
  8
ROHR
 62
     7
100
AcDbLine
 10
-1.052304
 20
-3.661534
 30
0.0
 11
-2.15439
 21
-4.763275
 31
0.0
  0
LINE
  5
22B
100
AcDbEntity
  8
ROHR
 62
     7
100
AcDbLine
 10
-1.07108
 20
-3.144425
 30
0.0
 11
-2.159386
 21
-4.232386
 31
0.0
  0
LINE
  5
22A
100
AcDbEntity
  8
ROHR
 62
     7
100
AcDbLine
 10
2.133892
 20
-5.832977
 30
0.0
 11
-0.106281
 21
-8.073323
 31
0.0
  0
LINE
  5
229
100
AcDbEntity
  8
ROHR
 62
     7
100
AcDbLine
 10
2.151634
 20
-5.27935
 30
0.0
 11
-0.566201
 21
-7.997531
 31
0.0
  0
LINE
  5
228
100
AcDbEntity
  8
ROHR
 62
     7
100
AcDbLine
 10
-0.877121
 20
-6.165774
 30
0.0
 11
-1.791794
 21
-7.079757
 31
0.0
  0
LINE
  5
227
100
AcDbEntity
  8
ROHR
 62
     7
100
AcDbLine
 10
-0.926042
 20
-5.678293
 30
0.0
 11
-1.970595
 21
-6.722845
 31
0.0
  0
LINE
  5
226
100
AcDbEntity
  8
ROHR
 62
     7
100
AcDbLine
 10
-0.701249
 20
-6.525097
 30
0.0
 11
-1.560801
 21
-7.384648
 31
0.0
  0
LINE
  5
225
100
AcDbEntity
  8
ROHR
 62
     7
100
AcDbLine
 10
-0.40566
 20
-6.76522
 30
0.0
 11
-1.281059
 21
-7.640619
 31
0.0
  0
LINE
  5
224
100
AcDbEntity
  8
ROHR
 62
     7
100
AcDbLine
 10
0.03135
 20
-6.86375
 30
0.0
 11
-0.952052
 21
-7.847669
 31
0.0
  0
LINE
  5
223
100
AcDbEntity
  8
ROHR
 62
     7
100
AcDbLine
 10
-0.99925
 20
-4.679904
 30
0.0
 11
-2.123212
 21
-5.804383
 31
0.0
  0
LINE
  5
222
100
AcDbEntity
  8
ROHR
 62
     7
100
AcDbLine
 10
-0.965144
 20
-5.181165
 30
0.0
 11
-2.086005
 21
-6.302199
 31
0.0
  0
LINE
  5
221
100
AcDbEntity
  8
ROHR
 62
     7
100
AcDbLine
 10
-1.028361
 20
-4.17313
 30
0.0
 11
-2.142333
 21
-5.28693
 31
0.0
  0
LINE
  5
220
100
AcDbEntity
  8
ROHR
 62
     7
100
AcDbLine
 10
2.075842
 20
-6.427256
 30
0.0
 11
0.47973
 21
-8.023369
 31
0.0
  0
LINE
  5
21F
100
AcDbEntity
  8
ROHR
 62
     7
100
AcDbLine
 10
2.157663
 20
-4.202414
 30
0.0
 11
0.951708
 21
-5.407853
 31
0.0
  0
LINE
  5
21E
100
AcDbEntity
  8
ROHR
 62
     7
100
AcDbLine
 10
2.159386
 20
-4.736059
 30
0.0
 11
0.916223
 21
-5.979394
 31
0.0
  0
LINE
  5
21D
100
AcDbEntity
  8
ROHR
 62
     7
100
AcDbLine
 10
-1.010102
 20
1.203286
 30
0.0
 11
-1.89463
 21
0.318585
 31
0.0
  0
LINE
  5
21C
100
AcDbEntity
  8
ROHR
 62
     7
100
AcDbLine
 10
-1.090373
 20
-1.020179
 30
0.0
 11
-2.100302
 21
-2.030281
 31
0.0
  0
LINE
  5
21B
100
AcDbEntity
  8
ROHR
 62
     7
100
AcDbLine
 10
-1.084688
 20
-2.622148
 30
0.0
 11
-2.156802
 21
-3.694262
 31
0.0
  0
LINE
  5
21A
100
AcDbEntity
  8
ROHR
 62
     7
100
AcDbLine
 10
-1.09244
 20
-2.093671
 30
0.0
 11
-2.146467
 21
-3.14787
 31
0.0
  0
LINE
  5
219
100
AcDbEntity
  8
ROHR
 62
     7
100
AcDbLine
 10
-1.094335
 20
-1.56037
 30
0.0
 11
-2.127691
 21
-2.593554
 31
0.0
  0
LINE
  5
218
100
AcDbEntity
  8
ROHR
 62
     7
100
AcDbLine
 10
-1.040247
 20
0.637257
 30
0.0
 11
-1.961637
 21
-0.283962
 31
0.0
  0
LINE
  5
217
100
AcDbEntity
  8
ROHR
 62
     7
100
AcDbLine
 10
-1.063501
 20
0.078118
 30
0.0
 11
-2.017792
 21
-0.875829
 31
0.0
  0
LINE
  5
216
100
AcDbEntity
  8
ROHR
 62
     7
100
AcDbLine
 10
-1.080037
 20
-0.474476
 30
0.0
 11
-2.063957
 21
-1.458051
 31
0.0
  0
LINE
  5
215
100
AcDbEntity
  8
ROHR
 62
     7
100
AcDbLine
 10
-0.814937
 20
3.541817
 30
0.0
 11
-1.505334
 21
2.851764
 31
0.0
  0
LINE
  5
214
100
AcDbEntity
  8
ROHR
 62
     7
100
AcDbLine
 10
-0.875399
 20
2.945126
 30
0.0
 11
-1.622812
 21
2.198229
 31
0.0
  0
LINE
  5
213
100
AcDbEntity
  8
ROHR
 62
     7
100
AcDbLine
 10
-0.928109
 20
2.357048
 30
0.0
 11
-1.725821
 21
1.55882
 31
0.0
  0
LINE
  5
212
100
AcDbEntity
  8
ROHR
 62
     7
100
AcDbLine
 10
-0.973067
 20
1.77655
 30
0.0
 11
-1.816254
 21
0.932846
 31
0.0
  0
LINE
  5
211
100
AcDbEntity
  8
ROHR
 62
     7
100
AcDbLine
 10
-0.745691
 20
4.146775
 30
0.0
 11
-1.373215
 21
3.519423
 31
0.0
  0
LINE
  5
210
100
AcDbEntity
  8
ROHR
 62
     7
100
AcDbLine
 10
-0.580326
 20
5.384254
 30
0.0
 11
-1.058333
 21
4.906074
 31
0.0
  0
LINE
  5
20F
100
AcDbEntity
  8
ROHR
 62
     7
100
AcDbLine
 10
-0.667832
 20
4.761036
 30
0.0
 11
-1.224559
 21
4.203619
 31
0.0
  0
LINE
  5
20E
100
AcDbEntity
  8
ROHR
 62
     7
100
AcDbLine
 10
1.623674
 20
1.158155
 30
0.0
 11
0.958253
 21
0.492563
 31
0.0
  0
LINE
  5
20D
100
AcDbEntity
  8
ROHR
 62
     7
100
AcDbLine
 10
1.972489
 20
-1.172452
 30
0.0
 11
1.039558
 21
-2.105039
 31
0.0
  0
LINE
  5
20C
100
AcDbEntity
  8
ROHR
 62
     7
100
AcDbLine
 10
1.915645
 20
-0.693239
 30
0.0
 11
1.033873
 21
-1.575184
 31
0.0
  0
LINE
  5
20B
100
AcDbEntity
  8
ROHR
 62
     7
100
AcDbLine
 10
2.100302
 20
-2.652121
 30
0.0
 11
1.023193
 21
-3.729402
 31
0.0
  0
LINE
  5
20A
100
AcDbEntity
  8
ROHR
 62
     7
100
AcDbLine
 10
2.065162
 20
-2.151548
 30
0.0
 11
1.034562
 21
-3.181976
 31
0.0
  0
LINE
  5
209
100
AcDbEntity
  8
ROHR
 62
     7
100
AcDbLine
 10
2.022443
 20
-1.658555
 30
0.0
 11
1.03973
 21
-2.640752
 31
0.0
  0
LINE
  5
208
100
AcDbEntity
  8
ROHR
 62
     7
100
AcDbLine
 10
1.851911
 20
-0.221261
 30
0.0
 11
1.022504
 21
-1.05084
 31
0.0
  0
LINE
  5
207
100
AcDbEntity
  8
ROHR
 62
     7
100
AcDbLine
 10
1.781976
 20
0.24486
 30
0.0
 11
1.00614
 21
-0.53132
 31
0.0
  0
LINE
  5
206
100
AcDbEntity
  8
ROHR
 62
     7
100
AcDbLine
 10
1.705839
 20
0.704091
 30
0.0
 11
0.984608
 21
-0.016623
 31
0.0
  0
LINE
  5
205
100
AcDbEntity
  8
ROHR
 62
     7
100
AcDbLine
 10
1.160308
 20
3.373696
 30
0.0
 11
0.75706
 21
2.970275
 31
0.0
  0
LINE
  5
204
100
AcDbEntity
  8
ROHR
 62
     7
100
AcDbLine
 10
1.533757
 20
1.612563
 30
0.0
 11
0.926731
 21
1.005193
 31
0.0
  0
LINE
  5
203
100
AcDbEntity
  8
ROHR
 62
     7
100
AcDbLine
 10
1.257288
 20
2.934446
 30
0.0
 11
0.806152
 21
2.483483
 31
0.0
  0
LINE
  5
202
100
AcDbEntity
  8
ROHR
 62
     7
100
AcDbLine
 10
1.351855
 20
2.493818
 30
0.0
 11
0.851111
 21
1.992557
 31
0.0
  0
LINE
  5
201
100
AcDbEntity
  8
ROHR
 62
     7
100
AcDbLine
 10
1.444873
 20
2.050435
 30
0.0
 11
0.891418
 21
1.497497
 31
0.0
  0
LINE
  5
200
100
AcDbEntity
  8
ROHR
 62
     7
100
AcDbLine
 10
1.061434
 20
3.810878
 30
0.0
 11
0.703833
 21
3.452933
 31
0.0
  0
LINE
  5
1FF
100
AcDbEntity
  8
ROHR
 62
     7
100
AcDbLine
 10
0.6463
 20
5.538766
 30
0.0
 11
0.449757
 21
5.342568
 31
0.0
  0
LINE
  5
1FE
100
AcDbEntity
  8
ROHR
 62
     7
100
AcDbLine
 10
0.753098
 20
5.109679
 30
0.0
 11
0.519176
 21
4.876102
 31
0.0
  0
LINE
  5
1FD
100
AcDbEntity
  8
ROHR
 62
     7
100
AcDbLine
 10
0.857657
 20
4.678526
 30
0.0
 11
0.584805
 21
4.405846
 31
0.0
  0
LINE
  5
1FC
100
AcDbEntity
  8
ROHR
 62
     7
100
AcDbLine
 10
0.960665
 20
4.24565
 30
0.0
 11
0.646472
 21
3.931112
 31
0.0
  0
LINE
  5
1FB
100
AcDbEntity
  8
ROHR
 62
     7
100
AcDbLine
 10
0.537263
 20
5.96613
 30
0.0
 11
0.376893
 21
5.805244
 31
0.0
  0
LINE
  5
1FA
100
AcDbEntity
  8
ROHR
 62
     7
100
AcDbLine
 10
-0.125057
 20
7.982028
 30
0.0
 11
-0.174494
 21
7.932935
 31
0.0
  0
LINE
  5
1F9
100
AcDbEntity
  8
ROHR
 62
     7
100
AcDbLine
 10
-0.034106
 20
8.073323
 30
0.0
 11
-0.043236
 21
8.064193
 31
0.0
  0
LINE
  5
1F8
100
AcDbEntity
  8
ROHR
 62
     7
100
AcDbLine
 10
-0.255798
 20
7.315746
 30
0.0
 11
-0.433221
 21
7.138496
 31
0.0
  0
LINE
  5
1F7
100
AcDbEntity
  8
ROHR
 62
     7
100
AcDbLine
 10
0.08406
 20
7.655433
 30
0.0
 11
0.047715
 21
7.619259
 31
0.0
  0
LINE
  5
1F6
100
AcDbEntity
  8
ROHR
 62
     7
100
AcDbLine
 10
-0.374654
 20
6.661351
 30
0.0
 11
-0.664903
 21
6.371101
 31
0.0
  0
LINE
  5
1F5
100
AcDbEntity
  8
ROHR
 62
     7
100
AcDbLine
 10
0.199988
 20
7.235992
 30
0.0
 11
0.135392
 21
7.171225
 31
0.0
  0
LINE
  5
1F4
100
AcDbEntity
  8
ROHR
 62
     7
100
AcDbLine
 10
0.314537
 20
6.814485
 30
0.0
 11
0.21928
 21
6.7194
 31
0.0
  0
LINE
  5
1F3
100
AcDbEntity
  8
ROHR
 62
     7
100
AcDbLine
 10
0.426847
 20
6.391255
 30
0.0
 11
0.299723
 21
6.264131
 31
0.0
  0
ENDBLK
  5
230
100
AcDbEntity
  8
ROHR
100
AcDbBlockEnd
  0
ENDSEC
  0
SECTION
  2
ENTITIES
  0
INSERT
  5
1F1
100
AcDbEntity
  8
ROHR
 62
     7
100
AcDbBlockReference
  2
AI9-BLK5
 10
95.820336
 20
143.21684
 30
0.0
  0
INSERT
  5
1B2
100
AcDbEntity
  8
ROHR
 62
     7
100
AcDbBlockReference
  2
AI9-BLK4
 10
168.348553
 20
153.941163
 30
0.0
  0
LINE
  5
1AF
100
AcDbEntity
  8
SCHRAUBEN
 62
     7
100
AcDbLine
 10
112.534044
 20
166.182966
 30
0.0
 11
112.534044
 21
168.201792
 31
0.0
  0
LINE
  5
1AE
100
AcDbEntity
  8
SCHRAUBEN
 62
     7
100
AcDbLine
 10
113.746718
 20
166.182966
 30
0.0
 11
113.746718
 21
168.201792
 31
0.0
  0
SPLINE
  5
1AD
100
AcDbEntity
  8
SCHRAUBEN
 62
     7
100
AcDbSpline
210
0.0
220
0.0
230
1.0
 70
     8
 71
     3
 72
     8
 73
     4
 74
     0
 42
0.00000001
 43
0.00000001
 40
0.0
 40
0.0
 40
0.0
 40
0.0
 40
1.0
 40
1.0
 40
1.0
 40
1.0
 10
113.63096245659722
 20
167.86537814670137
 30
0.0
 10
113.78530273437499
 20
167.42991807725693
 30
0.0
 10
113.78530273437499
 20
166.95483940972221
 30
0.0
 10
113.63096245659722
 20
166.51937934027777
 30
0.0
  0
SPLINE
  5
1AC
100
AcDbEntity
  8
SCHRAUBEN
 62
     7
100
AcDbSpline
210
0.0
220
0.0
230
1.0
 70
     8
 71
     3
 72
     8
 73
     4
 74
     0
 42
0.00000001
 43
0.00000001
 40
0.0
 40
0.0
 40
0.0
 40
0.0
 40
1.0
 40
1.0
 40
1.0
 40
1.0
 10
112.64945475260416
 20
166.51937934027777
 30
0.0
 10
112.49545898437499
 20
166.95483940972221
 30
0.0
 10
112.49545898437499
 20
167.42991807725693
 30
0.0
 10
112.64945475260416
 20
167.86537814670137
 30
0.0
  0
LINE
  5
1AB
100
AcDbEntity
  8
SCHRAUBEN
 62
     7
100
AcDbLine
 10
113.630962
 20
165.84638
 30
0.0
 11
112.649455
 21
165.84638
 31
0.0
  0
SPLINE
  5
1AA
100
AcDbEntity
  8
SCHRAUBEN
 62
     7
100
AcDbSpline
210
0.0
220
0.0
230
1.0
 70
     8
 71
     3
 72
     8
 73
     4
 74
     0
 42
0.00000001
 43
0.00000001
 40
0.0
 40
0.0
 40
0.0
 40
0.0
 40
1.0
 40
1.0
 40
1.0
 40
1.0
 10
113.63096245659722
 20
166.51937934027777
 30
0.0
 10
113.78530273437499
 20
166.32163085937498
 30
0.0
 10
113.78530273437499
 20
166.04464518229165
 30
0.0
 10
113.63096245659722
 20
165.84637993706596
 30
0.0
  0
LINE
  5
1A9
100
AcDbEntity
  8
SCHRAUBEN
 62
     7
100
AcDbLine
 10
113.630962
 20
166.519379
 30
0.0
 11
112.649455
 21
166.519379
 31
0.0
  0
SPLINE
  5
1A8
100
AcDbEntity
  8
SCHRAUBEN
 62
     7
100
AcDbSpline
210
0.0
220
0.0
230
1.0
 70
     8
 71
     3
 72
     8
 73
     4
 74
     0
 42
0.00000001
 43
0.00000001
 40
0.0
 40
0.0
 40
0.0
 40
0.0
 40
1.0
 40
1.0
 40
1.0
 40
1.0
 10
112.64945475260416
 20
165.84637993706596
 30
0.0
 10
112.49545898437499
 20
166.04464518229165
 30
0.0
 10
112.49545898437499
 20
166.32163085937498
 30
0.0
 10
112.64945475260416
 20
166.51937934027777
 30
0.0
  0
LINE
  5
1A7
100
AcDbEntity
  8
SCHRAUBEN
 62
     7
100
AcDbLine
 10
113.630962
 20
167.865378
 30
0.0
 11
112.649455
 21
167.865378
 31
0.0
  0
SPLINE
  5
1A6
100
AcDbEntity
  8
SCHRAUBEN
 62
     7
100
AcDbSpline
210
0.0
220
0.0
230
1.0
 70
     8
 71
     3
 72
     8
 73
     4
 74
     0
 42
0.00000001
 43
0.00000001
 40
0.0
 40
0.0
 40
0.0
 40
0.0
 40
1.0
 40
1.0
 40
1.0
 40
1.0
 10
113.63096245659722
 20
168.53837754991318
 30
0.0
 10
113.78530273437499
 20
168.34011230468749
 30
0.0
 10
113.78530273437499
 20
168.06312662760416
 30
0.0
 10
113.63096245659722
 20
167.86537814670137
 30
0.0
  0
SPLINE
  5
1A5
100
AcDbEntity
  8
SCHRAUBEN
 62
     7
100
AcDbSpline
210
0.0
220
0.0
230
1.0
 70
     8
 71
     3
 72
     8
 73
     4
 74
     0
 42
0.00000001
 43
0.00000001
 40
0.0
 40
0.0
 40
0.0
 40
0.0
 40
1.0
 40
1.0
 40
1.0
 40
1.0
 10
112.64945475260416
 20
167.86537814670137
 30
0.0
 10
112.49545898437499
 20
168.06312662760416
 30
0.0
 10
112.49545898437499
 20
168.34011230468749
 30
0.0
 10
112.64945475260416
 20
168.53837754991318
 30
0.0
  0
LINE
  5
1A4
100
AcDbEntity
  8
SCHRAUBEN
 62
     7
100
AcDbLine
 10
113.630962
 20
168.538378
 30
0.0
 11
112.649455
 21
168.538378
 31
0.0
  0
LINE
  5
1A3
100
AcDbEntity
  8
SCHRAUBEN
 62
     7
100
AcDbLine
 10
112.534044
 20
128.449007
 30
0.0
 11
112.534044
 21
130.467489
 31
0.0
  0
LINE
  5
1A2
100
AcDbEntity
  8
SCHRAUBEN
 62
     7
100
AcDbLine
 10
113.746718
 20
128.449007
 30
0.0
 11
113.746718
 21
130.467489
 31
0.0
  0
SPLINE
  5
1A1
100
AcDbEntity
  8
SCHRAUBEN
 62
     7
100
AcDbSpline
210
0.0
220
0.0
230
1.0
 70
     8
 71
     3
 72
     8
 73
     4
 74
     0
 42
0.00000001
 43
0.00000001
 40
0.0
 40
0.0
 40
0.0
 40
0.0
 40
1.0
 40
1.0
 40
1.0
 40
1.0
 10
113.63096245659722
 20
130.131591796875
 30
0.0
 10
113.78530273437499
 20
129.69544270833333
 30
0.0
 10
113.78530273437499
 20
129.22105305989581
 30
0.0
 10
113.63096245659722
 20
128.78559299045136
 30
0.0
  0
SPLINE
  5
1A0
100
AcDbEntity
  8
SCHRAUBEN
 62
     7
100
AcDbSpline
210
0.0
220
0.0
230
1.0
 70
     8
 71
     3
 72
     8
 73
     4
 74
     0
 42
0.00000001
 43
0.00000001
 40
0.0
 40
0.0
 40
0.0
 40
0.0
 40
1.0
 40
1.0
 40
1.0
 40
1.0
 10
112.64945475260416
 20
128.78559299045136
 30
0.0
 10
112.49545898437499
 20
129.22105305989581
 30
0.0
 10
112.49545898437499
 20
129.69544270833333
 30
0.0
 10
112.64945475260416
 20
130.131591796875
 30
0.0
  0
LINE
  5
19F
100
AcDbEntity
  8
SCHRAUBEN
 62
     7
100
AcDbLine
 10
113.630962
 20
128.112421
 30
0.0
 11
112.649455
 21
128.112421
 31
0.0
  0
SPLINE
  5
19E
100
AcDbEntity
  8
SCHRAUBEN
 62
     7
100
AcDbSpline
210
0.0
220
0.0
230
1.0
 70
     8
 71
     3
 72
     8
 73
     4
 74
     0
 42
0.00000001
 43
0.00000001
 40
0.0
 40
0.0
 40
0.0
 40
0.0
 40
1.0
 40
1.0
 40
1.0
 40
1.0
 10
113.63096245659722
 20
128.78559299045136
 30
0.0
 10
113.78530273437499
 20
128.5878445095486
 30
0.0
 10
113.78530273437499
 20
128.31051432291665
 30
0.0
 10
113.63096245659722
 20
128.11242133246526
 30
0.0
  0
LINE
  5
19D
100
AcDbEntity
  8
SCHRAUBEN
 62
     7
100
AcDbLine
 10
113.630962
 20
128.785593
 30
0.0
 11
112.649455
 21
128.785593
 31
0.0
  0
SPLINE
  5
19C
100
AcDbEntity
  8
SCHRAUBEN
 62
     7
100
AcDbSpline
210
0.0
220
0.0
230
1.0
 70
     8
 71
     3
 72
     8
 73
     4
 74
     0
 42
0.00000001
 43
0.00000001
 40
0.0
 40
0.0
 40
0.0
 40
0.0
 40
1.0
 40
1.0
 40
1.0
 40
1.0
 10
112.64945475260416
 20
128.11242133246526
 30
0.0
 10
112.49545898437499
 20
128.31051432291665
 30
0.0
 10
112.49545898437499
 20
128.5878445095486
 30
0.0
 10
112.64945475260416
 20
128.78559299045136
 30
0.0
  0
LINE
  5
19B
100
AcDbEntity
  8
SCHRAUBEN
 62
     7
100
AcDbLine
 10
113.630962
 20
130.131592
 30
0.0
 11
112.649455
 21
130.131592
 31
0.0
  0
SPLINE
  5
19A
100
AcDbEntity
  8
SCHRAUBEN
 62
     7
100
AcDbSpline
210
0.0
220
0.0
230
1.0
 70
     8
 71
     3
 72
     8
 73
     4
 74
     0
 42
0.00000001
 43
0.00000001
 40
0.0
 40
0.0
 40
0.0
 40
0.0
 40
1.0
 40
1.0
 40
1.0
 40
1.0
 10
113.63096245659722
 20
130.80407443576388
 30
0.0
 10
113.78530273437499
 20
130.60598144531249
 30
0.0
 10
113.78530273437499
 20
130.32934027777776
 30
0.0
 10
113.63096245659722
 20
130.131591796875
 30
0.0
  0
SPLINE
  5
199
100
AcDbEntity
  8
SCHRAUBEN
 62
     7
100
AcDbSpline
210
0.0
220
0.0
230
1.0
 70
     8
 71
     3
 72
     8
 73
     4
 74
     0
 42
0.00000001
 43
0.00000001
 40
0.0
 40
0.0
 40
0.0
 40
0.0
 40
1.0
 40
1.0
 40
1.0
 40
1.0
 10
112.64945475260416
 20
130.131591796875
 30
0.0
 10
112.49545898437499
 20
130.32934027777776
 30
0.0
 10
112.49545898437499
 20
130.60598144531249
 30
0.0
 10
112.64945475260416
 20
130.80407443576388
 30
0.0
  0
LINE
  5
198
100
AcDbEntity
  8
SCHRAUBEN
 62
     7
100
AcDbLine
 10
113.630962
 20
130.804074
 30
0.0
 11
112.649455
 21
130.804074
 31
0.0
  0
POLYLINE
  5
191
100
AcDbEntity
  8
RAHMEN
 62
     7
100
AcDb2dPolyline
 66
     1
 10
0.0
 20
0.0
 30
0.0
 70
     1
  0
VERTEX
  5
192
100
AcDbEntity
  8
RAHMEN
 62
     7
100
AcDbVertex
100
AcDb2dVertex
 10
24.520639
 20
221.677253
 30
0.0
  0
VERTEX
  5
193
100
AcDbEntity
  8
RAHMEN
 62
     7
100
AcDbVertex
100
AcDb2dVertex
 10
24.520639
 20
77.417497
 30
0.0
  0
VERTEX
  5
194
100
AcDbEntity
  8
RAHMEN
 62
     7
100
AcDbVertex
100
AcDb2dVertex
 10
186.188463
 20
77.417497
 30
0.0
  0
VERTEX
  5
195
100
AcDbEntity
  8
RAHMEN
 62
     7
100
AcDbVertex
100
AcDb2dVertex
 10
186.188463
 20
221.677253
 30
0.0
  0
SEQEND
  5
196
100
AcDbEntity
  8
RAHMEN
 62
     7
  0
POLYLINE
  5
18B
100
AcDbEntity
  8
RAHMEN
 62
     7
100
AcDb2dPolyline
 66
     1
 10
0.0
 20
0.0
 30
0.0
 70
     1
  0
VERTEX
  5
18C
100
AcDbEntity
  8
RAHMEN
 62
     7
100
AcDbVertex
100
AcDb2dVertex
 10
167.027875
 20
94.023201
 30
0.0
  0
VERTEX
  5
18D
100
AcDbEntity
  8
RAHMEN
 62
     7
100
AcDbVertex
100
AcDb2dVertex
 10
186.077875
 20
94.023201
 30
0.0
  0
VERTEX
  5
18E
100
AcDbEntity
  8
RAHMEN
 62
     7
100
AcDbVertex
100
AcDb2dVertex
 10
186.077875
 20
77.265568
 30
0.0
  0
VERTEX
  5
18F
100
AcDbEntity
  8
RAHMEN
 62
     7
100
AcDbVertex
100
AcDb2dVertex
 10
167.027875
 20
77.265568
 30
0.0
  0
SEQEND
  5
190
100
AcDbEntity
  8
RAHMEN
 62
     7
  0
MTEXT
  5
18A
100
AcDbEntity
  8
RAHMEN
  6
AI9-LType2
 62
     7
100
AcDbMText
 10
168.174059
 20
91.5667
 30
0.0
 40
9.449404
 41
0.0
 71
     1
 72
     2
  1
\fMyriad Roman|b0|i0;\H9.4494;\C7;\U+0034\U+002E\U+0035
  7
STD
210
0.0
220
0.0
230
1.0
 73
     1
 44
1.0
  0
LINE
  5
188
100
AcDbEntity
  8
GETRENNT
  6
AI9-LType2
 62
     7
100
AcDbLine
 10
102.341557
 20
209.263368
 30
0.0
 11
160.963474
 21
209.263368
 31
0.0
  0
LINE
  5
187
100
AcDbEntity
  8
GETRENNT
  6
AI9-LType2
 62
     7
100
AcDbLine
 10
102.237343
 20
86.763007
 30
0.0
 11
160.718528
 21
86.763007
 31
0.0
  0
HATCH
  5
184
100
AcDbEntity
  8
EBENE_1
 62
   152
100
AcDbHatch
 10
0.0
 20
0.0
 30
0.0
210
0.0
220
0.0
230
1.0
  2
SOLID
 70
     1
 71
     0
 91
        1
 92
        1
 93
        1
 72
     4
 94
        3
 73
     0
 74
     0
 95
       23
 96
       19
 40
0.0
 40
0.0
 40
0.0
 40
0.0
 40
1.0
 40
1.0
 40
1.0
 40
2.0
 40
2.0
 40
2.0
 40
3.0
 40
3.0
 40
3.0
 40
4.0
 40
4.0
 40
4.0
 40
5.0
 40
5.0
 40
5.0
 40
6.0
 40
6.0
 40
6.0
 40
6.0
 10
84.257561577690964
 20
128.16168619791665
 10
84.257561577690964
 20
128.16168619791665
 10
83.828130425347211
 20
128.4266140407986
 10
83.24401448567707
 20
128.70601128472222
 10
78.428287760416666
 20
131.00974663628472
 10
79.60272081163194
 20
126.34164225260416
 10
74.835914442274301
 20
129.27548556857639
 10
74.163776312934019
 20
129.68924153645833
 10
73.543314615885407
 20
128.6812065972222
 10
74.215624999999989
 20
128.26745062934026
 10
74.215624999999989
 20
128.26745062934026
 10
74.644883897569443
 20
128.00252278645831
 10
75.228655327690959
 20
127.72312554253472
 10
80.038869900173609
 20
125.42145724826388
 10
78.869949001736103
 20
130.08060438368054
 10
83.637444390190964
 20
127.15330674913193
 10
84.309582519531247
 20
126.74023980034721
 10
84.930044216579859
 20
127.74861924913193
 10
84.257561577690964
 20
128.16168619791665
 97
        0
 75
     0
 76
     1
 98
        1
 10
0.0
 20
0.0
  0
HATCH
  5
183
100
AcDbEntity
  8
EBENE_1
 62
   152
100
AcDbHatch
 10
0.0
 20
0.0
 30
0.0
210
0.0
220
0.0
230
1.0
  2
SOLID
 70
     1
 71
     0
 91
        1
 92
        1
 93
        1
 72
     4
 94
        3
 73
     0
 74
     0
 95
       23
 96
       19
 40
0.0
 40
0.0
 40
0.0
 40
0.0
 40
1.0
 40
1.0
 40
1.0
 40
2.0
 40
2.0
 40
2.0
 40
3.0
 40
3.0
 40
3.0
 40
4.0
 40
4.0
 40
4.0
 40
5.0
 40
5.0
 40
5.0
 40
6.0
 40
6.0
 40
6.0
 40
6.0
 10
84.257561577690964
 20
125.37770453559027
 10
84.257561577690964
 20
125.37770453559027
 10
83.828130425347211
 20
125.64263237847221
 10
83.24401448567707
 20
125.92168511284721
 10
78.428287760416666
 20
128.22542046440972
 10
79.60272081163194
 20
123.55731608072915
 10
74.835914442274301
 20
126.49150390624999
 10
74.163776312934019
 20
126.90525987413193
 10
73.543314615885407
 20
125.89722493489582
 10
74.215624999999989
 20
125.48346896701388
 10
74.215624999999989
 20
125.48346896701388
 10
74.644883897569443
 20
125.21854112413193
 10
75.228655327690959
 20
124.93948838975693
 10
80.038869900173609
 20
122.63747558593749
 10
78.869949001736103
 20
127.29627821180554
 10
83.637444390190964
 20
124.37001410590277
 10
84.309582519531247
 20
123.95625813802083
 10
84.930044216579859
 20
124.96463758680554
 10
84.257561577690964
 20
125.37770453559027
 97
        0
 75
     0
 76
     1
 98
        1
 10
0.0
 20
0.0
  0
HATCH
  5
182
100
AcDbEntity
  8
EBENE_1
 62
   152
100
AcDbHatch
 10
0.0
 20
0.0
 30
0.0
210
0.0
220
0.0
230
1.0
  2
SOLID
 70
     1
 71
     0
 91
        1
 92
        1
 93
        1
 72
     4
 94
        3
 73
     0
 74
     0
 95
       23
 96
       19
 40
0.0
 40
0.0
 40
0.0
 40
0.0
 40
1.0
 40
1.0
 40
1.0
 40
2.0
 40
2.0
 40
2.0
 40
3.0
 40
3.0
 40
3.0
 40
4.0
 40
4.0
 40
4.0
 40
5.0
 40
5.0
 40
5.0
 40
6.0
 40
6.0
 40
6.0
 40
6.0
 10
84.257561577690964
 20
122.59406738281248
 10
84.257561577690964
 20
122.59406738281248
 10
83.828130425347211
 20
122.85899522569443
 10
83.24401448567707
 20
123.13804796006943
 10
78.428287760416666
 20
125.44109429253471
 10
79.60272081163194
 20
120.77402343749999
 10
74.835914442274301
 20
123.70752224392361
 10
74.163776312934019
 20
124.12093370225693
 10
73.543314615885407
 20
123.11289876302082
 10
74.215624999999989
 20
122.69914279513888
 10
74.215624999999989
 20
122.69914279513888
 10
74.644883897569443
 20
122.43490397135416
 10
75.228655327690959
 20
122.15516221788194
 10
80.038869900173609
 20
119.85314941406249
 10
78.869949001736103
 20
124.51195203993055
 10
83.637444390190964
 20
121.58568793402776
 10
84.309582519531247
 20
121.17227647569443
 10
84.930044216579859
 20
122.18065592447915
 10
84.257561577690964
 20
122.59406738281248
 97
        0
 75
     0
 76
     1
 98
        1
 10
0.0
 20
0.0
  0
HATCH
  5
181
100
AcDbEntity
  8
EBENE_1
 62
   152
100
AcDbHatch
 10
0.0
 20
0.0
 30
0.0
210
0.0
220
0.0
230
1.0
  2
SOLID
 70
     1
 71
     0
 91
        1
 92
        1
 93
        1
 72
     4
 94
        3
 73
     0
 74
     0
 95
       23
 96
       19
 40
0.0
 40
0.0
 40
0.0
 40
0.0
 40
1.0
 40
1.0
 40
1.0
 40
2.0
 40
2.0
 40
2.0
 40
3.0
 40
3.0
 40
3.0
 40
4.0
 40
4.0
 40
4.0
 40
5.0
 40
5.0
 40
5.0
 40
6.0
 40
6.0
 40
6.0
 40
6.0
 10
84.257561577690964
 20
130.94118923611109
 10
84.257561577690964
 20
130.94118923611109
 10
83.828130425347211
 20
131.20611707899303
 10
83.24401448567707
 20
131.48551432291666
 10
78.428287760416666
 20
133.78821614583333
 10
79.60272081163194
 20
129.12080078124998
 10
74.835914442274301
 20
132.05533311631945
 10
74.163776312934019
 20
132.46840006510416
 10
73.543314615885407
 20
131.46002061631944
 10
74.215624999999989
 20
131.04695366753472
 10
74.215624999999989
 20
131.04695366753472
 10
74.644883897569443
 20
130.78202582465278
 10
75.228655327690959
 20
130.50262858072915
 10
80.038869900173609
 20
128.2006157769097
 10
78.869949001736103
 20
132.85941840277778
 10
83.637444390190964
 20
129.93315429687499
 10
84.309582519531247
 20
129.51939832899305
 10
84.930044216579859
 20
130.52777777777777
 10
84.257561577690964
 20
130.94118923611109
 97
        0
 75
     0
 76
     1
 98
        1
 10
0.0
 20
0.0
  0
LINE
  5
17F
100
AcDbEntity
  8
SCHRAFFUR
 62
     7
100
AcDbLine
 10
168.425206
 20
145.511876
 30
0.0
 11
168.434508
 21
145.520833
 31
0.0
  0
LINE
  5
17E
100
AcDbEntity
  8
SCHRAFFUR
 62
     7
100
AcDbLine
 10
168.516157
 20
145.603516
 30
0.0
 11
168.565766
 21
145.65278
 31
0.0
  0
HATCH
  5
17D
100
AcDbEntity
  8
SCHRAFFUR
 62
     7
100
AcDbHatch
 10
0.0
 20
0.0
 30
0.0
210
0.0
220
0.0
230
1.0
  2
SOLID
 70
     1
 71
     0
 91
        4
 92
        1
 93
        1
 72
     4
 94
        3
 73
     0
 74
     0
 95
       20
 96
       16
 40
0.0
 40
0.0
 40
0.0
 40
0.0
 40
1.0
 40
1.0
 40
1.0
 40
2.0
 40
2.0
 40
2.0
 40
3.0
 40
3.0
 40
3.0
 40
4.0
 40
4.0
 40
4.0
 40
5.0
 40
5.0
 40
5.0
 40
5.0
 10
105.25972493489583
 20
172.0890652126736
 10
105.25972493489583
 20
172.0890652126736
 10
105.25972493489583
 20
172.57396240234374
 10
105.25972493489583
 20
172.57396240234374
 10
105.25972493489583
 20
172.57396240234374
 10
110.10904134114583
 20
172.57396240234374
 10
110.10904134114583
 20
172.57396240234374
 10
110.10904134114583
 20
172.57396240234374
 10
110.10904134114583
 20
167.19255099826387
 10
110.10904134114583
 20
167.19255099826387
 10
110.10904134114583
 20
167.19255099826387
 10
105.25972493489583
 20
167.19255099826387
 10
105.25972493489583
 20
167.19255099826387
 10
105.25972493489583
 20
167.19255099826387
 10
105.25972493489583
 20
172.0890652126736
 10
105.25972493489583
 20
172.0890652126736
 97
        0
 92
        1
 93
        1
 72
     4
 94
        3
 73
     0
 74
     0
 95
       17
 96
       13
 40
0.0
 40
0.0
 40
0.0
 40
0.0
 40
1.0
 40
1.0
 40
1.0
 40
2.0
 40
2.0
 40
2.0
 40
3.0
 40
3.0
 40
3.0
 40
4.0
 40
4.0
 40
4.0
 40
4.0
 10
105.25972493489583
 20
167.19255099826387
 10
105.25972493489583
 20
167.19255099826387
 10
110.10904134114583
 20
167.19255099826387
 10
110.10904134114583
 20
167.19255099826387
 10
110.10904134114583
 20
167.19255099826387
 10
110.10904134114583
 20
148.32531331380207
 10
110.10904134114583
 20
148.32531331380207
 10
110.10904134114583
 20
148.32531331380207
 10
105.25972493489583
 20
148.32531331380207
 10
105.25972493489583
 20
148.32531331380207
 10
105.25972493489583
 20
148.32531331380207
 10
105.25972493489583
 20
167.19255099826387
 10
105.25972493489583
 20
167.19255099826387
 97
        0
 92
        1
 93
        1
 72
     4
 94
        3
 73
     0
 74
     0
 95
       17
 96
       13
 40
0.0
 40
0.0
 40
0.0
 40
0.0
 40
1.0
 40
1.0
 40
1.0
 40
2.0
 40
2.0
 40
2.0
 40
3.0
 40
3.0
 40
3.0
 40
4.0
 40
4.0
 40
4.0
 40
4.0
 10
105.25972493489583
 20
148.32531331380207
 10
105.25972493489583
 20
148.32531331380207
 10
110.10904134114583
 20
148.32531331380207
 10
110.10904134114583
 20
148.32531331380207
 10
110.10904134114583
 20
148.32531331380207
 10
110.10904134114583
 20
129.45876464843749
 10
110.10904134114583
 20
129.45876464843749
 10
110.10904134114583
 20
129.45876464843749
 10
105.25972493489583
 20
129.45876464843749
 10
105.25972493489583
 20
129.45876464843749
 10
105.25972493489583
 20
129.45876464843749
 10
105.25972493489583
 20
148.32531331380207
 10
105.25972493489583
 20
148.32531331380207
 97
        0
 92
        1
 93
        1
 72
     4
 94
        3
 73
     0
 74
     0
 95
       17
 96
       13
 40
0.0
 40
0.0
 40
0.0
 40
0.0
 40
1.0
 40
1.0
 40
1.0
 40
2.0
 40
2.0
 40
2.0
 40
3.0
 40
3.0
 40
3.0
 40
4.0
 40
4.0
 40
4.0
 40
4.0
 10
105.25972493489583
 20
129.45876464843749
 10
105.25972493489583
 20
129.45876464843749
 10
110.10904134114583
 20
129.45876464843749
 10
110.10904134114583
 20
129.45876464843749
 10
110.10904134114583
 20
129.45876464843749
 10
110.10904134114583
 20
124.0764919704861
 10
110.10904134114583
 20
124.0764919704861
 10
110.10904134114583
 20
124.0764919704861
 10
105.25972493489583
 20
124.0764919704861
 10
105.25972493489583
 20
124.0764919704861
 10
105.25972493489583
 20
124.0764919704861
 10
105.25972493489583
 20
129.45876464843749
 10
105.25972493489583
 20
129.45876464843749
 97
        0
 75
     0
 76
     1
 98
        1
 10
0.0
 20
0.0
  0
LINE
  5
17C
100
AcDbEntity
  8
SCHRAFFUR
 62
     7
100
AcDbLine
 10
146.690443
 20
206.998562
 30
0.0
 11
149.654259
 21
204.034747
 31
0.0
  0
LINE
  5
17B
100
AcDbEntity
  8
SCHRAFFUR
 62
     7
100
AcDbLine
 10
140.763845
 20
206.998562
 30
0.0
 11
143.727317
 21
204.034747
 31
0.0
  0
LINE
  5
17A
100
AcDbEntity
  8
SCHRAFFUR
 62
     7
100
AcDbLine
 10
146.690443
 20
201.071275
 30
0.0
 11
149.654259
 21
198.108149
 31
0.0
  0
LINE
  5
179
100
AcDbEntity
  8
SCHRAFFUR
 62
     7
100
AcDbLine
 10
134.836903
 20
206.998562
 30
0.0
 11
137.80003
 21
204.034747
 31
0.0
  0
LINE
  5
178
100
AcDbEntity
  8
SCHRAFFUR
 62
     7
100
AcDbLine
 10
140.763845
 20
201.071275
 30
0.0
 11
143.727317
 21
198.108149
 31
0.0
  0
LINE
  5
177
100
AcDbEntity
  8
SCHRAFFUR
 62
     7
100
AcDbLine
 10
146.690443
 20
195.144333
 30
0.0
 11
149.654259
 21
192.180862
 31
0.0
  0
LINE
  5
176
100
AcDbEntity
  8
SCHRAFFUR
 62
     7
100
AcDbLine
 10
128.909616
 20
206.998562
 30
0.0
 11
131.873432
 21
204.034747
 31
0.0
  0
LINE
  5
175
100
AcDbEntity
  8
SCHRAFFUR
 62
     7
100
AcDbLine
 10
134.836903
 20
201.071275
 30
0.0
 11
137.80003
 21
198.108149
 31
0.0
  0
LINE
  5
174
100
AcDbEntity
  8
SCHRAFFUR
 62
     7
100
AcDbLine
 10
140.763845
 20
195.144333
 30
0.0
 11
143.727317
 21
192.180862
 31
0.0
  0
LINE
  5
173
100
AcDbEntity
  8
SCHRAFFUR
 62
     7
100
AcDbLine
 10
146.690443
 20
189.217735
 30
0.0
 11
149.654259
 21
186.25392
 31
0.0
  0
LINE
  5
172
100
AcDbEntity
  8
SCHRAFFUR
 62
     7
100
AcDbLine
 10
122.983019
 20
206.998562
 30
0.0
 11
125.94649
 21
204.034747
 31
0.0
  0
LINE
  5
171
100
AcDbEntity
  8
SCHRAFFUR
 62
     7
100
AcDbLine
 10
128.909616
 20
201.071275
 30
0.0
 11
131.873432
 21
198.108149
 31
0.0
  0
LINE
  5
170
100
AcDbEntity
  8
SCHRAFFUR
 62
     7
100
AcDbLine
 10
134.836903
 20
195.144333
 30
0.0
 11
137.80003
 21
192.180862
 31
0.0
  0
LINE
  5
16F
100
AcDbEntity
  8
SCHRAFFUR
 62
     7
100
AcDbLine
 10
140.763845
 20
189.217735
 30
0.0
 11
143.727317
 21
186.25392
 31
0.0
  0
LINE
  5
16E
100
AcDbEntity
  8
SCHRAFFUR
 62
     7
100
AcDbLine
 10
146.690443
 20
183.290449
 30
0.0
 11
149.654259
 21
180.326805
 31
0.0
  0
LINE
  5
16D
100
AcDbEntity
  8
SCHRAFFUR
 62
     7
100
AcDbLine
 10
117.056076
 20
206.998562
 30
0.0
 11
120.019203
 21
204.034747
 31
0.0
  0
LINE
  5
16C
100
AcDbEntity
  8
SCHRAFFUR
 62
     7
100
AcDbLine
 10
122.983019
 20
201.071275
 30
0.0
 11
125.94649
 21
198.108149
 31
0.0
  0
LINE
  5
16B
100
AcDbEntity
  8
SCHRAFFUR
 62
     7
100
AcDbLine
 10
128.909616
 20
195.144333
 30
0.0
 11
131.873432
 21
192.180862
 31
0.0
  0
LINE
  5
16A
100
AcDbEntity
  8
SCHRAFFUR
 62
     7
100
AcDbLine
 10
134.836903
 20
189.217735
 30
0.0
 11
137.80003
 21
186.25392
 31
0.0
  0
LINE
  5
169
100
AcDbEntity
  8
SCHRAFFUR
 62
     7
100
AcDbLine
 10
140.763845
 20
183.290449
 30
0.0
 11
143.727317
 21
180.326805
 31
0.0
  0
LINE
  5
168
100
AcDbEntity
  8
SCHRAFFUR
 62
     7
100
AcDbLine
 10
146.690443
 20
177.363506
 30
0.0
 11
147.136928
 21
176.917367
 31
0.0
  0
LINE
  5
167
100
AcDbEntity
  8
SCHRAFFUR
 62
     7
100
AcDbLine
 10
112.041395
 20
206.086129
 30
0.0
 11
114.092261
 21
204.034747
 31
0.0
  0
LINE
  5
166
100
AcDbEntity
  8
SCHRAFFUR
 62
     7
100
AcDbLine
 10
117.056076
 20
201.071275
 30
0.0
 11
120.019203
 21
198.108149
 31
0.0
  0
LINE
  5
165
100
AcDbEntity
  8
SCHRAFFUR
 62
     7
100
AcDbLine
 10
122.983019
 20
195.144333
 30
0.0
 11
125.94649
 21
192.180862
 31
0.0
  0
LINE
  5
164
100
AcDbEntity
  8
SCHRAFFUR
 62
     7
100
AcDbLine
 10
128.909616
 20
189.217735
 30
0.0
 11
131.873432
 21
186.25392
 31
0.0
  0
LINE
  5
163
100
AcDbEntity
  8
SCHRAFFUR
 62
     7
100
AcDbLine
 10
134.836903
 20
183.290449
 30
0.0
 11
137.80003
 21
180.326805
 31
0.0
  0
LINE
  5
162
100
AcDbEntity
  8
SCHRAFFUR
 62
     7
100
AcDbLine
 10
140.763845
 20
177.363506
 30
0.0
 11
141.21033
 21
176.917367
 31
0.0
  0
LINE
  5
161
100
AcDbEntity
  8
SCHRAFFUR
 62
     7
100
AcDbLine
 10
112.041395
 20
200.159186
 30
0.0
 11
114.092261
 21
198.108149
 31
0.0
  0
LINE
  5
160
100
AcDbEntity
  8
SCHRAFFUR
 62
     7
100
AcDbLine
 10
117.056076
 20
195.144333
 30
0.0
 11
120.019203
 21
192.180862
 31
0.0
  0
LINE
  5
15F
100
AcDbEntity
  8
SCHRAFFUR
 62
     7
100
AcDbLine
 10
122.983019
 20
189.217735
 30
0.0
 11
125.94649
 21
186.25392
 31
0.0
  0
LINE
  5
15E
100
AcDbEntity
  8
SCHRAFFUR
 62
     7
100
AcDbLine
 10
128.909616
 20
183.290449
 30
0.0
 11
131.873432
 21
180.326805
 31
0.0
  0
LINE
  5
15D
100
AcDbEntity
  8
SCHRAFFUR
 62
     7
100
AcDbLine
 10
134.836903
 20
177.363506
 30
0.0
 11
135.283043
 21
176.917367
 31
0.0
  0
LINE
  5
15C
100
AcDbEntity
  8
SCHRAFFUR
 62
     7
100
AcDbLine
 10
112.041395
 20
194.232072
 30
0.0
 11
114.092261
 21
192.180862
 31
0.0
  0
LINE
  5
15B
100
AcDbEntity
  8
SCHRAFFUR
 62
     7
100
AcDbLine
 10
117.056076
 20
189.217735
 30
0.0
 11
120.019203
 21
186.25392
 31
0.0
  0
LINE
  5
15A
100
AcDbEntity
  8
SCHRAFFUR
 62
     7
100
AcDbLine
 10
122.983019
 20
183.290449
 30
0.0
 11
125.94649
 21
180.326805
 31
0.0
  0
LINE
  5
159
100
AcDbEntity
  8
SCHRAFFUR
 62
     7
100
AcDbLine
 10
128.909616
 20
177.363506
 30
0.0
 11
129.356101
 21
176.917367
 31
0.0
  0
LINE
  5
158
100
AcDbEntity
  8
SCHRAFFUR
 62
     7
100
AcDbLine
 10
112.041395
 20
188.305302
 30
0.0
 11
114.092261
 21
186.25392
 31
0.0
  0
LINE
  5
157
100
AcDbEntity
  8
SCHRAFFUR
 62
     7
100
AcDbLine
 10
117.056076
 20
183.290449
 30
0.0
 11
120.019203
 21
180.326805
 31
0.0
  0
LINE
  5
156
100
AcDbEntity
  8
SCHRAFFUR
 62
     7
100
AcDbLine
 10
122.983019
 20
177.363506
 30
0.0
 11
123.428814
 21
176.917367
 31
0.0
  0
LINE
  5
155
100
AcDbEntity
  8
SCHRAFFUR
 62
     7
100
AcDbLine
 10
112.041395
 20
182.378187
 30
0.0
 11
114.092261
 21
180.326805
 31
0.0
  0
LINE
  5
154
100
AcDbEntity
  8
SCHRAFFUR
 62
     7
100
AcDbLine
 10
117.056076
 20
177.363506
 30
0.0
 11
117.502216
 21
176.917367
 31
0.0
  0
LINE
  5
153
100
AcDbEntity
  8
SCHRAFFUR
 62
     7
100
AcDbLine
 10
146.690443
 20
118.093739
 30
0.0
 11
149.654259
 21
115.130613
 31
0.0
  0
LINE
  5
152
100
AcDbEntity
  8
SCHRAFFUR
 62
     7
100
AcDbLine
 10
140.763845
 20
118.093739
 30
0.0
 11
143.727317
 21
115.130613
 31
0.0
  0
LINE
  5
151
100
AcDbEntity
  8
SCHRAFFUR
 62
     7
100
AcDbLine
 10
146.690443
 20
112.167141
 30
0.0
 11
149.654259
 21
109.203326
 31
0.0
  0
LINE
  5
150
100
AcDbEntity
  8
SCHRAFFUR
 62
     7
100
AcDbLine
 10
134.836903
 20
118.093739
 30
0.0
 11
137.80003
 21
115.130613
 31
0.0
  0
LINE
  5
14F
100
AcDbEntity
  8
SCHRAFFUR
 62
     7
100
AcDbLine
 10
140.763845
 20
112.167141
 30
0.0
 11
143.727317
 21
109.203326
 31
0.0
  0
LINE
  5
14E
100
AcDbEntity
  8
SCHRAFFUR
 62
     7
100
AcDbLine
 10
146.690443
 20
106.240199
 30
0.0
 11
149.654259
 21
103.276383
 31
0.0
  0
LINE
  5
14D
100
AcDbEntity
  8
SCHRAFFUR
 62
     7
100
AcDbLine
 10
128.909616
 20
118.093739
 30
0.0
 11
131.873432
 21
115.130613
 31
0.0
  0
LINE
  5
14C
100
AcDbEntity
  8
SCHRAFFUR
 62
     7
100
AcDbLine
 10
134.836903
 20
112.167141
 30
0.0
 11
137.80003
 21
109.203326
 31
0.0
  0
LINE
  5
14B
100
AcDbEntity
  8
SCHRAFFUR
 62
     7
100
AcDbLine
 10
140.763845
 20
106.240199
 30
0.0
 11
143.727317
 21
103.276383
 31
0.0
  0
LINE
  5
14A
100
AcDbEntity
  8
SCHRAFFUR
 62
     7
100
AcDbLine
 10
146.690443
 20
100.312912
 30
0.0
 11
149.654259
 21
97.349786
 31
0.0
  0
LINE
  5
149
100
AcDbEntity
  8
SCHRAFFUR
 62
     7
100
AcDbLine
 10
122.983019
 20
118.093739
 30
0.0
 11
125.94649
 21
115.130613
 31
0.0
  0
LINE
  5
148
100
AcDbEntity
  8
SCHRAFFUR
 62
     7
100
AcDbLine
 10
128.909616
 20
112.167141
 30
0.0
 11
131.873432
 21
109.203326
 31
0.0
  0
LINE
  5
147
100
AcDbEntity
  8
SCHRAFFUR
 62
     7
100
AcDbLine
 10
134.836903
 20
106.240199
 30
0.0
 11
137.80003
 21
103.276383
 31
0.0
  0
LINE
  5
146
100
AcDbEntity
  8
SCHRAFFUR
 62
     7
100
AcDbLine
 10
140.763845
 20
100.312912
 30
0.0
 11
143.727317
 21
97.349786
 31
0.0
  0
LINE
  5
145
100
AcDbEntity
  8
SCHRAFFUR
 62
     7
100
AcDbLine
 10
146.690443
 20
94.38597
 30
0.0
 11
149.654259
 21
91.422499
 31
0.0
  0
LINE
  5
144
100
AcDbEntity
  8
SCHRAFFUR
 62
     7
100
AcDbLine
 10
117.056076
 20
118.093739
 30
0.0
 11
120.019203
 21
115.130613
 31
0.0
  0
LINE
  5
143
100
AcDbEntity
  8
SCHRAFFUR
 62
     7
100
AcDbLine
 10
122.983019
 20
112.167141
 30
0.0
 11
125.94649
 21
109.203326
 31
0.0
  0
LINE
  5
142
100
AcDbEntity
  8
SCHRAFFUR
 62
     7
100
AcDbLine
 10
128.909616
 20
106.240199
 30
0.0
 11
131.873432
 21
103.276383
 31
0.0
  0
LINE
  5
141
100
AcDbEntity
  8
SCHRAFFUR
 62
     7
100
AcDbLine
 10
134.836903
 20
100.312912
 30
0.0
 11
137.80003
 21
97.349786
 31
0.0
  0
LINE
  5
140
100
AcDbEntity
  8
SCHRAFFUR
 62
     7
100
AcDbLine
 10
140.763845
 20
94.38597
 30
0.0
 11
143.727317
 21
91.422499
 31
0.0
  0
LINE
  5
13F
100
AcDbEntity
  8
SCHRAFFUR
 62
     7
100
AcDbLine
 10
146.690443
 20
88.459372
 30
0.0
 11
148.386808
 21
86.763007
 31
0.0
  0
LINE
  5
13E
100
AcDbEntity
  8
SCHRAFFUR
 62
     7
100
AcDbLine
 10
112.041395
 20
117.181478
 30
0.0
 11
114.092261
 21
115.130613
 31
0.0
  0
LINE
  5
13D
100
AcDbEntity
  8
SCHRAFFUR
 62
     7
100
AcDbLine
 10
117.056076
 20
112.167141
 30
0.0
 11
120.019203
 21
109.203326
 31
0.0
  0
LINE
  5
13C
100
AcDbEntity
  8
SCHRAFFUR
 62
     7
100
AcDbLine
 10
122.983019
 20
106.240199
 30
0.0
 11
125.94649
 21
103.276383
 31
0.0
  0
LINE
  5
13B
100
AcDbEntity
  8
SCHRAFFUR
 62
     7
100
AcDbLine
 10
128.909616
 20
100.312912
 30
0.0
 11
131.873432
 21
97.349786
 31
0.0
  0
LINE
  5
13A
100
AcDbEntity
  8
SCHRAFFUR
 62
     7
100
AcDbLine
 10
134.836903
 20
94.38597
 30
0.0
 11
137.80003
 21
91.422499
 31
0.0
  0
LINE
  5
139
100
AcDbEntity
  8
SCHRAFFUR
 62
     7
100
AcDbLine
 10
140.763845
 20
88.459372
 30
0.0
 11
142.459866
 21
86.763007
 31
0.0
  0
LINE
  5
138
100
AcDbEntity
  8
SCHRAFFUR
 62
     7
100
AcDbLine
 10
112.041395
 20
111.25488
 30
0.0
 11
114.092261
 21
109.203326
 31
0.0
  0
LINE
  5
137
100
AcDbEntity
  8
SCHRAFFUR
 62
     7
100
AcDbLine
 10
117.056076
 20
106.240199
 30
0.0
 11
120.019203
 21
103.276383
 31
0.0
  0
LINE
  5
136
100
AcDbEntity
  8
SCHRAFFUR
 62
     7
100
AcDbLine
 10
122.983019
 20
100.312912
 30
0.0
 11
125.94649
 21
97.349786
 31
0.0
  0
LINE
  5
135
100
AcDbEntity
  8
SCHRAFFUR
 62
     7
100
AcDbLine
 10
128.909616
 20
94.38597
 30
0.0
 11
131.873432
 21
91.422499
 31
0.0
  0
LINE
  5
134
100
AcDbEntity
  8
SCHRAFFUR
 62
     7
100
AcDbLine
 10
134.836903
 20
88.459372
 30
0.0
 11
136.532235
 21
86.763007
 31
0.0
  0
LINE
  5
133
100
AcDbEntity
  8
SCHRAFFUR
 62
     7
100
AcDbLine
 10
112.041395
 20
105.327593
 30
0.0
 11
114.092261
 21
103.276383
 31
0.0
  0
LINE
  5
132
100
AcDbEntity
  8
SCHRAFFUR
 62
     7
100
AcDbLine
 10
117.056076
 20
100.312912
 30
0.0
 11
120.019203
 21
97.349786
 31
0.0
  0
LINE
  5
131
100
AcDbEntity
  8
SCHRAFFUR
 62
     7
100
AcDbLine
 10
122.983019
 20
94.38597
 30
0.0
 11
125.94649
 21
91.422499
 31
0.0
  0
LINE
  5
130
100
AcDbEntity
  8
SCHRAFFUR
 62
     7
100
AcDbLine
 10
128.909616
 20
88.459372
 30
0.0
 11
130.605292
 21
86.763007
 31
0.0
  0
LINE
  5
12F
100
AcDbEntity
  8
SCHRAFFUR
 62
     7
100
AcDbLine
 10
112.041395
 20
99.400651
 30
0.0
 11
114.092261
 21
97.349786
 31
0.0
  0
LINE
  5
12E
100
AcDbEntity
  8
SCHRAFFUR
 62
     7
100
AcDbLine
 10
117.056076
 20
94.38597
 30
0.0
 11
120.019203
 21
91.422499
 31
0.0
  0
LINE
  5
12D
100
AcDbEntity
  8
SCHRAFFUR
 62
     7
100
AcDbLine
 10
122.983019
 20
88.459372
 30
0.0
 11
124.679039
 21
86.763007
 31
0.0
  0
LINE
  5
12C
100
AcDbEntity
  8
SCHRAFFUR
 62
     7
100
AcDbLine
 10
112.041395
 20
93.474053
 30
0.0
 11
114.092261
 21
91.422499
 31
0.0
  0
LINE
  5
12B
100
AcDbEntity
  8
SCHRAFFUR
 62
     7
100
AcDbLine
 10
117.056076
 20
88.459372
 30
0.0
 11
118.751408
 21
86.763007
 31
0.0
  0
LINE
  5
12A
100
AcDbEntity
  8
SCHRAFFUR
 62
     7
100
AcDbLine
 10
112.041395
 20
87.546766
 30
0.0
 11
112.824466
 21
86.763007
 31
0.0
  0
LINE
  5
128
100
AcDbEntity
  8
SCHRAFUR01
 62
     7
100
AcDbLine
 10
102.459896
 20
198.228038
 30
0.0
 11
112.159218
 21
207.927532
 31
0.0
  0
LINE
  5
127
100
AcDbEntity
  8
SCHRAFUR01
 62
     7
100
AcDbLine
 10
102.459896
 20
186.373981
 30
0.0
 11
112.159218
 21
196.073475
 31
0.0
  0
LINE
  5
126
100
AcDbEntity
  8
SCHRAFUR01
 62
     7
100
AcDbLine
 10
104.873874
 20
176.934075
 30
0.0
 11
112.159218
 21
184.219591
 31
0.0
  0
LINE
  5
125
100
AcDbEntity
  8
SCHRAFUR01
 62
     7
100
AcDbLine
 10
150.957194
 20
199.309626
 30
0.0
 11
160.656516
 21
209.008948
 31
0.0
  0
LINE
  5
124
100
AcDbEntity
  8
SCHRAFUR01
 62
     7
100
AcDbLine
 10
150.957194
 20
187.455741
 30
0.0
 11
160.656516
 21
197.155063
 31
0.0
  0
LINE
  5
123
100
AcDbEntity
  8
SCHRAFUR01
 62
     7
100
AcDbLine
 10
152.289412
 20
176.934075
 30
0.0
 11
160.656516
 21
185.301179
 31
0.0
  0
LINE
  5
122
100
AcDbEntity
  8
SCHRAFUR01
 62
     7
100
AcDbLine
 10
102.459896
 20
115.250502
 30
0.0
 11
107.646832
 21
120.437438
 31
0.0
  0
LINE
  5
121
100
AcDbEntity
  8
SCHRAFUR01
 62
     7
100
AcDbLine
 10
102.459896
 20
103.396617
 30
0.0
 11
112.159218
 21
113.095939
 31
0.0
  0
LINE
  5
120
100
AcDbEntity
  8
SCHRAFUR01
 62
     7
100
AcDbLine
 10
102.459896
 20
91.542388
 30
0.0
 11
112.159218
 21
101.242055
 31
0.0
  0
LINE
  5
11F
100
AcDbEntity
  8
SCHRAFUR01
 62
     7
100
AcDbLine
 10
109.55128
 20
86.780233
 30
0.0
 11
112.159218
 21
89.38817
 31
0.0
  0
LINE
  5
11E
100
AcDbEntity
  8
SCHRAFUR01
 62
     7
100
AcDbLine
 10
150.957194
 20
116.332262
 30
0.0
 11
154.441219
 21
119.816287
 31
0.0
  0
LINE
  5
11D
100
AcDbEntity
  8
SCHRAFUR01
 62
     7
100
AcDbLine
 10
150.957194
 20
104.478033
 30
0.0
 11
160.656516
 21
114.177355
 31
0.0
  0
LINE
  5
11C
100
AcDbEntity
  8
SCHRAFUR01
 62
     7
100
AcDbLine
 10
150.957194
 20
92.624148
 30
0.0
 11
160.656516
 21
102.32347
 31
0.0
  0
LINE
  5
11B
100
AcDbEntity
  8
SCHRAFUR01
 62
     7
100
AcDbLine
 10
156.967163
 20
86.780233
 30
0.0
 11
160.656516
 21
90.469586
 31
0.0
  0
LINE
  5
11A
100
AcDbEntity
  8
SCHRAFUR01
 62
     7
100
AcDbLine
 10
102.459896
 20
204.15498
 30
0.0
 11
105.320014
 21
207.015099
 31
0.0
  0
LINE
  5
119
100
AcDbEntity
  8
SCHRAFUR01
 62
     7
100
AcDbLine
 10
106.80175
 20
208.496834
 30
0.0
 11
107.585164
 21
209.280421
 31
0.0
  0
LINE
  5
118
100
AcDbEntity
  8
SCHRAFUR01
 62
     7
100
AcDbLine
 10
103.838279
 20
193.679479
 30
0.0
 11
106.80175
 21
196.64295
 31
0.0
  0
LINE
  5
117
100
AcDbEntity
  8
SCHRAFUR01
 62
     7
100
AcDbLine
 10
108.283485
 20
198.124685
 30
0.0
 11
111.246956
 21
201.088156
 31
0.0
  0
LINE
  5
116
100
AcDbEntity
  8
SCHRAFUR01
 62
     7
100
AcDbLine
 10
102.459896
 20
180.447039
 30
0.0
 11
103.838279
 21
181.825422
 31
0.0
  0
LINE
  5
115
100
AcDbEntity
  8
SCHRAFUR01
 62
     7
100
AcDbLine
 10
105.320014
 20
183.30733
 30
0.0
 11
108.283485
 21
186.270801
 31
0.0
  0
LINE
  5
114
100
AcDbEntity
  8
SCHRAFUR01
 62
     7
100
AcDbLine
 10
109.765221
 20
187.752536
 30
0.0
 11
112.159218
 21
190.146533
 31
0.0
  0
LINE
  5
113
100
AcDbEntity
  8
SCHRAFUR01
 62
     7
100
AcDbLine
 10
111.246956
 20
177.380215
 30
0.0
 11
112.159218
 21
178.292649
 31
0.0
  0
LINE
  5
112
100
AcDbEntity
  8
SCHRAFUR01
 62
     7
100
AcDbLine
 10
150.957194
 20
205.23674
 30
0.0
 11
151.253817
 21
205.533363
 31
0.0
  0
LINE
  5
111
100
AcDbEntity
  8
SCHRAFUR01
 62
     7
100
AcDbLine
 10
152.735552
 20
207.015099
 30
0.0
 11
155.001047
 21
209.280421
 31
0.0
  0
LINE
  5
110
100
AcDbEntity
  8
SCHRAFUR01
 62
     7
100
AcDbLine
 10
150.957194
 20
193.382684
 30
0.0
 11
152.735552
 21
195.161214
 31
0.0
  0
LINE
  5
10F
100
AcDbEntity
  8
SCHRAFUR01
 62
     7
100
AcDbLine
 10
154.217632
 20
196.64295
 30
0.0
 11
157.180759
 21
199.606421
 31
0.0
  0
LINE
  5
10E
100
AcDbEntity
  8
SCHRAFUR01
 62
     7
100
AcDbLine
 10
158.662839
 20
201.088156
 30
0.0
 11
160.656516
 21
203.082178
 31
0.0
  0
LINE
  5
10D
100
AcDbEntity
  8
SCHRAFUR01
 62
     7
100
AcDbLine
 10
151.253817
 20
181.825422
 30
0.0
 11
154.217632
 21
184.789065
 31
0.0
  0
LINE
  5
10C
100
AcDbEntity
  8
SCHRAFUR01
 62
     7
100
AcDbLine
 10
155.699023
 20
186.270801
 30
0.0
 11
158.662839
 21
189.234272
 31
0.0
  0
LINE
  5
10B
100
AcDbEntity
  8
SCHRAFUR01
 62
     7
100
AcDbLine
 10
160.14423
 20
190.716007
 30
0.0
 11
160.656516
 21
191.228121
 31
0.0
  0
LINE
  5
10A
100
AcDbEntity
  8
SCHRAFUR01
 62
     7
100
AcDbLine
 10
158.216355
 20
176.934075
 30
0.0
 11
160.14423
 21
178.862123
 31
0.0
  0
LINE
  5
109
100
AcDbEntity
  8
SCHRAFUR01
 62
     7
100
AcDbLine
 10
102.459896
 20
109.323215
 30
0.0
 11
103.838279
 21
110.701942
 31
0.0
  0
LINE
  5
108
100
AcDbEntity
  8
SCHRAFUR01
 62
     7
100
AcDbLine
 10
105.320014
 20
112.183678
 30
0.0
 11
108.283485
 21
115.147149
 31
0.0
  0
LINE
  5
107
100
AcDbEntity
  8
SCHRAFUR01
 62
     7
100
AcDbLine
 10
109.765221
 20
116.628885
 30
0.0
 11
111.535311
 21
118.398975
 31
0.0
  0
LINE
  5
106
100
AcDbEntity
  8
SCHRAFUR01
 62
     7
100
AcDbLine
 10
111.535311
 20
118.398975
 30
0.0
 11
112.159218
 21
119.023226
 31
0.0
  0
LINE
  5
105
100
AcDbEntity
  8
SCHRAFUR01
 62
     7
100
AcDbLine
 10
102.459896
 20
97.469331
 30
0.0
 11
105.320014
 21
100.329793
 31
0.0
  0
LINE
  5
104
100
AcDbEntity
  8
SCHRAFUR01
 62
     7
100
AcDbLine
 10
106.80175
 20
101.811529
 30
0.0
 11
109.765221
 21
104.775
 31
0.0
  0
LINE
  5
103
100
AcDbEntity
  8
SCHRAFUR01
 62
     7
100
AcDbLine
 10
111.246956
 20
106.256736
 30
0.0
 11
112.159218
 21
107.168997
 31
0.0
  0
LINE
  5
102
100
AcDbEntity
  8
SCHRAFUR01
 62
     7
100
AcDbLine
 10
103.838279
 20
86.993829
 30
0.0
 11
106.80175
 21
89.957644
 31
0.0
  0
LINE
  5
101
100
AcDbEntity
  8
SCHRAFUR01
 62
     7
100
AcDbLine
 10
108.283485
 20
91.439035
 30
0.0
 11
111.246956
 21
94.402851
 31
0.0
  0
LINE
  5
100
100
AcDbEntity
  8
SCHRAFUR01
 62
     7
100
AcDbLine
 10
151.253817
 20
110.701942
 30
0.0
 11
154.217632
 21
113.665413
 31
0.0
  0
LINE
  5
FF
100
AcDbEntity
  8
SCHRAFUR01
 62
     7
100
AcDbLine
 10
155.699023
 20
115.147149
 30
0.0
 11
158.662839
 21
118.11062
 31
0.0
  0
LINE
  5
FE
100
AcDbEntity
  8
SCHRAFUR01
 62
     7
100
AcDbLine
 10
160.14423
 20
119.592356
 30
0.0
 11
160.368506
 21
119.816287
 31
0.0
  0
LINE
  5
FD
100
AcDbEntity
  8
SCHRAFUR01
 62
     7
100
AcDbLine
 10
150.957194
 20
98.55109
 30
0.0
 11
151.253817
 21
98.848058
 31
0.0
  0
LINE
  5
FC
100
AcDbEntity
  8
SCHRAFUR01
 62
     7
100
AcDbLine
 10
152.735552
 20
100.329793
 30
0.0
 11
155.699023
 21
103.293264
 31
0.0
  0
LINE
  5
FB
100
AcDbEntity
  8
SCHRAFUR01
 62
     7
100
AcDbLine
 10
157.180759
 20
104.775
 30
0.0
 11
160.14423
 21
107.738471
 31
0.0
  0
LINE
  5
FA
100
AcDbEntity
  8
SCHRAFUR01
 62
     7
100
AcDbLine
 10
151.040221
 20
86.780233
 30
0.0
 11
152.735552
 21
88.475909
 31
0.0
  0
LINE
  5
F9
100
AcDbEntity
  8
SCHRAFUR01
 62
     7
100
AcDbLine
 10
154.217632
 20
89.957644
 30
0.0
 11
157.180759
 21
92.921115
 31
0.0
  0
LINE
  5
F8
100
AcDbEntity
  8
SCHRAFUR01
 62
     7
100
AcDbLine
 10
158.662839
 20
94.402851
 30
0.0
 11
160.656516
 21
96.396528
 31
0.0
  0
SPLINE
  5
F7
100
AcDbEntity
  8
SCHRAFUR01
 62
     7
100
AcDbSpline
210
0.0
220
0.0
230
1.0
 70
     8
 71
     3
 72
    11
 73
     7
 74
     0
 42
0.00000001
 43
0.00000001
 40
0.0
 40
0.0
 40
0.0
 40
0.0
 40
1.0
 40
1.0
 40
1.0
 40
2.0
 40
2.0
 40
2.0
 40
2.0
 10
108.27969563802083
 20
176.84794786241318
 30
0.0
 10
107.92519531249999
 20
176.23385959201389
 30
0.0
 10
107.13936903211804
 20
176.02336425781249
 30
0.0
 10
106.52510850694443
 20
176.37786458333332
 30
0.0
 10
106.33011610243055
 20
176.49086371527775
 30
0.0
 10
106.16785210503471
 20
176.65295545789928
 30
0.0
 10
106.05519748263887
 20
176.84794786241318
 30
0.0
  0
SPLINE
  5
F6
100
AcDbEntity
  8
SCHRAFUR01
 62
     7
100
AcDbSpline
210
0.0
220
0.0
230
1.0
 70
     8
 71
     3
 72
    11
 73
     7
 74
     0
 42
0.00000001
 43
0.00000001
 40
0.0
 40
0.0
 40
0.0
 40
0.0
 40
1.0
 40
1.0
 40
1.0
 40
2.0
 40
2.0
 40
2.0
 40
2.0
 10
151.10843370225692
 20
176.84794786241318
 30
0.0
 10
150.75358886718749
 20
176.23385959201389
 30
0.0
 10
149.96810709635415
 20
176.02336425781249
 30
0.0
 10
149.35384657118055
 20
176.37786458333332
 30
0.0
 10
149.15850965711803
 20
176.49086371527775
 30
0.0
 10
148.99624565972221
 20
176.65295545789928
 30
0.0
 10
148.88359103732637
 20
176.84794786241318
 30
0.0
  0
SPLINE
  5
F5
100
AcDbEntity
  8
SCHRAFUR01
 62
     7
100
AcDbSpline
210
0.0
220
0.0
230
1.0
 70
     8
 71
     3
 72
    11
 73
     7
 74
     0
 42
0.00000001
 43
0.00000001
 40
0.0
 40
0.0
 40
0.0
 40
0.0
 40
1.0
 40
1.0
 40
1.0
 40
2.0
 40
2.0
 40
2.0
 40
2.0
 10
157.53009168836803
 20
176.84794786241318
 30
0.0
 10
157.1755913628472
 20
176.23385959201389
 30
0.0
 10
156.39045410156248
 20
176.02336425781249
 30
0.0
 10
155.77550455729164
 20
176.37786458333332
 30
0.0
 10
155.58051215277777
 20
176.49086371527775
 30
0.0
 10
155.41824815538192
 20
176.65295545789928
 30
0.0
 10
155.30559353298611
 20
176.84794786241318
 30
0.0
  0
SPLINE
  5
F4
100
AcDbEntity
  8
SCHRAFUR01
 62
     7
100
AcDbSpline
210
0.0
220
0.0
230
1.0
 70
     8
 71
     3
 72
    11
 73
     7
 74
     0
 42
0.00000001
 43
0.00000001
 40
0.0
 40
0.0
 40
0.0
 40
0.0
 40
1.0
 40
1.0
 40
1.0
 40
2.0
 40
2.0
 40
2.0
 40
2.0
 10
144.68608669704861
 20
176.84794786241318
 30
0.0
 10
144.33193088107637
 20
176.23385959201389
 30
0.0
 10
143.54610460069443
 20
176.02336425781249
 30
0.0
 10
142.93184407552081
 20
176.37786458333332
 30
0.0
 10
142.73650716145832
 20
176.49086371527775
 30
0.0
 10
142.57458767361109
 20
176.65295545789928
 30
0.0
 10
142.46158854166666
 20
176.84794786241318
 30
0.0
  0
SPLINE
  5
F3
100
AcDbEntity
  8
SCHRAFUR01
 62
     7
100
AcDbSpline
210
0.0
220
0.0
230
1.0
 70
     8
 71
     3
 72
    11
 73
     7
 74
     0
 42
0.00000001
 43
0.00000001
 40
0.0
 40
0.0
 40
0.0
 40
0.0
 40
1.0
 40
1.0
 40
1.0
 40
2.0
 40
2.0
 40
2.0
 40
2.0
 10
138.26477322048609
 20
176.84794786241318
 30
0.0
 10
137.90992838541666
 20
176.23385959201389
 30
0.0
 10
137.12444661458332
 20
176.02336425781249
 30
0.0
 10
136.5101860894097
 20
176.37786458333332
 30
0.0
 10
136.31484917534721
 20
176.49086371527775
 30
0.0
 10
136.15224066840275
 20
176.65295545789928
 30
0.0
 10
136.04027506510414
 20
176.84794786241318
 30
0.0
  0
SPLINE
  5
F2
100
AcDbEntity
  8
SCHRAFUR01
 62
     7
100
AcDbSpline
210
0.0
220
0.0
230
1.0
 70
     8
 71
     3
 72
    11
 73
     7
 74
     0
 42
0.00000001
 43
0.00000001
 40
0.0
 40
0.0
 40
0.0
 40
0.0
 40
1.0
 40
1.0
 40
1.0
 40
2.0
 40
2.0
 40
2.0
 40
2.0
 10
131.84277072482638
 20
176.84794786241318
 30
0.0
 10
131.48792588975692
 20
176.23385959201389
 30
0.0
 10
130.70209960937498
 20
176.02336425781249
 30
0.0
 10
130.08818359374999
 20
176.37786458333332
 30
0.0
 10
129.89250217013887
 20
176.49086371527775
 30
0.0
 10
129.73058268229167
 20
176.65295545789928
 30
0.0
 10
129.61792805989583
 20
176.84794786241318
 30
0.0
  0
SPLINE
  5
F1
100
AcDbEntity
  8
SCHRAFUR01
 62
     7
100
AcDbSpline
210
0.0
220
0.0
230
1.0
 70
     8
 71
     3
 72
    11
 73
     7
 74
     0
 42
0.00000001
 43
0.00000001
 40
0.0
 40
0.0
 40
0.0
 40
0.0
 40
1.0
 40
1.0
 40
1.0
 40
2.0
 40
2.0
 40
2.0
 40
2.0
 10
126.33337402343749
 20
176.84794786241318
 30
0.0
 10
125.97921820746527
 20
176.23385959201389
 30
0.0
 10
125.19339192708333
 20
176.02336425781249
 30
0.0
 10
124.57913140190971
 20
176.37786458333332
 30
0.0
 10
124.38413899739582
 20
176.49086371527775
 30
0.0
 10
124.22187499999998
 20
176.65295545789928
 30
0.0
 10
124.10887586805555
 20
176.84794786241318
 30
0.0
  0
SPLINE
  5
F0
100
AcDbEntity
  8
SCHRAFUR01
 62
     7
100
AcDbSpline
210
0.0
220
0.0
230
1.0
 70
     8
 71
     3
 72
    11
 73
     7
 74
     0
 42
0.00000001
 43
0.00000001
 40
0.0
 40
0.0
 40
0.0
 40
0.0
 40
1.0
 40
1.0
 40
1.0
 40
2.0
 40
2.0
 40
2.0
 40
2.0
 10
120.2100613064236
 20
176.84794786241318
 30
0.0
 10
119.85556098090277
 20
176.23385959201389
 30
0.0
 10
119.07042371961805
 20
176.02336425781249
 30
0.0
 10
118.45581868489582
 20
176.37786458333332
 30
0.0
 10
118.26048177083332
 20
176.49086371527775
 30
0.0
 10
118.09856228298609
 20
176.65295545789928
 30
0.0
 10
117.98556315104166
 20
176.84794786241318
 30
0.0
  0
SPLINE
  5
EF
100
AcDbEntity
  8
SCHRAFUR01
 62
     7
100
AcDbSpline
210
0.0
220
0.0
230
1.0
 70
     8
 71
     3
 72
    11
 73
     7
 74
     0
 42
0.00000001
 43
0.00000001
 40
0.0
 40
0.0
 40
0.0
 40
0.0
 40
1.0
 40
1.0
 40
1.0
 40
2.0
 40
2.0
 40
2.0
 40
2.0
 10
114.70169813368055
 20
176.84794786241318
 30
0.0
 10
114.34685329861109
 20
176.23385959201389
 30
0.0
 10
113.56137152777777
 20
176.02336425781249
 30
0.0
 10
112.94711100260416
 20
176.37786458333332
 30
0.0
 10
112.75177408854165
 20
176.49086371527775
 30
0.0
 10
112.58951009114583
 20
176.65295545789928
 30
0.0
 10
112.4771999782986
 20
176.84794786241318
 30
0.0
  0
LINE
  5
EE
100
AcDbEntity
  8
SCHRAFUR01
 62
     7
100
AcDbLine
 10
148.883591
 20
176.847948
 30
0.0
 11
144.686087
 21
176.847948
 31
0.0
  0
LINE
  5
ED
100
AcDbEntity
  8
SCHRAFUR01
 62
     7
100
AcDbLine
 10
124.108876
 20
176.847948
 30
0.0
 11
120.210061
 21
176.847948
 31
0.0
  0
LINE
  5
EC
100
AcDbEntity
  8
SCHRAFUR01
 62
     7
100
AcDbLine
 10
108.279696
 20
176.847948
 30
0.0
 11
112.4772
 21
176.847948
 31
0.0
  0
LINE
  5
EB
100
AcDbEntity
  8
SCHRAFUR01
 62
     7
100
AcDbLine
 10
102.210815
 20
176.847948
 30
0.0
 11
106.055197
 21
176.847948
 31
0.0
  0
LINE
  5
EA
100
AcDbEntity
  8
SCHRAFUR01
 62
     7
100
AcDbLine
 10
117.985563
 20
176.847948
 30
0.0
 11
114.701698
 21
176.847948
 31
0.0
  0
LINE
  5
E9
100
AcDbEntity
  8
SCHRAFUR01
 62
     7
100
AcDbLine
 10
136.040275
 20
176.847948
 30
0.0
 11
131.842771
 21
176.847948
 31
0.0
  0
LINE
  5
E8
100
AcDbEntity
  8
SCHRAFUR01
 62
     7
100
AcDbLine
 10
129.617928
 20
176.847948
 30
0.0
 11
126.333374
 21
176.847948
 31
0.0
  0
LINE
  5
E7
100
AcDbEntity
  8
SCHRAFUR01
 62
     7
100
AcDbLine
 10
142.461589
 20
176.847948
 30
0.0
 11
138.264773
 21
176.847948
 31
0.0
  0
LINE
  5
E6
100
AcDbEntity
  8
SCHRAFUR01
 62
     7
100
AcDbLine
 10
155.305594
 20
176.847948
 30
0.0
 11
151.108434
 21
176.847948
 31
0.0
  0
LINE
  5
E5
100
AcDbEntity
  8
SCHRAFUR01
 62
     7
100
AcDbLine
 10
160.388487
 20
176.847948
 30
0.0
 11
157.530092
 21
176.847948
 31
0.0
  0
SPLINE
  5
E4
100
AcDbEntity
  8
SCHRAFUR01
 62
     7
100
AcDbSpline
210
0.0
220
0.0
230
1.0
 70
     8
 71
     3
 72
    11
 73
     7
 74
     0
 42
0.00000001
 43
0.00000001
 40
0.0
 40
0.0
 40
0.0
 40
0.0
 40
1.0
 40
1.0
 40
1.0
 40
2.0
 40
2.0
 40
2.0
 40
2.0
 10
108.27969563802083
 20
119.72981499565971
 30
0.0
 10
107.92519531249999
 20
120.34476453993055
 30
0.0
 10
107.13936903211804
 20
120.55525987413193
 30
0.0
 10
106.52510850694443
 20
120.2007595486111
 30
0.0
 10
106.33011610243055
 20
120.08776041666665
 30
0.0
 10
106.16785210503471
 20
119.92549641927083
 30
0.0
 10
106.05519748263887
 20
119.72981499565971
 30
0.0
  0
SPLINE
  5
E3
100
AcDbEntity
  8
SCHRAFUR01
 62
     7
100
AcDbSpline
210
0.0
220
0.0
230
1.0
 70
     8
 71
     3
 72
    11
 73
     7
 74
     0
 42
0.00000001
 43
0.00000001
 40
0.0
 40
0.0
 40
0.0
 40
0.0
 40
1.0
 40
1.0
 40
1.0
 40
2.0
 40
2.0
 40
2.0
 40
2.0
 10
151.10843370225692
 20
119.72981499565971
 30
0.0
 10
150.75358886718749
 20
120.34476453993055
 30
0.0
 10
149.96810709635415
 20
120.55525987413193
 30
0.0
 10
149.35384657118055
 20
120.2007595486111
 30
0.0
 10
149.15850965711803
 20
120.08776041666665
 30
0.0
 10
148.99624565972221
 20
119.92549641927083
 30
0.0
 10
148.88359103732637
 20
119.72981499565971
 30
0.0
  0
SPLINE
  5
E2
100
AcDbEntity
  8
SCHRAFUR01
 62
     7
100
AcDbSpline
210
0.0
220
0.0
230
1.0
 70
     8
 71
     3
 72
    11
 73
     7
 74
     0
 42
0.00000001
 43
0.00000001
 40
0.0
 40
0.0
 40
0.0
 40
0.0
 40
1.0
 40
1.0
 40
1.0
 40
2.0
 40
2.0
 40
2.0
 40
2.0
 10
157.53009168836803
 20
119.72981499565971
 30
0.0
 10
157.1755913628472
 20
120.34476453993055
 30
0.0
 10
156.39045410156248
 20
120.55525987413193
 30
0.0
 10
155.77550455729164
 20
120.2007595486111
 30
0.0
 10
155.58051215277777
 20
120.08776041666665
 30
0.0
 10
155.41824815538192
 20
119.92549641927083
 30
0.0
 10
155.30559353298611
 20
119.72981499565971
 30
0.0
  0
SPLINE
  5
E1
100
AcDbEntity
  8
SCHRAFUR01
 62
     7
100
AcDbSpline
210
0.0
220
0.0
230
1.0
 70
     8
 71
     3
 72
    11
 73
     7
 74
     0
 42
0.00000001
 43
0.00000001
 40
0.0
 40
0.0
 40
0.0
 40
0.0
 40
1.0
 40
1.0
 40
1.0
 40
2.0
 40
2.0
 40
2.0
 40
2.0
 10
144.68608669704861
 20
119.72981499565971
 30
0.0
 10
144.33193088107637
 20
120.34476453993055
 30
0.0
 10
143.54610460069443
 20
120.55525987413193
 30
0.0
 10
142.93184407552081
 20
120.2007595486111
 30
0.0
 10
142.73650716145832
 20
120.08776041666665
 30
0.0
 10
142.57458767361109
 20
119.92549641927083
 30
0.0
 10
142.46158854166666
 20
119.72981499565971
 30
0.0
  0
SPLINE
  5
E0
100
AcDbEntity
  8
SCHRAFUR01
 62
     7
100
AcDbSpline
210
0.0
220
0.0
230
1.0
 70
     8
 71
     3
 72
    11
 73
     7
 74
     0
 42
0.00000001
 43
0.00000001
 40
0.0
 40
0.0
 40
0.0
 40
0.0
 40
1.0
 40
1.0
 40
1.0
 40
2.0
 40
2.0
 40
2.0
 40
2.0
 10
138.26477322048609
 20
119.72981499565971
 30
0.0
 10
137.90992838541666
 20
120.34476453993055
 30
0.0
 10
137.12444661458332
 20
120.55525987413193
 30
0.0
 10
136.5101860894097
 20
120.2007595486111
 30
0.0
 10
136.31484917534721
 20
120.08776041666665
 30
0.0
 10
136.15224066840275
 20
119.92549641927083
 30
0.0
 10
136.04027506510414
 20
119.72981499565971
 30
0.0
  0
SPLINE
  5
DF
100
AcDbEntity
  8
SCHRAFUR01
 62
     7
100
AcDbSpline
210
0.0
220
0.0
230
1.0
 70
     8
 71
     3
 72
    11
 73
     7
 74
     0
 42
0.00000001
 43
0.00000001
 40
0.0
 40
0.0
 40
0.0
 40
0.0
 40
1.0
 40
1.0
 40
1.0
 40
2.0
 40
2.0
 40
2.0
 40
2.0
 10
131.84277072482638
 20
119.72981499565971
 30
0.0
 10
131.48792588975692
 20
120.34476453993055
 30
0.0
 10
130.70209960937498
 20
120.55525987413193
 30
0.0
 10
130.08818359374999
 20
120.2007595486111
 30
0.0
 10
129.89250217013887
 20
120.08776041666665
 30
0.0
 10
129.73058268229167
 20
119.92549641927083
 30
0.0
 10
129.61792805989583
 20
119.72981499565971
 30
0.0
  0
SPLINE
  5
DE
100
AcDbEntity
  8
SCHRAFUR01
 62
     7
100
AcDbSpline
210
0.0
220
0.0
230
1.0
 70
     8
 71
     3
 72
    11
 73
     7
 74
     0
 42
0.00000001
 43
0.00000001
 40
0.0
 40
0.0
 40
0.0
 40
0.0
 40
1.0
 40
1.0
 40
1.0
 40
2.0
 40
2.0
 40
2.0
 40
2.0
 10
126.33337402343749
 20
119.72981499565971
 30
0.0
 10
125.97921820746527
 20
120.34476453993055
 30
0.0
 10
125.19339192708333
 20
120.55525987413193
 30
0.0
 10
124.57913140190971
 20
120.2007595486111
 30
0.0
 10
124.38413899739582
 20
120.08776041666665
 30
0.0
 10
124.22187499999998
 20
119.92549641927083
 30
0.0
 10
124.10887586805555
 20
119.72981499565971
 30
0.0
  0
SPLINE
  5
DD
100
AcDbEntity
  8
SCHRAFUR01
 62
     7
100
AcDbSpline
210
0.0
220
0.0
230
1.0
 70
     8
 71
     3
 72
    11
 73
     7
 74
     0
 42
0.00000001
 43
0.00000001
 40
0.0
 40
0.0
 40
0.0
 40
0.0
 40
1.0
 40
1.0
 40
1.0
 40
2.0
 40
2.0
 40
2.0
 40
2.0
 10
120.2100613064236
 20
119.72981499565971
 30
0.0
 10
119.85556098090277
 20
120.34476453993055
 30
0.0
 10
119.07042371961805
 20
120.55525987413193
 30
0.0
 10
118.45581868489582
 20
120.2007595486111
 30
0.0
 10
118.26048177083332
 20
120.08776041666665
 30
0.0
 10
118.09856228298609
 20
119.92549641927083
 30
0.0
 10
117.98556315104166
 20
119.72981499565971
 30
0.0
  0
SPLINE
  5
DC
100
AcDbEntity
  8
SCHRAFUR01
 62
     7
100
AcDbSpline
210
0.0
220
0.0
230
1.0
 70
     8
 71
     3
 72
    11
 73
     7
 74
     0
 42
0.00000001
 43
0.00000001
 40
0.0
 40
0.0
 40
0.0
 40
0.0
 40
1.0
 40
1.0
 40
1.0
 40
2.0
 40
2.0
 40
2.0
 40
2.0
 10
114.70169813368055
 20
119.72981499565971
 30
0.0
 10
114.34685329861109
 20
120.34476453993055
 30
0.0
 10
113.56137152777777
 20
120.55525987413193
 30
0.0
 10
112.94711100260416
 20
120.2007595486111
 30
0.0
 10
112.75177408854165
 20
120.08776041666665
 30
0.0
 10
112.58951009114583
 20
119.92549641927083
 30
0.0
 10
112.4771999782986
 20
119.72981499565971
 30
0.0
  0
LINE
  5
DB
100
AcDbEntity
  8
SCHRAFUR01
 62
     7
100
AcDbLine
 10
148.883591
 20
119.729815
 30
0.0
 11
144.686087
 21
119.729815
 31
0.0
  0
LINE
  5
DA
100
AcDbEntity
  8
SCHRAFUR01
 62
     7
100
AcDbLine
 10
124.108876
 20
119.729815
 30
0.0
 11
120.210061
 21
119.729815
 31
0.0
  0
LINE
  5
D9
100
AcDbEntity
  8
SCHRAFUR01
 62
     7
100
AcDbLine
 10
108.279696
 20
119.729815
 30
0.0
 11
112.4772
 21
119.729815
 31
0.0
  0
LINE
  5
D8
100
AcDbEntity
  8
SCHRAFUR01
 62
     7
100
AcDbLine
 10
102.210815
 20
119.729815
 30
0.0
 11
106.055197
 21
119.729815
 31
0.0
  0
LINE
  5
D7
100
AcDbEntity
  8
SCHRAFUR01
 62
     7
100
AcDbLine
 10
117.985563
 20
119.729815
 30
0.0
 11
114.701698
 21
119.729815
 31
0.0
  0
LINE
  5
D6
100
AcDbEntity
  8
SCHRAFUR01
 62
     7
100
AcDbLine
 10
136.040275
 20
119.729815
 30
0.0
 11
131.842771
 21
119.729815
 31
0.0
  0
LINE
  5
D5
100
AcDbEntity
  8
SCHRAFUR01
 62
     7
100
AcDbLine
 10
129.617928
 20
119.729815
 30
0.0
 11
126.333374
 21
119.729815
 31
0.0
  0
LINE
  5
D4
100
AcDbEntity
  8
SCHRAFUR01
 62
     7
100
AcDbLine
 10
142.461589
 20
119.729815
 30
0.0
 11
138.264773
 21
119.729815
 31
0.0
  0
LINE
  5
D3
100
AcDbEntity
  8
SCHRAFUR01
 62
     7
100
AcDbLine
 10
155.305594
 20
119.729815
 30
0.0
 11
151.108434
 21
119.729815
 31
0.0
  0
LINE
  5
D2
100
AcDbEntity
  8
SCHRAFUR01
 62
     7
100
AcDbLine
 10
160.388487
 20
119.729815
 30
0.0
 11
157.530092
 21
119.729815
 31
0.0
  0
LINE
  5
D0
100
AcDbEntity
  8
EBENE_13
 62
     7
100
AcDbLine
 10
159.580613
 20
176.847948
 30
0.0
 11
160.258952
 21
176.169609
 31
0.0
  0
LINE
  5
CF
100
AcDbEntity
  8
EBENE_13
 62
     7
100
AcDbLine
 10
154.839128
 20
176.847948
 30
0.0
 11
159.171335
 21
172.515913
 31
0.0
  0
LINE
  5
CE
100
AcDbEntity
  8
EBENE_13
 62
     7
100
AcDbLine
 10
150.54585
 20
176.399913
 30
0.0
 11
154.42985
 21
172.515913
 31
0.0
  0
LINE
  5
CD
100
AcDbEntity
  8
EBENE_13
 62
     7
100
AcDbLine
 10
145.356158
 20
176.847948
 30
0.0
 11
149.688365
 21
172.515913
 31
0.0
  0
LINE
  5
CC
100
AcDbEntity
  8
EBENE_13
 62
     7
100
AcDbLine
 10
140.614673
 20
176.847948
 30
0.0
 11
144.94688
 21
172.515913
 31
0.0
  0
LINE
  5
CB
100
AcDbEntity
  8
EBENE_13
 62
     7
100
AcDbLine
 10
135.872843
 20
176.847948
 30
0.0
 11
135.978952
 21
176.742011
 31
0.0
  0
LINE
  5
CA
100
AcDbEntity
  8
EBENE_13
 62
     7
100
AcDbLine
 10
136.274542
 20
176.44625
 30
0.0
 11
140.205396
 21
172.515913
 31
0.0
  0
LINE
  5
C9
100
AcDbEntity
  8
EBENE_13
 62
     7
100
AcDbLine
 10
131.452097
 20
176.527726
 30
0.0
 11
135.463566
 21
172.515913
 31
0.0
  0
LINE
  5
C8
100
AcDbEntity
  8
EBENE_13
 62
     7
100
AcDbLine
 10
126.389874
 20
176.847948
 30
0.0
 11
130.722081
 21
172.515913
 31
0.0
  0
LINE
  5
C7
100
AcDbEntity
  8
EBENE_13
 62
     7
100
AcDbLine
 10
121.648389
 20
176.847948
 30
0.0
 11
125.980596
 21
172.515913
 31
0.0
  0
LINE
  5
C6
100
AcDbEntity
  8
EBENE_13
 62
     7
100
AcDbLine
 10
116.906904
 20
176.847948
 30
0.0
 11
121.239111
 21
172.515913
 31
0.0
  0
LINE
  5
C5
100
AcDbEntity
  8
EBENE_13
 62
     7
100
AcDbLine
 10
112.165074
 20
176.847948
 30
0.0
 11
116.497626
 21
172.515913
 31
0.0
  0
LINE
  5
C4
100
AcDbEntity
  8
EBENE_13
 62
     7
100
AcDbLine
 10
107.809096
 20
176.462614
 30
0.0
 11
111.755797
 21
172.515913
 31
0.0
  0
LINE
  5
C3
100
AcDbEntity
  8
EBENE_13
 62
     7
100
AcDbLine
 10
102.682104
 20
176.847948
 30
0.0
 11
107.014312
 21
172.515913
 31
0.0
  0
LINE
  5
C2
100
AcDbEntity
  8
EBENE_13
 62
     7
100
AcDbLine
 10
102.081624
 20
172.706943
 30
0.0
 11
102.272827
 21
172.515913
 31
0.0
  0
LINE
  5
C1
100
AcDbEntity
  8
EBENE_13
 62
     7
100
AcDbLine
 10
102.081624
 20
123.871853
 30
0.0
 11
102.272827
 21
124.063056
 31
0.0
  0
LINE
  5
C0
100
AcDbEntity
  8
EBENE_13
 62
     7
100
AcDbLine
 10
102.682104
 20
119.729815
 30
0.0
 11
107.014312
 21
124.063056
 31
0.0
  0
LINE
  5
BF
100
AcDbEntity
  8
EBENE_13
 62
     7
100
AcDbLine
 10
107.809096
 20
120.115666
 30
0.0
 11
111.755797
 21
124.063056
 31
0.0
  0
LINE
  5
BE
100
AcDbEntity
  8
EBENE_13
 62
     7
100
AcDbLine
 10
112.165074
 20
119.729815
 30
0.0
 11
116.497626
 21
124.063056
 31
0.0
  0
LINE
  5
BD
100
AcDbEntity
  8
EBENE_13
 62
     7
100
AcDbLine
 10
116.906904
 20
119.729815
 30
0.0
 11
121.239111
 21
124.063056
 31
0.0
  0
LINE
  5
BC
100
AcDbEntity
  8
EBENE_13
 62
     7
100
AcDbLine
 10
121.648389
 20
119.729815
 30
0.0
 11
125.980596
 21
124.063056
 31
0.0
  0
LINE
  5
BB
100
AcDbEntity
  8
EBENE_13
 62
     7
100
AcDbLine
 10
126.389874
 20
119.729815
 30
0.0
 11
130.722081
 21
124.063056
 31
0.0
  0
LINE
  5
BA
100
AcDbEntity
  8
EBENE_13
 62
     7
100
AcDbLine
 10
131.452097
 20
120.050553
 30
0.0
 11
135.463566
 21
124.063056
 31
0.0
  0
LINE
  5
B9
100
AcDbEntity
  8
EBENE_13
 62
     7
100
AcDbLine
 10
135.872843
 20
119.729815
 30
0.0
 11
135.978952
 21
119.835924
 31
0.0
  0
LINE
  5
B8
100
AcDbEntity
  8
EBENE_13
 62
     7
100
AcDbLine
 10
136.274542
 20
120.132547
 30
0.0
 11
140.205396
 21
124.063056
 31
0.0
  0
LINE
  5
B7
100
AcDbEntity
  8
EBENE_13
 62
     7
100
AcDbLine
 10
140.614673
 20
119.729815
 30
0.0
 11
144.94688
 21
124.063056
 31
0.0
  0
LINE
  5
B6
100
AcDbEntity
  8
EBENE_13
 62
     7
100
AcDbLine
 10
145.356158
 20
119.729815
 30
0.0
 11
149.688365
 21
124.063056
 31
0.0
  0
LINE
  5
B5
100
AcDbEntity
  8
EBENE_13
 62
     7
100
AcDbLine
 10
150.54585
 20
120.178711
 30
0.0
 11
154.42985
 21
124.063056
 31
0.0
  0
LINE
  5
B4
100
AcDbEntity
  8
EBENE_13
 62
     7
100
AcDbLine
 10
154.839128
 20
119.729815
 30
0.0
 11
159.171335
 21
124.063056
 31
0.0
  0
LINE
  5
B3
100
AcDbEntity
  8
EBENE_13
 62
     7
100
AcDbLine
 10
159.580613
 20
119.729815
 30
0.0
 11
160.258952
 21
120.409188
 31
0.0
  0
SPLINE
  5
B2
100
AcDbEntity
  8
EBENE_13
 62
     7
100
AcDbSpline
210
0.0
220
0.0
230
1.0
 70
     8
 71
     3
 72
    11
 73
     7
 74
     0
 42
0.00000001
 43
0.00000001
 40
0.0
 40
0.0
 40
0.0
 40
0.0
 40
1.0
 40
1.0
 40
1.0
 40
2.0
 40
2.0
 40
2.0
 40
2.0
 10
108.15050455729165
 20
176.84794786241318
 30
0.0
 10
107.79565972222221
 20
176.23385959201389
 30
0.0
 10
107.01017795138888
 20
176.02336425781249
 30
0.0
 10
106.39591742621526
 20
176.37786458333332
 30
0.0
 10
106.20092502170138
 20
176.49086371527775
 30
0.0
 10
106.03866102430554
 20
176.65295545789928
 30
0.0
 10
105.92600640190972
 20
176.84794786241318
 30
0.0
  0
SPLINE
  5
B1
100
AcDbEntity
  8
EBENE_13
 62
     7
100
AcDbSpline
210
0.0
220
0.0
230
1.0
 70
     8
 71
     3
 72
    11
 73
     7
 74
     0
 42
0.00000001
 43
0.00000001
 40
0.0
 40
0.0
 40
0.0
 40
0.0
 40
1.0
 40
1.0
 40
1.0
 40
2.0
 40
2.0
 40
2.0
 40
2.0
 10
150.97924262152776
 20
176.84794786241318
 30
0.0
 10
150.62439778645833
 20
176.23385959201389
 30
0.0
 10
149.83891601562499
 20
176.02336425781249
 30
0.0
 10
149.22465549045137
 20
176.37786458333332
 30
0.0
 10
149.02931857638887
 20
176.49086371527775
 30
0.0
 10
148.86705457899305
 20
176.65295545789928
 30
0.0
 10
148.75439995659721
 20
176.84794786241318
 30
0.0
  0
SPLINE
  5
B0
100
AcDbEntity
  8
EBENE_13
 62
     7
100
AcDbSpline
210
0.0
220
0.0
230
1.0
 70
     8
 71
     3
 72
    11
 73
     7
 74
     0
 42
0.00000001
 43
0.00000001
 40
0.0
 40
0.0
 40
0.0
 40
0.0
 40
1.0
 40
1.0
 40
1.0
 40
2.0
 40
2.0
 40
2.0
 40
2.0
 10
157.40090060763887
 20
176.84794786241318
 30
0.0
 10
157.04640028211804
 20
176.23385959201389
 30
0.0
 10
156.2609185112847
 20
176.02336425781249
 30
0.0
 10
155.64631347656248
 20
176.37786458333332
 30
0.0
 10
155.45132107204859
 20
176.49086371527775
 30
0.0
 10
155.28905707465276
 20
176.65295545789928
 30
0.0
 10
155.17640245225692
 20
176.84794786241318
 30
0.0
  0
SPLINE
  5
AF
100
AcDbEntity
  8
EBENE_13
 62
     7
100
AcDbSpline
210
0.0
220
0.0
230
1.0
 70
     8
 71
     3
 72
    11
 73
     7
 74
     0
 42
0.00000001
 43
0.00000001
 40
0.0
 40
0.0
 40
0.0
 40
0.0
 40
1.0
 40
1.0
 40
1.0
 40
2.0
 40
2.0
 40
2.0
 40
2.0
 10
144.55689561631942
 20
176.84794786241318
 30
0.0
 10
144.20239529079859
 20
176.23385959201389
 30
0.0
 10
143.41691351996528
 20
176.02336425781249
 30
0.0
 10
142.80265299479166
 20
176.37786458333332
 30
0.0
 10
142.60697157118054
 20
176.49086371527775
 30
0.0
 10
142.44539659288193
 20
176.65295545789928
 30
0.0
 10
142.3323974609375
 20
176.84794786241318
 30
0.0
  0
SPLINE
  5
AE
100
AcDbEntity
  8
EBENE_13
 62
     7
100
AcDbSpline
210
0.0
220
0.0
230
1.0
 70
     8
 71
     3
 72
    11
 73
     7
 74
     0
 42
0.00000001
 43
0.00000001
 40
0.0
 40
0.0
 40
0.0
 40
0.0
 40
1.0
 40
1.0
 40
1.0
 40
2.0
 40
2.0
 40
2.0
 40
2.0
 10
138.13523763020831
 20
176.84794786241318
 30
0.0
 10
137.78073730468748
 20
176.23385959201389
 30
0.0
 10
136.99525553385416
 20
176.02336425781249
 30
0.0
 10
136.38065049913195
 20
176.37786458333332
 30
0.0
 10
136.18565809461805
 20
176.49086371527775
 30
0.0
 10
136.0230495876736
 20
176.65295545789928
 30
0.0
 10
135.91073947482639
 20
176.84794786241318
 30
0.0
  0
SPLINE
  5
AD
100
AcDbEntity
  8
EBENE_13
 62
     7
100
AcDbSpline
210
0.0
220
0.0
230
1.0
 70
     8
 71
     3
 72
    11
 73
     7
 74
     0
 42
0.00000001
 43
0.00000001
 40
0.0
 40
0.0
 40
0.0
 40
0.0
 40
1.0
 40
1.0
 40
1.0
 40
2.0
 40
2.0
 40
2.0
 40
2.0
 10
131.71357964409722
 20
176.84794786241318
 30
0.0
 10
131.35873480902777
 20
176.23385959201389
 30
0.0
 10
130.57290852864583
 20
176.02336425781249
 30
0.0
 10
129.95899251302083
 20
176.37786458333332
 30
0.0
 10
129.76331108940971
 20
176.49086371527775
 30
0.0
 10
129.60104709201389
 20
176.65295545789928
 30
0.0
 10
129.48873697916665
 20
176.84794786241318
 30
0.0
  0
SPLINE
  5
AC
100
AcDbEntity
  8
EBENE_13
 62
     7
100
AcDbSpline
210
0.0
220
0.0
230
1.0
 70
     8
 71
     3
 72
    11
 73
     7
 74
     0
 42
0.00000001
 43
0.00000001
 40
0.0
 40
0.0
 40
0.0
 40
0.0
 40
1.0
 40
1.0
 40
1.0
 40
2.0
 40
2.0
 40
2.0
 40
2.0
 10
126.20418294270833
 20
176.84794786241318
 30
0.0
 10
125.85002712673609
 20
176.23385959201389
 30
0.0
 10
125.06420084635415
 20
176.02336425781249
 30
0.0
 10
124.44994032118055
 20
176.37786458333332
 30
0.0
 10
124.25494791666665
 20
176.49086371527775
 30
0.0
 10
124.09268391927083
 20
176.65295545789928
 30
0.0
 10
123.97968478732638
 20
176.84794786241318
 30
0.0
  0
SPLINE
  5
AB
100
AcDbEntity
  8
EBENE_13
 62
     7
100
AcDbSpline
210
0.0
220
0.0
230
1.0
 70
     8
 71
     3
 72
    11
 73
     7
 74
     0
 42
0.00000001
 43
0.00000001
 40
0.0
 40
0.0
 40
0.0
 40
0.0
 40
1.0
 40
1.0
 40
1.0
 40
2.0
 40
2.0
 40
2.0
 40
2.0
 10
120.08087022569444
 20
176.84794786241318
 30
0.0
 10
119.72636990017359
 20
176.23385959201389
 30
0.0
 10
118.94088812934027
 20
176.02336425781249
 30
0.0
 10
118.32662760416666
 20
176.37786458333332
 30
0.0
 10
118.13129069010415
 20
176.49086371527775
 30
0.0
 10
117.96937120225694
 20
176.65295545789928
 30
0.0
 10
117.85637207031249
 20
176.84794786241318
 30
0.0
  0
SPLINE
  5
AA
100
AcDbEntity
  8
EBENE_13
 62
     7
100
AcDbSpline
210
0.0
220
0.0
230
1.0
 70
     8
 71
     3
 72
    11
 73
     7
 74
     0
 42
0.00000001
 43
0.00000001
 40
0.0
 40
0.0
 40
0.0
 40
0.0
 40
1.0
 40
1.0
 40
1.0
 40
2.0
 40
2.0
 40
2.0
 40
2.0
 10
114.57250705295138
 20
176.84794786241318
 30
0.0
 10
114.21766221788194
 20
176.23385959201389
 30
0.0
 10
113.43218044704859
 20
176.02336425781249
 30
0.0
 10
112.81791992187499
 20
176.37786458333332
 30
0.0
 10
112.62258300781249
 20
176.49086371527775
 30
0.0
 10
112.46031901041665
 20
176.65295545789928
 30
0.0
 10
112.34800889756943
 20
176.84794786241318
 30
0.0
  0
LINE
  5
A9
100
AcDbEntity
  8
EBENE_13
 62
     7
100
AcDbLine
 10
148.7544
 20
176.847948
 30
0.0
 11
144.556896
 21
176.847948
 31
0.0
  0
LINE
  5
A8
100
AcDbEntity
  8
EBENE_13
 62
     7
100
AcDbLine
 10
123.979685
 20
176.847948
 30
0.0
 11
120.08087
 21
176.847948
 31
0.0
  0
LINE
  5
A7
100
AcDbEntity
  8
EBENE_13
 62
     7
100
AcDbLine
 10
108.150505
 20
176.847948
 30
0.0
 11
112.348009
 21
176.847948
 31
0.0
  0
LINE
  5
A6
100
AcDbEntity
  8
EBENE_13
 62
     7
100
AcDbLine
 10
102.081624
 20
176.847948
 30
0.0
 11
105.926006
 21
176.847948
 31
0.0
  0
LINE
  5
A5
100
AcDbEntity
  8
EBENE_13
 62
     7
100
AcDbLine
 10
117.856372
 20
176.847948
 30
0.0
 11
114.572507
 21
176.847948
 31
0.0
  0
LINE
  5
A4
100
AcDbEntity
  8
EBENE_13
 62
     7
100
AcDbLine
 10
135.910739
 20
176.847948
 30
0.0
 11
131.71358
 21
176.847948
 31
0.0
  0
LINE
  5
A3
100
AcDbEntity
  8
EBENE_13
 62
     7
100
AcDbLine
 10
129.488737
 20
176.847948
 30
0.0
 11
126.204183
 21
176.847948
 31
0.0
  0
LINE
  5
A2
100
AcDbEntity
  8
EBENE_13
 62
     7
100
AcDbLine
 10
142.332397
 20
176.847948
 30
0.0
 11
138.135238
 21
176.847948
 31
0.0
  0
LINE
  5
A1
100
AcDbEntity
  8
EBENE_13
 62
     7
100
AcDbLine
 10
155.176402
 20
176.847948
 30
0.0
 11
150.979243
 21
176.847948
 31
0.0
  0
LINE
  5
A0
100
AcDbEntity
  8
EBENE_13
 62
     7
100
AcDbLine
 10
160.258952
 20
176.847948
 30
0.0
 11
157.400901
 21
176.847948
 31
0.0
  0
SPLINE
  5
9F
100
AcDbEntity
  8
EBENE_13
 62
     7
100
AcDbSpline
210
0.0
220
0.0
230
1.0
 70
     8
 71
     3
 72
    11
 73
     7
 74
     0
 42
0.00000001
 43
0.00000001
 40
0.0
 40
0.0
 40
0.0
 40
0.0
 40
1.0
 40
1.0
 40
1.0
 40
2.0
 40
2.0
 40
2.0
 40
2.0
 10
108.15050455729165
 20
119.72981499565971
 30
0.0
 10
107.79565972222221
 20
120.34476453993055
 30
0.0
 10
107.01017795138888
 20
120.55525987413193
 30
0.0
 10
106.39591742621526
 20
120.2007595486111
 30
0.0
 10
106.20092502170138
 20
120.08776041666665
 30
0.0
 10
106.03866102430554
 20
119.92549641927083
 30
0.0
 10
105.92600640190972
 20
119.72981499565971
 30
0.0
  0
SPLINE
  5
9E
100
AcDbEntity
  8
EBENE_13
 62
     7
100
AcDbSpline
210
0.0
220
0.0
230
1.0
 70
     8
 71
     3
 72
    11
 73
     7
 74
     0
 42
0.00000001
 43
0.00000001
 40
0.0
 40
0.0
 40
0.0
 40
0.0
 40
1.0
 40
1.0
 40
1.0
 40
2.0
 40
2.0
 40
2.0
 40
2.0
 10
150.97924262152776
 20
119.72981499565971
 30
0.0
 10
150.62439778645833
 20
120.34476453993055
 30
0.0
 10
149.83891601562499
 20
120.55525987413193
 30
0.0
 10
149.22465549045137
 20
120.2007595486111
 30
0.0
 10
149.02931857638887
 20
120.08776041666665
 30
0.0
 10
148.86705457899305
 20
119.92549641927083
 30
0.0
 10
148.75439995659721
 20
119.72981499565971
 30
0.0
  0
SPLINE
  5
9D
100
AcDbEntity
  8
EBENE_13
 62
     7
100
AcDbSpline
210
0.0
220
0.0
230
1.0
 70
     8
 71
     3
 72
    11
 73
     7
 74
     0
 42
0.00000001
 43
0.00000001
 40
0.0
 40
0.0
 40
0.0
 40
0.0
 40
1.0
 40
1.0
 40
1.0
 40
2.0
 40
2.0
 40
2.0
 40
2.0
 10
157.40090060763887
 20
119.72981499565971
 30
0.0
 10
157.04640028211804
 20
120.34476453993055
 30
0.0
 10
156.2609185112847
 20
120.55525987413193
 30
0.0
 10
155.64631347656248
 20
120.2007595486111
 30
0.0
 10
155.45132107204859
 20
120.08776041666665
 30
0.0
 10
155.28905707465276
 20
119.92549641927083
 30
0.0
 10
155.17640245225692
 20
119.72981499565971
 30
0.0
  0
SPLINE
  5
9C
100
AcDbEntity
  8
EBENE_13
 62
     7
100
AcDbSpline
210
0.0
220
0.0
230
1.0
 70
     8
 71
     3
 72
    11
 73
     7
 74
     0
 42
0.00000001
 43
0.00000001
 40
0.0
 40
0.0
 40
0.0
 40
0.0
 40
1.0
 40
1.0
 40
1.0
 40
2.0
 40
2.0
 40
2.0
 40
2.0
 10
144.55689561631942
 20
119.72981499565971
 30
0.0
 10
144.20239529079859
 20
120.34476453993055
 30
0.0
 10
143.41691351996528
 20
120.55525987413193
 30
0.0
 10
142.80265299479166
 20
120.2007595486111
 30
0.0
 10
142.60697157118054
 20
120.08776041666665
 30
0.0
 10
142.44539659288193
 20
119.92549641927083
 30
0.0
 10
142.3323974609375
 20
119.72981499565971
 30
0.0
  0
SPLINE
  5
9B
100
AcDbEntity
  8
EBENE_13
 62
     7
100
AcDbSpline
210
0.0
220
0.0
230
1.0
 70
     8
 71
     3
 72
    11
 73
     7
 74
     0
 42
0.00000001
 43
0.00000001
 40
0.0
 40
0.0
 40
0.0
 40
0.0
 40
1.0
 40
1.0
 40
1.0
 40
2.0
 40
2.0
 40
2.0
 40
2.0
 10
138.13523763020831
 20
119.72981499565971
 30
0.0
 10
137.78073730468748
 20
120.34476453993055
 30
0.0
 10
136.99525553385416
 20
120.55525987413193
 30
0.0
 10
136.38065049913195
 20
120.2007595486111
 30
0.0
 10
136.18565809461805
 20
120.08776041666665
 30
0.0
 10
136.0230495876736
 20
119.92549641927083
 30
0.0
 10
135.91073947482639
 20
119.72981499565971
 30
0.0
  0
SPLINE
  5
9A
100
AcDbEntity
  8
EBENE_13
 62
     7
100
AcDbSpline
210
0.0
220
0.0
230
1.0
 70
     8
 71
     3
 72
    11
 73
     7
 74
     0
 42
0.00000001
 43
0.00000001
 40
0.0
 40
0.0
 40
0.0
 40
0.0
 40
1.0
 40
1.0
 40
1.0
 40
2.0
 40
2.0
 40
2.0
 40
2.0
 10
131.71357964409722
 20
119.72981499565971
 30
0.0
 10
131.35873480902777
 20
120.34476453993055
 30
0.0
 10
130.57290852864583
 20
120.55525987413193
 30
0.0
 10
129.95899251302083
 20
120.2007595486111
 30
0.0
 10
129.76331108940971
 20
120.08776041666665
 30
0.0
 10
129.60104709201389
 20
119.92549641927083
 30
0.0
 10
129.48873697916665
 20
119.72981499565971
 30
0.0
  0
SPLINE
  5
99
100
AcDbEntity
  8
EBENE_13
 62
     7
100
AcDbSpline
210
0.0
220
0.0
230
1.0
 70
     8
 71
     3
 72
    11
 73
     7
 74
     0
 42
0.00000001
 43
0.00000001
 40
0.0
 40
0.0
 40
0.0
 40
0.0
 40
1.0
 40
1.0
 40
1.0
 40
2.0
 40
2.0
 40
2.0
 40
2.0
 10
126.20418294270833
 20
119.72981499565971
 30
0.0
 10
125.85002712673609
 20
120.34476453993055
 30
0.0
 10
125.06420084635415
 20
120.55525987413193
 30
0.0
 10
124.44994032118055
 20
120.2007595486111
 30
0.0
 10
124.25494791666665
 20
120.08776041666665
 30
0.0
 10
124.09268391927083
 20
119.92549641927083
 30
0.0
 10
123.97968478732638
 20
119.72981499565971
 30
0.0
  0
SPLINE
  5
98
100
AcDbEntity
  8
EBENE_13
 62
     7
100
AcDbSpline
210
0.0
220
0.0
230
1.0
 70
     8
 71
     3
 72
    11
 73
     7
 74
     0
 42
0.00000001
 43
0.00000001
 40
0.0
 40
0.0
 40
0.0
 40
0.0
 40
1.0
 40
1.0
 40
1.0
 40
2.0
 40
2.0
 40
2.0
 40
2.0
 10
120.08087022569444
 20
119.72981499565971
 30
0.0
 10
119.72636990017359
 20
120.34476453993055
 30
0.0
 10
118.94088812934027
 20
120.55525987413193
 30
0.0
 10
118.32662760416666
 20
120.2007595486111
 30
0.0
 10
118.13129069010415
 20
120.08776041666665
 30
0.0
 10
117.96937120225694
 20
119.92549641927083
 30
0.0
 10
117.85637207031249
 20
119.72981499565971
 30
0.0
  0
SPLINE
  5
97
100
AcDbEntity
  8
EBENE_13
 62
     7
100
AcDbSpline
210
0.0
220
0.0
230
1.0
 70
     8
 71
     3
 72
    11
 73
     7
 74
     0
 42
0.00000001
 43
0.00000001
 40
0.0
 40
0.0
 40
0.0
 40
0.0
 40
1.0
 40
1.0
 40
1.0
 40
2.0
 40
2.0
 40
2.0
 40
2.0
 10
114.57250705295138
 20
119.72981499565971
 30
0.0
 10
114.21766221788194
 20
120.34476453993055
 30
0.0
 10
113.43218044704859
 20
120.55525987413193
 30
0.0
 10
112.81791992187499
 20
120.2007595486111
 30
0.0
 10
112.62258300781249
 20
120.08776041666665
 30
0.0
 10
112.46031901041665
 20
119.92549641927083
 30
0.0
 10
112.34800889756943
 20
119.72981499565971
 30
0.0
  0
LINE
  5
96
100
AcDbEntity
  8
EBENE_13
 62
     7
100
AcDbLine
 10
148.7544
 20
119.729815
 30
0.0
 11
144.556896
 21
119.729815
 31
0.0
  0
LINE
  5
95
100
AcDbEntity
  8
EBENE_13
 62
     7
100
AcDbLine
 10
123.979685
 20
119.729815
 30
0.0
 11
120.08087
 21
119.729815
 31
0.0
  0
LINE
  5
94
100
AcDbEntity
  8
EBENE_13
 62
     7
100
AcDbLine
 10
108.150505
 20
119.729815
 30
0.0
 11
112.348009
 21
119.729815
 31
0.0
  0
LINE
  5
93
100
AcDbEntity
  8
EBENE_13
 62
     7
100
AcDbLine
 10
102.081624
 20
119.729815
 30
0.0
 11
105.926006
 21
119.729815
 31
0.0
  0
LINE
  5
92
100
AcDbEntity
  8
EBENE_13
 62
     7
100
AcDbLine
 10
117.856372
 20
119.729815
 30
0.0
 11
114.572507
 21
119.729815
 31
0.0
  0
LINE
  5
91
100
AcDbEntity
  8
EBENE_13
 62
     7
100
AcDbLine
 10
135.910739
 20
119.729815
 30
0.0
 11
131.71358
 21
119.729815
 31
0.0
  0
LINE
  5
90
100
AcDbEntity
  8
EBENE_13
 62
     7
100
AcDbLine
 10
129.488737
 20
119.729815
 30
0.0
 11
126.204183
 21
119.729815
 31
0.0
  0
LINE
  5
8F
100
AcDbEntity
  8
EBENE_13
 62
     7
100
AcDbLine
 10
142.332397
 20
119.729815
 30
0.0
 11
138.135238
 21
119.729815
 31
0.0
  0
LINE
  5
8E
100
AcDbEntity
  8
EBENE_13
 62
     7
100
AcDbLine
 10
155.176402
 20
119.729815
 30
0.0
 11
150.979243
 21
119.729815
 31
0.0
  0
LINE
  5
8D
100
AcDbEntity
  8
EBENE_13
 62
     7
100
AcDbLine
 10
160.258952
 20
119.729815
 30
0.0
 11
157.400901
 21
119.729815
 31
0.0
  0
LINE
  5
8B
100
AcDbEntity
  8
MITTELLINIE
  6
AI9-LType1
 62
     7
100
AcDbLine
 10
171.923356
 20
148.325313
 30
0.0
 11
92.238125
 21
148.325313
 31
0.0
  0
LINE
  5
89
100
AcDbEntity
  8
MITTELLINIE
 62
     7
100
AcDbLine
 10
101.376241
 20
167.192551
 30
0.0
 11
114.67586
 21
167.192551
 31
0.0
  0
LINE
  5
88
100
AcDbEntity
  8
MITTELLINIE
 62
     7
100
AcDbLine
 10
101.193306
 20
129.458765
 30
0.0
 11
114.67586
 21
129.458765
 31
0.0
  0
LINE
  5
86
100
AcDbEntity
  8
OBJEKT
 62
     7
100
AcDbLine
 10
160.538349
 20
172.573962
 30
0.0
 11
102.341557
 21
172.573962
 31
0.0
  0
LINE
  5
84
100
AcDbEntity
  8
AM_8
 62
     7
100
AcDbLine
 10
106.904069
 20
182.723386
 30
0.0
 11
85.155181
 21
187.398897
 31
0.0
  0
LINE
  5
83
100
AcDbEntity
  8
AM_8
 62
     7
100
AcDbLine
 10
114.936998
 20
119.740495
 30
0.0
 11
70.771391
 21
102.697607
 31
0.0
  0
LINE
  5
82
100
AcDbEntity
  8
AM_8
 62
     7
100
AcDbLine
 10
105.665902
 20
164.846958
 30
0.0
 11
61.820171
 21
168.308245
 31
0.0
  0
LINE
  5
80
100
AcDbEntity
  8
AM_0
 62
     7
100
AcDbLine
 10
160.538349
 20
209.263368
 30
0.0
 11
160.538349
 21
172.576546
 31
0.0
  0
LINE
  5
7F
100
AcDbEntity
  8
AM_0
 62
     7
100
AcDbLine
 10
160.538349
 20
124.079248
 30
0.0
 11
160.538349
 21
86.763007
 31
0.0
  0
LINE
  5
7E
100
AcDbEntity
  8
AM_0
 62
     7
100
AcDbLine
 10
160.538349
 20
172.576546
 30
0.0
 11
102.341557
 21
172.576546
 31
0.0
  0
LINE
  5
7D
100
AcDbEntity
  8
AM_0
 62
     7
100
AcDbLine
 10
150.839027
 20
209.263368
 30
0.0
 11
150.839027
 21
176.473294
 31
0.0
  0
LINE
  5
7C
100
AcDbEntity
  8
AM_0
 62
     7
100
AcDbLine
 10
150.839027
 20
120.177333
 30
0.0
 11
150.839027
 21
86.763007
 31
0.0
  0
LINE
  5
7B
100
AcDbEntity
  8
AM_0
 62
     7
100
AcDbLine
 10
112.041395
 20
86.763007
 30
0.0
 11
112.041395
 21
119.740495
 31
0.0
  0
LINE
  5
7A
100
AcDbEntity
  8
AM_0
 62
     7
100
AcDbLine
 10
112.041395
 20
176.910304
 30
0.0
 11
112.041395
 21
209.263368
 31
0.0
  0
LINE
  5
79
100
AcDbEntity
  8
AM_0
 62
     7
100
AcDbLine
 10
102.341557
 20
209.263368
 30
0.0
 11
102.341557
 21
172.576546
 31
0.0
  0
LINE
  5
78
100
AcDbEntity
  8
AM_0
 62
     7
100
AcDbLine
 10
102.341557
 20
124.079248
 30
0.0
 11
102.341557
 21
86.763007
 31
0.0
  0
LINE
  5
77
100
AcDbEntity
  8
AM_0
 62
     7
100
AcDbLine
 10
160.538349
 20
172.576546
 30
0.0
 11
160.538349
 21
161.662139
 31
0.0
  0
LINE
  5
76
100
AcDbEntity
  8
AM_0
 62
     7
100
AcDbLine
 10
160.538349
 20
134.988832
 30
0.0
 11
160.538349
 21
124.079248
 31
0.0
  0
LINE
  5
75
100
AcDbEntity
  8
AM_0
 62
     7
100
AcDbLine
 10
102.341557
 20
172.576546
 30
0.0
 11
102.341557
 21
161.662139
 31
0.0
  0
LINE
  5
74
100
AcDbEntity
  8
AM_0
 62
     7
100
AcDbLine
 10
102.341557
 20
134.988832
 30
0.0
 11
102.341557
 21
124.079248
 31
0.0
  0
LINE
  5
73
100
AcDbEntity
  8
AM_0
 62
     7
100
AcDbLine
 10
168.383865
 20
161.662139
 30
0.0
 11
112.049319
 21
161.662139
 31
0.0
  0
LINE
  5
72
100
AcDbEntity
  8
AM_0
 62
     7
100
AcDbLine
 10
103.319447
 20
161.662139
 30
0.0
 11
95.761424
 21
161.662139
 31
0.0
  0
LINE
  5
71
100
AcDbEntity
  8
AM_0
 62
     7
100
AcDbLine
 10
168.383865
 20
134.988832
 30
0.0
 11
112.049319
 21
134.988832
 31
0.0
  0
LINE
  5
70
100
AcDbEntity
  8
AM_0
 62
     7
100
AcDbLine
 10
103.319447
 20
134.988832
 30
0.0
 11
95.761424
 21
134.988832
 31
0.0
  0
SPLINE
  5
6F
100
AcDbEntity
  8
AM_0
 62
     7
100
AcDbSpline
210
0.0
220
0.0
230
1.0
 70
     8
 71
     3
 72
     8
 73
     4
 74
     0
 42
0.00000001
 43
0.00000001
 40
0.0
 40
0.0
 40
0.0
 40
0.0
 40
1.0
 40
1.0
 40
1.0
 40
1.0
 10
168.46723632812498
 20
145.36511501736109
 30
0.0
 10
170.06472710503471
 20
149.97103542751734
 30
0.0
 10
170.75477973090275
 20
154.84291720920137
 30
0.0
 10
170.49846462673611
 20
159.71100938585067
 30
0.0
  0
SPLINE
  5
6E
100
AcDbEntity
  8
AM_0
 62
     7
100
AcDbSpline
210
0.0
220
0.0
230
1.0
 70
     8
 71
     3
 72
     8
 73
     4
 74
     0
 42
0.00000001
 43
0.00000001
 40
0.0
 40
0.0
 40
0.0
 40
0.0
 40
1.0
 40
1.0
 40
1.0
 40
1.0
 10
166.77776150173611
 20
152.37381727430554
 30
0.0
 10
167.23940429687499
 20
150.01461588541665
 30
0.0
 10
167.80336642795137
 20
147.67608506944444
 30
0.0
 10
168.46723632812498
 20
145.36511501736109
 30
0.0
  0
SPLINE
  5
6D
100
AcDbEntity
  8
AM_0
 62
     7
100
AcDbSpline
210
0.0
220
0.0
230
1.0
 70
     8
 71
     3
 72
     8
 73
     4
 74
     0
 42
0.00000001
 43
0.00000001
 40
0.0
 40
0.0
 40
0.0
 40
0.0
 40
1.0
 40
1.0
 40
1.0
 40
1.0
 10
166.27271050347221
 20
159.75166151258679
 30
0.0
 10
166.1362847222222
 20
157.12512071397569
 30
0.0
 10
166.33644476996525
 20
154.49186197916666
 30
0.0
 10
166.86871202256944
 20
151.91613633897569
 30
0.0
  0
SPLINE
  5
6C
100
AcDbEntity
  8
AM_0
 62
     7
100
AcDbSpline
210
0.0
220
0.0
230
1.0
 70
     8
 71
     3
 72
     8
 73
     4
 74
     0
 42
0.00000001
 43
0.00000001
 40
0.0
 40
0.0
 40
0.0
 40
0.0
 40
1.0
 40
1.0
 40
1.0
 40
1.0
 10
168.46723632812498
 20
145.36511501736109
 30
0.0
 10
169.43909776475692
 20
150.02391764322914
 30
0.0
 10
169.7174614800347
 20
154.80019802517359
 30
0.0
 10
169.29268120659719
 20
159.54047715928817
 30
0.0
  0
SPLINE
  5
6B
100
AcDbEntity
  8
AM_0
 62
     7
100
AcDbSpline
210
0.0
220
0.0
230
1.0
 70
     8
 71
     3
 72
     8
 73
     4
 74
     0
 42
0.00000001
 43
0.00000001
 40
0.0
 40
0.0
 40
0.0
 40
0.0
 40
1.0
 40
1.0
 40
1.0
 40
1.0
 10
167.47435980902776
 20
159.54047715928817
 30
0.0
 10
167.14294162326388
 20
154.79192979600694
 30
0.0
 10
167.47711588541665
 20
150.02098931206595
 30
0.0
 10
168.46723632812498
 20
145.36511501736109
 30
0.0
  0
SPLINE
  5
6A
100
AcDbEntity
  8
AM_0
 62
     7
100
AcDbSpline
210
0.0
220
0.0
230
1.0
 70
     8
 71
     3
 72
    11
 73
     7
 74
     0
 42
0.00000001
 43
0.00000001
 40
0.0
 40
0.0
 40
0.0
 40
0.0
 40
1.0
 40
1.0
 40
1.0
 40
2.0
 40
2.0
 40
2.0
 40
2.0
 10
169.29268120659719
 20
159.54047715928817
 30
0.0
 10
169.29268120659719
 20
160.04259982638888
 30
0.0
 10
168.88581542968748
 20
160.44963785807289
 30
0.0
 10
168.3838650173611
 20
160.44963785807289
 30
0.0
 10
167.8815700954861
 20
160.44963785807289
 30
0.0
 10
167.47435980902776
 20
160.04259982638888
 30
0.0
 10
167.47435980902776
 20
159.54047715928817
 30
0.0
  0
SPLINE
  5
69
100
AcDbEntity
  8
AM_0
 62
     7
100
AcDbSpline
210
0.0
220
0.0
230
1.0
 70
     8
 71
     3
 72
    11
 73
     7
 74
     0
 42
0.00000001
 43
0.00000001
 40
0.0
 40
0.0
 40
0.0
 40
0.0
 40
1.0
 40
1.0
 40
1.0
 40
2.0
 40
2.0
 40
2.0
 40
2.0
 10
170.50535481770831
 20
159.58543565538193
 30
0.0
 10
170.48055013020831
 20
160.75694037543403
 30
0.0
 10
169.51075575086804
 20
161.6864271375868
 30
0.0
 10
168.33907877604165
 20
161.66162245008678
 30
0.0
 10
167.18221571180555
 20
161.63716227213541
 30
0.0
 10
166.25858561197916
 20
160.69062228732636
 30
0.0
 10
166.26168619791665
 20
159.53393147786457
 30
0.0
  0
SPLINE
  5
68
100
AcDbEntity
  8
AM_0
 62
     7
100
AcDbSpline
210
0.0
220
0.0
230
1.0
 70
     8
 71
     3
 72
     8
 73
     4
 74
     0
 42
0.00000001
 43
0.00000001
 40
0.0
 40
0.0
 40
0.0
 40
0.0
 40
1.0
 40
1.0
 40
1.0
 40
1.0
 10
168.46723632812498
 20
145.36511501736109
 30
0.0
 10
169.03464355468748
 20
142.81402180989582
 30
0.0
 10
169.67922092013887
 20
140.28049858940972
 30
0.0
 10
170.40096842447915
 20
137.76833496093749
 30
0.0
  0
SPLINE
  5
67
100
AcDbEntity
  8
AM_0
 62
     7
100
AcDbSpline
210
0.0
220
0.0
230
1.0
 70
     8
 71
     3
 72
     8
 73
     4
 74
     0
 42
0.00000001
 43
0.00000001
 40
0.0
 40
0.0
 40
0.0
 40
0.0
 40
1.0
 40
1.0
 40
1.0
 40
1.0
 10
169.60411783854164
 20
135.37502712673609
 30
0.0
 10
170.24628363715277
 20
136.03545193142361
 30
0.0
 10
170.53153754340275
 20
136.96424967447916
 30
0.0
 10
170.37168511284722
 20
137.87168782552081
 30
0.0
  0
SPLINE
  5
66
100
AcDbEntity
  8
AM_0
 62
     7
100
AcDbSpline
210
0.0
220
0.0
230
1.0
 70
     8
 71
     3
 72
     8
 73
     4
 74
     0
 42
0.00000001
 43
0.00000001
 40
0.0
 40
0.0
 40
0.0
 40
0.0
 40
1.0
 40
1.0
 40
1.0
 40
1.0
 10
168.3838650173611
 20
134.98883192274303
 30
0.0
 10
168.82104763454859
 20
134.98883192274303
 30
0.0
 10
169.24720594618054
 20
135.12353515625
 30
0.0
 10
169.60411783854164
 20
135.37502712673609
 30
0.0
  0
SPLINE
  5
65
100
AcDbEntity
  8
AM_0
 62
     7
100
AcDbSpline
210
0.0
220
0.0
230
1.0
 70
     8
 71
     3
 72
     8
 73
     4
 74
     0
 42
0.00000001
 43
0.00000001
 40
0.0
 40
0.0
 40
0.0
 40
0.0
 40
1.0
 40
1.0
 40
1.0
 40
1.0
 10
95.677708604600681
 20
151.28568386501735
 30
0.0
 10
95.110473632812486
 20
153.83694932725692
 30
0.0
 10
94.46572401258679
 20
156.37030029296872
 30
0.0
 10
93.74432101779513
 20
158.88229166666665
 30
0.0
  0
SPLINE
  5
64
100
AcDbEntity
  8
AM_0
 62
     7
100
AcDbSpline
210
0.0
220
0.0
230
1.0
 70
     8
 71
     3
 72
     8
 73
     4
 74
     0
 42
0.00000001
 43
0.00000001
 40
0.0
 40
0.0
 40
0.0
 40
0.0
 40
1.0
 40
1.0
 40
1.0
 40
1.0
 10
94.540654839409711
 20
161.27594401041665
 30
0.0
 10
93.899178059895831
 20
160.61500244140623
 30
0.0
 10
93.613751898871513
 20
159.6865492078993
 30
0.0
 10
93.773432074652774
 20
158.77962782118055
 30
0.0
  0
SPLINE
  5
63
100
AcDbEntity
  8
AM_0
 62
     7
100
AcDbSpline
210
0.0
220
0.0
230
1.0
 70
     8
 71
     3
 72
     8
 73
     4
 74
     0
 42
0.00000001
 43
0.00000001
 40
0.0
 40
0.0
 40
0.0
 40
0.0
 40
1.0
 40
1.0
 40
1.0
 40
1.0
 10
95.761424424913187
 20
161.66213921440971
 30
0.0
 10
95.324241807725684
 20
161.66213921440971
 30
0.0
 10
94.897911241319434
 20
161.52726372612847
 30
0.0
 10
94.540654839409711
 20
161.27594401041665
 30
0.0
  0
SPLINE
  5
62
100
AcDbEntity
  8
AM_0
 62
     7
100
AcDbSpline
210
0.0
220
0.0
230
1.0
 70
     8
 71
     3
 72
     8
 73
     4
 74
     0
 42
0.00000001
 43
0.00000001
 40
0.0
 40
0.0
 40
0.0
 40
0.0
 40
1.0
 40
1.0
 40
1.0
 40
1.0
 10
95.677708604600681
 20
151.28568386501735
 30
0.0
 10
94.080390082465271
 20
146.6801079644097
 30
0.0
 10
93.39068196614582
 20
141.80770941840277
 30
0.0
 10
93.64648030598957
 20
136.93978949652777
 30
0.0
  0
SPLINE
  5
61
100
AcDbEntity
  8
AM_0
 62
     7
100
AcDbSpline
210
0.0
220
0.0
230
1.0
 70
     8
 71
     3
 72
     8
 73
     4
 74
     0
 42
0.00000001
 43
0.00000001
 40
0.0
 40
0.0
 40
0.0
 40
0.0
 40
1.0
 40
1.0
 40
1.0
 40
1.0
 10
97.872578938802079
 20
136.89879286024305
 30
0.0
 10
98.008832465277763
 20
139.52567816840278
 30
0.0
 10
97.808672417534709
 20
142.15876464843748
 30
0.0
 10
97.27657741970485
 20
144.73397352430555
 30
0.0
  0
SPLINE
  5
60
100
AcDbEntity
  8
AM_0
 62
     7
100
AcDbSpline
210
0.0
220
0.0
230
1.0
 70
     8
 71
     3
 72
     8
 73
     4
 74
     0
 42
0.00000001
 43
0.00000001
 40
0.0
 40
0.0
 40
0.0
 40
0.0
 40
1.0
 40
1.0
 40
1.0
 40
1.0
 10
95.677708604600681
 20
151.28568386501735
 30
0.0
 10
94.706191677517353
 20
146.6270534939236
 30
0.0
 10
94.427827962239576
 20
141.85077311197915
 30
0.0
 10
94.851919216579859
 20
137.11032172309027
 30
0.0
  0
SPLINE
  5
5F
100
AcDbEntity
  8
AM_0
 62
     7
100
AcDbSpline
210
0.0
220
0.0
230
1.0
 70
     8
 71
     3
 72
     8
 73
     4
 74
     0
 42
0.00000001
 43
0.00000001
 40
0.0
 40
0.0
 40
0.0
 40
0.0
 40
1.0
 40
1.0
 40
1.0
 40
1.0
 10
96.670585123697904
 20
137.11032172309027
 30
0.0
 10
97.002003309461799
 20
141.8586968315972
 30
0.0
 10
96.667484537760402
 20
146.63015407986109
 30
0.0
 10
95.677708604600681
 20
151.28568386501735
 30
0.0
  0
SPLINE
  5
5E
100
AcDbEntity
  8
AM_0
 62
     7
100
AcDbSpline
210
0.0
220
0.0
230
1.0
 70
     8
 71
     3
 72
     8
 73
     4
 74
     0
 42
0.00000001
 43
0.00000001
 40
0.0
 40
0.0
 40
0.0
 40
0.0
 40
1.0
 40
1.0
 40
1.0
 40
1.0
 10
97.367527940538181
 20
144.2768093532986
 30
0.0
 10
96.905540635850684
 20
146.63601074218749
 30
0.0
 10
96.341750759548603
 20
148.97488606770833
 30
0.0
 10
95.677708604600681
 20
151.28568386501735
 30
0.0
  0
SPLINE
  5
5D
100
AcDbEntity
  8
AM_0
 62
     7
100
AcDbSpline
210
0.0
220
0.0
230
1.0
 70
     8
 71
     3
 72
    11
 73
     7
 74
     0
 42
0.00000001
 43
0.00000001
 40
0.0
 40
0.0
 40
0.0
 40
0.0
 40
1.0
 40
1.0
 40
1.0
 40
2.0
 40
2.0
 40
2.0
 40
2.0
 10
94.851919216579859
 20
137.11032172309027
 30
0.0
 10
94.851919216579859
 20
136.60768229166666
 30
0.0
 10
95.259301757812494
 20
136.20081651475692
 30
0.0
 10
95.761424424913187
 20
136.20081651475692
 30
0.0
 10
96.263202582465269
 20
136.20081651475692
 30
0.0
 10
96.670585123697904
 20
136.60768229166666
 30
0.0
 10
96.670585123697904
 20
137.11032172309027
 30
0.0
  0
SPLINE
  5
5C
100
AcDbEntity
  8
AM_0
 62
     7
100
AcDbSpline
210
0.0
220
0.0
230
1.0
 70
     8
 71
     3
 72
    11
 73
     7
 74
     0
 42
0.00000001
 43
0.00000001
 40
0.0
 40
0.0
 40
0.0
 40
0.0
 40
1.0
 40
1.0
 40
1.0
 40
2.0
 40
2.0
 40
2.0
 40
2.0
 10
93.639934624565967
 20
137.06553548177081
 30
0.0
 10
93.664739312065961
 20
135.89385850694444
 30
0.0
 10
94.634705946180546
 20
134.96437174479166
 30
0.0
 10
95.806038411458331
 20
134.98883192274303
 30
0.0
 10
96.962901475694437
 20
135.01329210069443
 30
0.0
 10
97.886703830295133
 20
135.95965983072915
 30
0.0
 10
97.88308648003472
 20
137.11686740451387
 30
0.0
  0
INSERT
  5
57
100
AcDbEntity
  8
AM_0
 62
     7
100
AcDbBlockReference
  2
AI9-BLK3
 10
62.301968
 20
194.942881
 30
0.0
  0
INSERT
  5
52
100
AcDbEntity
  8
AM_0
 62
     7
100
AcDbBlockReference
  2
AI9-BLK2
 10
69.118778
 20
98.46548
 30
0.0
  0
LINE
  5
50
100
AcDbEntity
  8
AM_0
 62
     7
100
AcDbLine
 10
160.538349
 20
172.573962
 30
0.0
 11
102.341557
 21
172.573962
 31
0.0
  0
LINE
  5
4F
100
AcDbEntity
  8
AM_0
 62
     7
100
AcDbLine
 10
160.538349
 20
124.135748
 30
0.0
 11
102.341557
 21
124.135748
 31
0.0
  0
LINE
  5
4E
100
AcDbEntity
  8
AM_0
 62
     7
100
AcDbLine
 10
110.109041
 20
124.076492
 30
0.0
 11
105.259725
 21
124.076492
 31
0.0
  0
LINE
  5
4D
100
AcDbEntity
  8
AM_0
 62
     7
100
AcDbLine
 10
105.259725
 20
172.573962
 30
0.0
 11
105.259725
 21
124.076492
 31
0.0
  0
LINE
  5
4C
100
AcDbEntity
  8
AM_0
 62
     7
100
AcDbLine
 10
103.319447
 20
124.561217
 30
0.0
 11
103.319447
 21
172.089065
 31
0.0
  0
POLYLINE
  5
46
100
AcDbEntity
  8
AM_0
 62
     7
100
AcDb2dPolyline
 66
     1
 10
0.0
 20
0.0
 30
0.0
 70
     1
  0
VERTEX
  5
47
100
AcDbEntity
  8
AM_0
 62
     7
100
AcDbVertex
100
AcDb2dVertex
 10
112.049319
 20
169.52023
 30
0.0
  0
VERTEX
  5
48
100
AcDbEntity
  8
AM_0
 62
     7
100
AcDbVertex
100
AcDb2dVertex
 10
112.049319
 20
164.864528
 30
0.0
  0
VERTEX
  5
49
100
AcDbEntity
  8
AM_0
 62
     7
100
AcDbVertex
100
AcDb2dVertex
 10
112.534044
 20
164.864528
 30
0.0
  0
VERTEX
  5
4A
100
AcDbEntity
  8
AM_0
 62
     7
100
AcDbVertex
100
AcDb2dVertex
 10
112.534044
 20
169.52023
 30
0.0
  0
SEQEND
  5
4B
100
AcDbEntity
  8
AM_0
 62
     7
  0
LINE
  5
45
100
AcDbEntity
  8
AM_0
 62
     7
100
AcDbLine
 10
110.109041
 20
124.561217
 30
0.0
 11
110.109041
 21
172.089065
 31
0.0
  0
LINE
  5
44
100
AcDbEntity
  8
AM_0
 62
     7
100
AcDbLine
 10
112.049319
 20
172.089065
 30
0.0
 11
112.049319
 21
124.561217
 31
0.0
  0
LINE
  5
43
100
AcDbEntity
  8
AM_0
 62
     7
100
AcDbLine
 10
110.109041
 20
124.076492
 30
0.0
 11
110.109041
 21
172.573962
 31
0.0
  0
LINE
  5
42
100
AcDbEntity
  8
AM_0
 62
     7
100
AcDbLine
 10
112.049319
 20
124.561217
 30
0.0
 11
110.109041
 21
124.561217
 31
0.0
  0
LINE
  5
41
100
AcDbEntity
  8
AM_0
 62
     7
100
AcDbLine
 10
110.109041
 20
172.089065
 30
0.0
 11
112.049319
 21
172.089065
 31
0.0
  0
LINE
  5
40
100
AcDbEntity
  8
AM_0
 62
     7
100
AcDbLine
 10
110.109041
 20
172.573962
 30
0.0
 11
105.259725
 21
172.573962
 31
0.0
  0
LINE
  5
3F
100
AcDbEntity
  8
AM_0
 62
     7
100
AcDbLine
 10
105.259725
 20
124.076492
 30
0.0
 11
110.109041
 21
124.076492
 31
0.0
  0
LINE
  5
3E
100
AcDbEntity
  8
AM_0
 62
     7
100
AcDbLine
 10
105.259725
 20
172.089065
 30
0.0
 11
105.259725
 21
124.561217
 31
0.0
  0
LINE
  5
3D
100
AcDbEntity
  8
AM_0
 62
     7
100
AcDbLine
 10
103.319447
 20
172.089065
 30
0.0
 11
105.259725
 21
172.089065
 31
0.0
  0
LINE
  5
3C
100
AcDbEntity
  8
AM_0
 62
     7
100
AcDbLine
 10
105.259725
 20
124.561217
 30
0.0
 11
103.319447
 21
124.561217
 31
0.0
  0
POLYLINE
  5
36
100
AcDbEntity
  8
AM_0
 62
     7
100
AcDb2dPolyline
 66
     1
 10
0.0
 20
0.0
 30
0.0
 70
     1
  0
VERTEX
  5
37
100
AcDbEntity
  8
AM_0
 62
     7
100
AcDbVertex
100
AcDb2dVertex
 10
112.049319
 20
127.130569
 30
0.0
  0
VERTEX
  5
38
100
AcDbEntity
  8
AM_0
 62
     7
100
AcDbVertex
100
AcDb2dVertex
 10
112.049319
 20
131.786271
 30
0.0
  0
VERTEX
  5
39
100
AcDbEntity
  8
AM_0
 62
     7
100
AcDbVertex
100
AcDb2dVertex
 10
112.534044
 20
131.786271
 30
0.0
  0
VERTEX
  5
3A
100
AcDbEntity
  8
AM_0
 62
     7
100
AcDbVertex
100
AcDb2dVertex
 10
112.534044
 20
127.130569
 30
0.0
  0
SEQEND
  5
3B
100
AcDbEntity
  8
AM_0
 62
     7
  0
LINE
  5
35
100
AcDbEntity
  8
AM_0
 62
     7
100
AcDbLine
 10
110.109041
 20
124.561217
 30
0.0
 11
112.049319
 21
124.561217
 31
0.0
  0
LINE
  5
34
100
AcDbEntity
  8
AM_0
 62
     7
100
AcDbLine
 10
110.109041
 20
124.076492
 30
0.0
 11
105.259725
 21
124.076492
 31
0.0
  0
LINE
  5
33
100
AcDbEntity
  8
AM_0
 62
     7
100
AcDbLine
 10
103.319447
 20
124.561217
 30
0.0
 11
105.259725
 21
124.561217
 31
0.0
  0
LINE
  5
32
100
AcDbEntity
  8
AM_0
 62
     7
100
AcDbLine
 10
111.790592
 20
167.192551
 30
0.0
 11
114.570095
 21
167.192551
 31
0.0
  0
LINE
  5
31
100
AcDbEntity
  8
AM_0
 62
     7
100
AcDbLine
 10
111.790592
 20
129.458765
 30
0.0
 11
114.570095
 21
129.458765
 31
0.0
  0
INSERT
  5
2A
100
AcDbEntity
  8
TEXT
 62
     7
100
AcDbBlockReference
  2
AI9-BLK1
 10
51.40582
 20
160.372726
 30
0.0
  0
ENDSEC
  0
SECTION
  2
OBJECTS
  0
DICTIONARY
  5
19
100
AcDbDictionary
280
     0
281
     1
  3
ACAD_GROUP
350
1A
  3
ACAD_MLINESTYLE
350
1B
  3
ACAD_LAYOUT
350
1E
  3
ACAD_PLOTSETTINGS
350
22
  3
ACAD_PLOTSTYLENAME
350
1F
  3
ACAD_WIPEOUT_VARS
350
23
  0
DICTIONARY
  5
1A
102
{ACAD_REACTORS
330
19
102
}
100
AcDbDictionary
280
     0
281
     1
  0
DICTIONARY
  5
1B
102
{ACAD_REACTORS
330
19
102
}
100
AcDbDictionary
280
     0
281
     1
  3
Standard
350
1C
  0
MLINESTYLE
  5
1C
102
{ACAD_REACTORS
330
1B
102
}
100
AcDbMlineStyle
  2
Standard
 70
     0
  3

 62
     0
 51
90.0
 52
90.0
 71
     2
 49
0.5
 62
   256
  6
ByLayer
 49
-0.5
 62
   256
  6
ByLayer
  0
ACDBDICTIONARYWDFLT
  5
1F
102
{ACAD_REACTORS
330
19
102
}
100
AcDbDictionary
281
     1
  3
Normal
350
1D
100
AcDbDictionaryWithDefault
340
1D
  0
ACDBPLACEHOLDER
  5
1D
102
{ACAD_REACTORS
330
1F
102
}
  0
LAYOUT
  5
20
102
{ACAD_REACTORS
330
1E
102
}
100
AcDbPlotSettings
  1

  2

  4

  6

 40
0.0
 41
0.0
 42
0.0
 43
0.0
 44
0.0
 45
0.0
 46
0.0
 47
0.0
 48
0.0
 49
0.0
140
0.0
141
0.0
142
1.0
143
1.0
 70
  1024
 72
     0
 73
     0
 74
     0
  7

 75
     0
147
1.0
148
0.0
149
0.0
100
AcDbLayout
  1
Model
 70
     0
 71
     0
 10
0.0
 20
0.0
 11
0.0
 21
0.0
 12
0.0
 22
0.0
 32
0.0
 14
0.0
 24
0.0
 34
0.0
 15
0.0
 25
0.0
 35
0.0
146
0.0
 13
0.0
 23
0.0
 33
0.0
 16
0.0
 26
0.0
 36
0.0
 17
0.0
 27
0.0
 37
0.0
 76
     0
330
A
331
0
345
0
346
0
  0
LAYOUT
  5
21
102
{ACAD_REACTORS
330
1E
102
}
100
AcDbPlotSettings
  1

  2

  4

  6

 40
0.0
 41
0.0
 42
0.0
 43
0.0
 44
0.0
 45
0.0
 46
0.0
 47
0.0
 48
0.0
 49
0.0
140
0.0
141
0.0
142
1.0
143
1.0
 70
     0
 72
     0
 73
     0
 74
     0
  7

 75
     0
147
1.0
148
0.0
149
0.0
100
AcDbLayout
  1
Layout1
 70
     0
 71
     0
 10
0.0
 20
0.0
 11
0.0
 21
0.0
 12
0.0
 22
0.0
 32
0.0
 14
0.0
 24
0.0
 34
0.0
 15
0.0
 25
0.0
 35
0.0
146
0.0
 13
0.0
 23
0.0
 33
0.0
 16
0.0
 26
0.0
 36
0.0
 17
0.0
 27
0.0
 37
0.0
 76
     0
330
B
331
0
345
0
346
0
  0
DICTIONARY
  5
1E
102
{ACAD_REACTORS
330
19
102
}
100
AcDbDictionary
280
     0
281
     1
  3
Layout1
350
21
  3
Model
350
20
  0
DICTIONARY
  5
22
102
{ACAD_REACTORS
330
19
102
}
100
AcDbDictionary
280
     0
281
     1
  0
WIPEOUTVARIABLES
  5
23
100
AcDbWipeoutVariables
 70
     1
  0
ENDSEC
  0
EOF
