  0
SECTION
  2
HEADER
  9
$ACADVER
  1
AC1015
  9
$ACADMAINTVER
 70
     6
  9
$DWGCODEPAGE
  3
ANSI_932
  9
$INSBASE
 10
0.0
 20
0.0
 30
0.0
  9
$EXTMIN
 10
24.167862
 20
76.91279
 30
1.000000E+20
  9
$EXTMAX
 10
186.541241
 20
222.030031
 30
-1.000000E+20
  9
$LIMMIN
 10
24.167862
 20
76.91279
  9
$LIMMAX
 10
186.541241
 20
222.030031
  9
$ORTHOMODE
 70
     0
  9
$REGENMODE
 70
     1
  9
$FILLMODE
 70
     1
  9
$QTEXTMODE
 70
     0
  9
$MIRRTEXT
 70
     1
  9
$LTSCALE
 40
1.0
  9
$ATTMODE
 70
     1
  9
$TEXTSIZE
 40
0.2
  9
$TRACEWID
 40
0.05
  9
$TEXTSTYLE
  7
Standard
  9
$CLAYER
  8
0
  9
$CELTYPE
  6
Continuous
  9
$CECOLOR
 62
   256
  9
$CELTSCALE
 40
1.0
  9
$DISPSILH
 70
     0
  9
$DIMSCALE
 40
1.0
  9
$DIMASZ
 40
0.18
  9
$DIMEXO
 40
0.0625
  9
$DIMDLI
 40
0.38
  9
$DIMRND
 40
0.0
  9
$DIMDLE
 40
0.0
  9
$DIMEXE
 40
0.18
  9
$DIMTP
 40
0.0
  9
$DIMTM
 40
0.0
  9
$DIMTXT
 40
0.18
  9
$DIMCEN
 40
0.09
  9
$DIMTSZ
 40
0.0
  9
$DIMTOL
 70
     0
  9
$DIMLIM
 70
     0
  9
$DIMTIH
 70
     1
  9
$DIMTOH
 70
     1
  9
$DIMSE1
 70
     0
  9
$DIMSE2
 70
     0
  9
$DIMTAD
 70
     0
  9
$DIMZIN
 70
     0
  9
$DIMBLK
  1

  9
$DIMASO
 70
     1
  9
$DIMSHO
 70
     1
  9
$DIMPOST
  1

  9
$DIMAPOST
  1

  9
$DIMALT
 70
     0
  9
$DIMALTD
 70
     2
  9
$DIMALTF
 40
25.4
  9
$DIMLFAC
 40
1.0
  9
$DIMTOFL
 70
     0
  9
$DIMTVP
 40
0.0
  9
$DIMTIX
 70
     0
  9
$DIMSOXD
 70
     0
  9
$DIMSAH
 70
     0
  9
$DIMBLK1
  1

  9
$DIMBLK2
  1

  9
$DIMSTYLE
  2
Standard
  9
$DIMCLRD
 70
     0
  9
$DIMCLRE
 70
     0
  9
$DIMCLRT
 70
     0
  9
$DIMTFAC
 40
1.0
  9
$DIMGAP
 40
0.09
  9
$DIMJUST
 70
     0
  9
$DIMSD1
 70
     0
  9
$DIMSD2
 70
     0
  9
$DIMTOLJ
 70
     1
  9
$DIMTZIN
 70
     0
  9
$DIMALTZ
 70
     0
  9
$DIMALTTZ
 70
     0
  9
$DIMUPT
 70
     0
  9
$DIMDEC
 70
     4
  9
$DIMTDEC
 70
     4
  9
$DIMALTU
 70
     2
  9
$DIMALTTD
 70
     2
  9
$DIMTXSTY
  7
Standard
  9
$DIMAUNIT
 70
     0
  9
$DIMADEC
 70
     0
  9
$DIMALTRND
 40
0.0
  9
$DIMAZIN
 70
     0
  9
$DIMDSEP
 70
     0
  9
$DIMATFIT
 70
     3
  9
$DIMFRAC
 70
     0
  9
$DIMLDRBLK
  1

  9
$DIMLUNIT
 70
     2
  9
$DIMLWD
 70
     0
  9
$DIMLWE
 70
     0
  9
$DIMTMOVE
 70
     0
  9
$LUNITS
 70
     2
  9
$LUPREC
 70
     4
  9
$SKETCHINC
 40
0.1
  9
$FILLETRAD
 40
0.0
  9
$AUNITS
 70
     0
  9
$AUPREC
 70
     0
  9
$MENU
  1
acad
  9
$ELEVATION
 40
0.0
  9
$PELEVATION
 40
0.0
  9
$THICKNESS
 40
0.0
  9
$LIMCHECK
 70
     0
  9
$CHAMFERA
 40
0.0
  9
$CHAMFERB
 40
0.0
  9
$CHAMFERC
 40
0.0
  9
$CHAMFERD
 40
0.0
  9
$SKPOLY
 70
     0
  9
$TDCREATE
 40
0.000000000
  9
$TDUCREATE
 40
0.000000000
  9
$TDUPDATE
 40
0.000000000
  9
$TDUUPDATE
 40
0.000000000
  9
$TDINDWG
 40
0.0000000000
  9
$TDUSRTIMER
 40
0.0000000000
  9
$USRTIMER
 70
     1
  9
$ANGBASE
 50
0.0
  9
$ANGDIR
 70
     0
  9
$PDMODE
 70
     0
  9
$PDSIZE
 40
0.0
  9
$PLINEWID
 40
0.0
  9
$SPLFRAME
 70
     0
  9
$SPLINETYPE
 70
     6
  9
$SPLINESEGS
 70
     8
  9
$HANDSEED
  5
221
  9
$SURFTAB1
 70
     6
  9
$SURFTAB2
 70
     6
  9
$SURFTYPE
 70
     6
  9
$SURFU
 70
     6
  9
$SURFV
 70
     6
  9
$UCSBASE
  2

  9
$UCSNAME
  2

  9
$UCSORG
 10
0.0
 20
0.0
 30
0.0
  9
$UCSXDIR
 10
1.0
 20
0.0
 30
0.0
  9
$UCSYDIR
 10
0.0
 20
1.0
 30
0.0
  9
$UCSORTHOREF
  2

  9
$UCSORTHOVIEW
 70
     0
  9
$UCSORGTOP
 10
0.0
 20
0.0
 30
0.0
  9
$UCSORGBOTTOM
 10
0.0
 20
0.0
 30
0.0
  9
$UCSORGLEFT
 10
0.0
 20
0.0
 30
0.0
  9
$UCSORGRIGHT
 10
0.0
 20
0.0
 30
0.0
  9
$UCSORGFRONT
 10
0.0
 20
0.0
 30
0.0
  9
$UCSORGBACK
 10
0.0
 20
0.0
 30
0.0
  9
$PUCSBASE
  2

  9
$PUCSNAME
  2

  9
$PUCSORG
 10
0.0
 20
0.0
 30
0.0
  9
$PUCSXDIR
 10
1.0
 20
0.0
 30
0.0
  9
$PUCSYDIR
 10
0.0
 20
1.0
 30
0.0
  9
$PUCSORTHOREF
  2

  9
$PUCSORTHOVIEW
 70
     0
  9
$PUCSORGTOP
 10
0.0
 20
0.0
 30
0.0
  9
$PUCSORGBOTTOM
 10
0.0
 20
0.0
 30
0.0
  9
$PUCSORGLEFT
 10
0.0
 20
0.0
 30
0.0
  9
$PUCSORGRIGHT
 10
0.0
 20
0.0
 30
0.0
  9
$PUCSORGFRONT
 10
0.0
 20
0.0
 30
0.0
  9
$PUCSORGBACK
 10
0.0
 20
0.0
 30
0.0
  9
$USERI1
 70
     0
  9
$USERI2
 70
     0
  9
$USERI3
 70
     0
  9
$USERI4
 70
     0
  9
$USERI5
 70
     0
  9
$USERR1
 40
0.0
  9
$USERR2
 40
0.0
  9
$USERR3
 40
0.0
  9
$USERR4
 40
0.0
  9
$USERR5
 40
0.0
  9
$WORLDVIEW
 70
     1
  9
$SHADEDGE
 70
     3
  9
$SHADEDIF
 70
    70
  9
$TILEMODE
 70
     1
  9
$MAXACTVP
 70
    16
  9
$PINSBASE
 10
0.0
 20
0.0
 30
0.0
  9
$PLIMCHECK
 70
     0
  9
$PEXTMIN
 10
1.000000E+20
 20
1.000000E+20
 30
1.000000E+20
  9
$PEXTMAX
 10
-1.000000E+20
 20
-1.000000E+20
 30
-1.000000E+20
  9
$PLIMMIN
 10
0.0
 20
0.0
  9
$PLIMMAX
 10
12.0
 20
9.0
  9
$UNITMODE
 70
     0
  9
$VISRETAIN
 70
     0
  9
$PLINEGEN
 70
     1
  9
$PSLTSCALE
 70
     0
  9
$TREEDEPTH
 70
  3020
  9
$CMLSTYLE
  2
Standard
  9
$CMLJUST
 70
     0
  9
$CMLSCALE
 40
1.0
  9
$PROXYGRAPHICS
 70
     0
  9
$MEASUREMENT
 70
     1
  9
$CELWEIGHT
370
     0
  9
$ENDCAPS
280
     0
  9
$JOINSTYLE
280
     0
  9
$LWDISPLAY
290
     0
  9
$INSUNITS
 70
     0
  9
$HYPERLINKBASE
  1

  9
$STYLESHEET
  1

  9
$XEDIT
290
     1
  9
$CEPSNTYPE
380
     0
  9
$PSTYLEMODE
290
     1
  9
$FINGERPRINTGUID
  2

  9
$VERSIONGUID
  2

  9
$EXTNAMES
290
     1
  9
$PSVPSCALE
 40
0.0
  0
ENDSEC
  0
SECTION
  2
CLASSES
  0
CLASS
  1
LWPOLYLINE
  2
AcDbPolyline
  3
AutoCAD 2000
 90
    32768
280
     0
281
     1
  0
CLASS
  1
IMAGE
  2
AcDbRasterImage
  3
ISM
 90
    32895
280
     0
281
     1
  0
CLASS
  1
OLE2FRAME
  2
AcDbOle2Frame
  3
AutoCAD 2000
 90
    32768
280
     0
281
     1
  0
CLASS
  1
HATCH
  2
AcDbHatch
  3
AutoCAD 2000
 90
        0
280
     0
281
     1
  0
CLASS
  1
DICTIONARYVAR
  2
AcDbDictionaryVar
  3
AutoCAD 2000
 90
    32768
280
     0
281
     0
  0
CLASS
  1
RASTERVARIABLES
  2
AcDbRasterVariables
  3
ISM
 90
    32768
280
     0
281
     0
  0
CLASS
  1
IMAGEDEF
  2
AcDbRasterImageDef
  3
ISM
 90
    32768
280
     0
281
     0
  0
CLASS
  1
IMAGEDEF_REACTOR
  2
AcDbRasterImageDefReactor
  3
ISM
 90
    32769
280
     0
281
     0
  0
CLASS
  1
IDBUFFER
  2
AcDbIdBuffer
  3
AutoCAD 2000
 90
    32768
280
     0
281
     0
  0
CLASS
  1
SPATIAL_FILTER
  2
AcDbSpatialFilter
  3
AutoCAD 2000
 90
    32768
280
     0
281
     0
  0
CLASS
  1
XRECORD
  2
AcDbXrecord
  3
AutoCAD 2000
 90
    32768
280
     0
281
     0
  0
CLASS
  1
SORTENTSTABLE
  2
AcDbSortentsTable
  3
AutoCAD 2000
 90
    32768
280
     0
281
     0
  0
CLASS
  1
LAYER_INDEX
  2
AcDbLayerIndex
  3
AutoCAD 2000
 90
    32768
280
     0
281
     0
  0
CLASS
  1
SPATIAL_INDEX
  2
AcDbSpatialIndex
  3
AutoCAD 2000
 90
    32768
280
     0
281
     0
  0
CLASS
  1
OBJECT_PTR
  2
CAseDLPNTableRecord
  3
"ASE-LPNTableRecord"
 90
    32769
280
     0
281
     0
  0
CLASS
  1
LAYOUT
  2
AcDbLayout
  3
AutoCAD 2000
 90
        0
280
     0
281
     0
  0
CLASS
  1
PLOTSETTINGS
  2
AcDbPlotSettings
  3
AutoCAD 2000
 90
    32768
280
     0
281
     0
  0
CLASS
  1
ACDBDICTIONARYWDFLT
  2
AcDbDictionaryWithDefault
  3
AutoCAD 2000
 90
        0
280
     0
281
     0
  0
CLASS
  1
ACDBPLACEHOLDER
  2
AcDbPlaceHolder
  3
AutoCAD 2000
 90
        0
280
     0
281
     0
  0
CLASS
  1
VBA_PROJECT
  2
AcDbVbaProject
  3
acadvba
 90
    32768
280
     0
281
     0
  0
CLASS
  1
WIPEOUT
  2
AcDbWipeout
  3
WipeOut|AutoCAD Express Tool|expresstools@autodesk.com
 90
    32895
280
     0
281
     1
  0
CLASS
  1
WIPEOUTVARIABLES
  2
AcDbWipeoutVariables
  3
WipeOut|AutoCAD Express Tool|expresstools@autodesk.com
 90
        0
280
     0
281
     0
  0
CLASS
  1
RTEXT
  2
RText
  3
RText|AutoCAD Express Tool|expresstools@autodesk.com
 90
    32768
280
     0
281
     1
  0
CLASS
  1
ARCALIGNEDTEXT
  2
AcDbArcAlignedText
  3
ATEXT|AutoCAD Express Tool|expresstools@autodesk.com
 90
    32768
280
     0
281
     1
  0
ENDSEC
  0
SECTION
  2
TABLES
  0
TABLE
  2
VPORT
  5
7
100
AcDbSymbolTable
 70
     1
  0
VPORT
  5
15
100
AcDbSymbolTableRecord
100
AcDbViewportTableRecord
  2
*ACTIVE
 70
     0
 10
0.0
 20
0.0
 11
1.0
 21
1.0
 12
6.591288
 22
4.579184
 13
0.0
 23
0.0
 14
1.0
 24
1.0
 15
0.0
 25
0.0
 16
0.0
 26
0.0
 36
1.0
 17
0.0
 27
0.0
 37
0.0
 40
9.158369
 41
0.688564
 42
50.0
 43
0.0
 44
0.0
 50
0.0
 51
0.0
 71
     0
 72
   100
 73
     1
 74
     1
 75
     0
 76
     0
 77
     0
 78
     0
281
     0
 65
     0
110
0.0
120
0.0
130
0.0
111
1.0
121
0.0
131
0.0
112
0.0
122
1.0
132
0.0
345
0
346
0
 79
     0
146
0.0
  0
ENDTAB
  0
TABLE
  2
LTYPE
  5
4
100
AcDbSymbolTable
 70
     5
  0
LTYPE
  5
11
100
AcDbSymbolTableRecord
100
AcDbLinetypeTableRecord
  2
ByBlock
 70
    64
  3

 72
    65
 73
     0
 40
0.0
  0
LTYPE
  5
12
100
AcDbSymbolTableRecord
100
AcDbLinetypeTableRecord
  2
ByLayer
 70
    64
  3

 72
    65
 73
     0
 40
0.0
  0
LTYPE
  5
13
100
AcDbSymbolTableRecord
100
AcDbLinetypeTableRecord
  2
Continuous
 70
    64
  3
Solid line
 72
    65
 73
     0
 40
0.0
  0
LTYPE
  5
C1
100
AcDbSymbolTableRecord
100
AcDbLinetypeTableRecord
  2
AI9-LType1
 70
    64
  3
Illustrator Dash Style No.1
 72
    65
 73
     4
 40
14.816667
 49
8.466667
 74
     0
 49
-2.822222
 74
     0
 49
0.705556
 74
     0
 49
-2.822222
 74
     0
  0
LTYPE
  5
C4
100
AcDbSymbolTableRecord
100
AcDbLinetypeTableRecord
  2
AI9-LType2
 70
    64
  3
Illustrator Dash Style No.2
 72
    65
 73
     6
 40
17.638889
 49
8.466667
 74
     0
 49
-2.822222
 74
     0
 49
0.705556
 74
     0
 49
-2.116667
 74
     0
 49
0.705556
 74
     0
 49
-2.822222
 74
     0
  0
ENDTAB
  0
TABLE
  2
LAYER
  5
2
100
AcDbSymbolTable
 70
    14
  0
LAYER
  5
14
100
AcDbSymbolTableRecord
100
AcDbLayerTableRecord
  2
0
 70
     0
 62
     7
  6
Continuous
290
     1
370
    -3
390
1D
  0
LAYER
  5
28
100
AcDbSymbolTableRecord
100
AcDbLayerTableRecord
  2
RAHMEN
 70
     0
 62
     4
  6
Continuous
290
     1
370
    -3
390
1D
  0
LAYER
  5
29
100
AcDbSymbolTableRecord
100
AcDbLayerTableRecord
  2
TEXT
 70
     0
 62
     6
  6
Continuous
290
     1
370
    -3
390
1D
  0
LAYER
  5
3D
100
AcDbSymbolTableRecord
100
AcDbLayerTableRecord
  2
AM_0
 70
     0
 62
     2
  6
Continuous
290
     1
370
    -3
390
1D
  0
LAYER
  5
8A
100
AcDbSymbolTableRecord
100
AcDbLayerTableRecord
  2
AM_8
 70
     0
 62
     5
  6
Continuous
290
     1
370
    -3
390
1D
  0
LAYER
  5
9C
100
AcDbSymbolTableRecord
100
AcDbLayerTableRecord
  2
OBJEKT
 70
     0
 62
     3
  6
Continuous
290
     1
370
    -3
390
1D
  0
LAYER
  5
C0
100
AcDbSymbolTableRecord
100
AcDbLayerTableRecord
  2
MITTELLINIE
 70
     0
 62
     1
  6
Continuous
290
     1
370
    -3
390
1D
  0
LAYER
  5
C6
100
AcDbSymbolTableRecord
100
AcDbLayerTableRecord
  2
SCHRAFFUR
 70
     0
 62
   160
  6
Continuous
290
     1
370
    -3
390
1D
  0
LAYER
  5
135
100
AcDbSymbolTableRecord
100
AcDbLayerTableRecord
  2
EBENE_1
 70
     0
 62
     7
  6
Continuous
290
     1
370
    -3
390
1D
  0
LAYER
  5
13A
100
AcDbSymbolTableRecord
100
AcDbLayerTableRecord
  2
SCHRAFUR
 70
     0
 62
     6
  6
Continuous
290
     1
370
    -3
390
1D
  0
LAYER
  5
15C
100
AcDbSymbolTableRecord
100
AcDbLayerTableRecord
  2
DAEMMUNG
 70
     0
 62
     2
  6
Continuous
290
     1
370
    -3
390
1D
  0
LAYER
  5
182
100
AcDbSymbolTableRecord
100
AcDbLayerTableRecord
  2
GETRENNT
 70
     0
 62
     5
  6
Continuous
290
     1
370
    -3
390
1D
  0
LAYER
  5
185
100
AcDbSymbolTableRecord
100
AcDbLayerTableRecord
  2
ROHR
 70
     0
 62
     1
  6
Continuous
290
     1
370
    -3
390
1D
  0
LAYER
  5
208
100
AcDbSymbolTableRecord
100
AcDbLayerTableRecord
  2
SCHRAUBEN
 70
     0
 62
   160
  6
Continuous
290
     1
370
    -3
390
1D
  0
ENDTAB
  0
TABLE
  2
STYLE
  5
3
100
AcDbSymbolTable
 70
     5
  0
STYLE
  5
17
100
AcDbSymbolTableRecord
100
AcDbTextStyleTableRecord
  2
Standard
 70
     0
 40
0.0
 41
1.0
 50
0.0
 71
     0
 42
0.0
  3
txt
  4

  0
STYLE
  5
24
100
AcDbSymbolTableRecord
100
AcDbTextStyleTableRecord
  2
STD
 70
     0
 40
0.0
 41
1.0
 50
0.0
 71
     0
 42
0.0
  3
txt
  4

  0
STYLE
  5
25
100
AcDbSymbolTableRecord
100
AcDbTextStyleTableRecord
  2
TATESTD
 70
     4
 40
0.0
 41
1.0
 50
0.0
 71
     0
 42
0.0
  3
txt
  4

  0
STYLE
  5
26
100
AcDbSymbolTableRecord
100
AcDbTextStyleTableRecord
  2
KANJISTD
 70
     0
 40
0.0
 41
1.0
 50
0.0
 71
     0
 42
0.0
  3
txt
  4
extfont
  0
STYLE
  5
27
100
AcDbSymbolTableRecord
100
AcDbTextStyleTableRecord
  2
KANJITATE
 70
     4
 40
0.0
 41
1.0
 50
0.0
 71
     0
 42
0.0
  3
txt
  4
extfont
  0
ENDTAB
  0
TABLE
  2
VIEW
  5
5
100
AcDbSymbolTable
 70
     0
  0
ENDTAB
  0
TABLE
  2
UCS
  5
6
100
AcDbSymbolTable
 70
     0
  0
ENDTAB
  0
TABLE
  2
APPID
  5
8
100
AcDbSymbolTable
 70
     1
  0
APPID
  5
16
100
AcDbSymbolTableRecord
100
AcDbRegAppTableRecord
  2
ACAD
 70
     0
  0
ENDTAB
  0
TABLE
  2
DIMSTYLE
  5
9
100
AcDbSymbolTable
 70
     1
100
AcDbDimStyleTable
 71
     0
  0
DIMSTYLE
105
18
100
AcDbSymbolTableRecord
100
AcDbDimStyleTableRecord
  2
Standard
 70
     0
  3

  4

 40
1.0
 41
0.18
 42
0.0625
 43
0.38
 44
0.18
 45
0.0
 46
0.0
 47
0.0
 48
0.0
 71
     0
 72
     0
 73
     1
 74
     1
 75
     0
 76
     0
 77
     0
 78
     0
 79
     0
140
0.18
141
0.09
142
0.0
143
25.4
144
1.0
145
0.0
146
1.0
147
0.09
148
0.0
170
     0
171
     2
172
     0
173
     0
174
     0
175
     0
176
     0
177
     0
178
     0
179
     0
271
     4
272
     4
273
     2
274
     2
275
     0
276
     0
277
     2
278
    46
279
     0
280
     0
281
     0
282
     0
283
     1
284
     0
285
     0
286
     0
288
     0
340
17
341
0
342
0
343
0
344
0
371
    -2
372
    -2
  0
ENDTAB
  0
TABLE
  2
BLOCK_RECORD
  5
1
100
AcDbSymbolTable
 70
     6
  0
BLOCK_RECORD
  5
A
100
AcDbSymbolTableRecord
100
AcDbBlockTableRecord
  2
*MODEL_SPACE
340
20
  0
BLOCK_RECORD
  5
B
100
AcDbSymbolTableRecord
100
AcDbBlockTableRecord
  2
*PAPER_SPACE
340
21
  0
BLOCK_RECORD
  5
2A
100
AcDbSymbolTableRecord
100
AcDbBlockTableRecord
  2
AI9-BLK1
340
0
102
{BLKREFS
331
2B
102
}
  0
BLOCK_RECORD
  5
33
100
AcDbSymbolTableRecord
100
AcDbBlockTableRecord
  2
AI9-BLK2
340
0
102
{BLKREFS
331
34
102
}
  0
BLOCK_RECORD
  5
38
100
AcDbSymbolTableRecord
100
AcDbBlockTableRecord
  2
AI9-BLK3
340
0
102
{BLKREFS
331
39
102
}
  0
BLOCK_RECORD
  5
145
100
AcDbSymbolTableRecord
100
AcDbBlockTableRecord
  2
AI9-BLK4
340
0
102
{BLKREFS
331
146
102
}
  0
BLOCK_RECORD
  5
186
100
AcDbSymbolTableRecord
100
AcDbBlockTableRecord
  2
AI9-BLK5
340
0
102
{BLKREFS
331
187
102
}
  0
BLOCK_RECORD
  5
1C7
100
AcDbSymbolTableRecord
100
AcDbBlockTableRecord
  2
AI9-BLK6
340
0
102
{BLKREFS
331
1C8
102
}
  0
ENDTAB
  0
ENDSEC
  0
SECTION
  2
BLOCKS
  0
BLOCK
  5
D
100
AcDbEntity
  8
0
100
AcDbBlockBegin
  2
*MODEL_SPACE
 70
     0
 10
0.0
 20
0.0
 30
0.0
  3
*MODEL_SPACE
  1

  0
ENDBLK
  5
E
100
AcDbEntity
  8
0
100
AcDbBlockEnd
  0
BLOCK
  5
F
100
AcDbEntity
 67
     1
  8
0
100
AcDbBlockBegin
  2
*PAPER_SPACE
 70
     0
 10
0.0
 20
0.0
 30
0.0
  3
*PAPER_SPACE
  1

  0
ENDBLK
  5
10
100
AcDbEntity
 67
     1
  8
0
100
AcDbBlockEnd
  0
BLOCK
  5
2C
100
AcDbEntity
  8
TEXT
 62
     7
100
AcDbBlockBegin
  2
AI9-BLK1
 70
     0
 10
0.0
 20
0.0
 30
0.0
  3
AI9-BLK1
  1

  0
MTEXT
  5
2F
100
AcDbEntity
  8
TEXT
 62
     7
100
AcDbMText
 10
-16.35249
 20
-3.617695
 30
0.0
 40
5.512152
 41
0.0
 71
     1
 72
     2
  1
\fArial|b0|i0;\H5.5122;\C7;\U+0032\U+0030
  7
STD
210
0.0
220
0.0
230
1.0
 73
     1
 44
1.0
  0
MTEXT
  5
2E
100
AcDbEntity
  8
TEXT
 62
     7
100
AcDbMText
 10
-16.35249
 20
3.790638
 30
0.0
 40
5.512152
 41
0.0
 71
     1
 72
     2
  1
\fArial|b0|i0;\H5.5122;\C7;\U+0053\U+0074\U+0061\U+006E\U+0064\U+0061\U+0072\U+0064\U+0020
  7
STD
210
0.0
220
0.0
230
1.0
 73
     1
 44
1.0
  0
MTEXT
  5
2D
100
AcDbEntity
  8
TEXT
 62
     7
100
AcDbMText
 10
-16.35249
 20
11.199144
 30
0.0
 40
5.512152
 41
0.0
 71
     1
 72
     2
  1
\fArial|b0|i0;\H5.5122;\C7;\U+0046\U+0048\U+0052\U+004B\U+002D
  7
STD
210
0.0
220
0.0
230
1.0
 73
     1
 44
1.0
  0
ENDBLK
  5
30
100
AcDbEntity
  8
TEXT
100
AcDbBlockEnd
  0
BLOCK
  5
35
100
AcDbEntity
  8
TEXT
 62
     7
100
AcDbBlockBegin
  2
AI9-BLK2
 70
     0
 10
0.0
 20
0.0
 30
0.0
  3
AI9-BLK2
  1

  0
MTEXT
  5
36
100
AcDbEntity
  8
TEXT
 62
     7
100
AcDbMText
 10
-31.100427
 20
4.917012
 30
0.0
 40
5.512152
 41
0.0
 71
     1
 72
     2
  1
\fArial|b0|i0;\H5.5122;\C7;\U+0046\U+0075\U+0074\U+0074\U+0065\U+0072\U+0072\U+006F\U+0068\U+0072
  7
STD
210
0.0
220
0.0
230
1.0
 73
     1
 44
1.0
  0
ENDBLK
  5
37
100
AcDbEntity
  8
TEXT
100
AcDbBlockEnd
  0
BLOCK
  5
3A
100
AcDbEntity
  8
TEXT
 62
     7
100
AcDbBlockBegin
  2
AI9-BLK3
 70
     0
 10
0.0
 20
0.0
 30
0.0
  3
AI9-BLK3
  1

  0
MTEXT
  5
3B
100
AcDbEntity
  8
TEXT
 62
     7
100
AcDbMText
 10
-54.617941
 20
6.378766
 30
0.0
 40
5.512152
 41
0.0
 71
     1
 72
     2
  1
\fArial|b0|i0;\H5.5122;\C7;\U+0057\U+00E4\U+0072\U+006D\U+0065\U+0064\U+00E4\U+006D\U+006D\U+0075\U+006E\U+0067
  7
STD
210
0.0
220
0.0
230
1.0
 73
     1
 44
1.0
  0
ENDBLK
  5
3C
100
AcDbEntity
  8
TEXT
100
AcDbBlockEnd
  0
BLOCK
  5
147
100
AcDbEntity
  8
SCHRAFUR
 62
     7
100
AcDbBlockBegin
  2
AI9-BLK4
 70
     0
 10
0.0
 20
0.0
 30
0.0
  3
AI9-BLK4
  1

  0
LINE
  5
15A
100
AcDbEntity
  8
SCHRAFUR
 62
     7
100
AcDbLine
 10
-6.536896
 20
-0.2918
 30
0.0
 11
-10.081555
 21
-0.2918
 31
0.0
  0
LINE
  5
159
100
AcDbEntity
  8
SCHRAFUR
 62
     7
100
AcDbLine
 10
15.985071
 20
-0.2918
 30
0.0
 11
12.169283
 21
-0.2918
 31
0.0
  0
LINE
  5
158
100
AcDbEntity
  8
SCHRAFUR
 62
     7
100
AcDbLine
 10
-20.927405
 20
-0.2918
 30
0.0
 11
-17.111617
 21
-0.2918
 31
0.0
  0
LINE
  5
157
100
AcDbEntity
  8
SCHRAFUR
 62
     7
100
AcDbLine
 10
-26.444381
 20
-0.2918
 30
0.0
 11
-22.95002
 21
-0.2918
 31
0.0
  0
SPLINE
  5
156
100
AcDbEntity
  8
SCHRAFUR
 62
     7
100
AcDbSpline
210
0.0
220
0.0
230
1.0
 70
     8
 71
     3
 72
    11
 73
     7
 74
     0
 42
0.00000001
 43
0.00000001
 40
0.0
 40
0.0
 40
0.0
 40
0.0
 40
1.0
 40
1.0
 40
1.0
 40
2.0
 40
2.0
 40
2.0
 40
2.0
 10
-20.927404785156249
 20
-0.2917995876736111
 30
0.0
 10
-21.249865722656249
 20
0.2663058810763889
 30
0.0
 10
-21.96403401692708
 20
0.4575086805555555
 30
0.0
 10
-22.522483995225691
 20
0.1357367621527778
 30
0.0
 10
-22.699906412760413
 20
0.0327284071180556
 30
0.0
 10
-22.84770100911458
 20
-0.1143771701388889
 30
0.0
 10
-22.950020345052081
 20
-0.2917995876736111
 30
0.0
  0
LINE
  5
155
100
AcDbEntity
  8
SCHRAFUR
 62
     7
100
AcDbLine
 10
-12.103482
 20
-0.2918
 30
0.0
 11
-15.089346
 21
-0.2918
 31
0.0
  0
SPLINE
  5
154
100
AcDbEntity
  8
SCHRAFUR
 62
     7
100
AcDbSpline
210
0.0
220
0.0
230
1.0
 70
     8
 71
     3
 72
    11
 73
     7
 74
     0
 42
0.00000001
 43
0.00000001
 40
0.0
 40
0.0
 40
0.0
 40
0.0
 40
1.0
 40
1.0
 40
1.0
 40
2.0
 40
2.0
 40
2.0
 40
2.0
 10
-15.08934597439236
 20
-0.2917995876736111
 30
0.0
 10
-15.411806911892359
 20
0.2663058810763889
 30
0.0
 10
-16.125975206163194
 20
0.4575086805555555
 30
0.0
 10
-16.684080674913194
 20
0.1357367621527778
 30
0.0
 10
-16.861847601996526
 20
0.0327284071180556
 30
0.0
 10
-17.009297688802082
 20
-0.1143771701388889
 30
0.0
 10
-17.11161702473958
 20
-0.2917995876736111
 30
0.0
  0
SPLINE
  5
153
100
AcDbEntity
  8
SCHRAFUR
 62
     7
100
AcDbSpline
210
0.0
220
0.0
230
1.0
 70
     8
 71
     3
 72
    11
 73
     7
 74
     0
 42
0.00000001
 43
0.00000001
 40
0.0
 40
0.0
 40
0.0
 40
0.0
 40
1.0
 40
1.0
 40
1.0
 40
2.0
 40
2.0
 40
2.0
 40
2.0
 10
-10.081555175781249
 20
-0.2917995876736111
 30
0.0
 10
-10.40401611328125
 20
0.2663058810763889
 30
0.0
 10
-11.118184407552082
 20
0.4575086805555555
 30
0.0
 10
-11.676289876302082
 20
0.1357367621527778
 30
0.0
 10
-11.854056803385415
 20
0.0327284071180556
 30
0.0
 10
-12.001162380642359
 20
-0.1143771701388889
 30
0.0
 10
-12.103481716579861
 20
-0.2917995876736111
 30
0.0
  0
LINE
  5
152
100
AcDbEntity
  8
SCHRAFUR
 62
     7
100
AcDbLine
 10
4.309298
 20
-0.2918
 30
0.0
 11
0.49351
 21
-0.2918
 31
0.0
  0
LINE
  5
151
100
AcDbEntity
  8
SCHRAFUR
 62
     7
100
AcDbLine
 10
-1.529106
 20
-0.2918
 30
0.0
 11
-4.51497
 21
-0.2918
 31
0.0
  0
SPLINE
  5
150
100
AcDbEntity
  8
SCHRAFUR
 62
     7
100
AcDbSpline
210
0.0
220
0.0
230
1.0
 70
     8
 71
     3
 72
    11
 73
     7
 74
     0
 42
0.00000001
 43
0.00000001
 40
0.0
 40
0.0
 40
0.0
 40
0.0
 40
1.0
 40
1.0
 40
1.0
 40
2.0
 40
2.0
 40
2.0
 40
2.0
 10
-4.5149698893229164
 20
-0.2917995876736111
 30
0.0
 10
-4.8367418077256943
 20
0.2663058810763889
 30
0.0
 10
-5.5509101019965277
 20
0.4575086805555555
 30
0.0
 10
-6.1097045898437496
 20
0.1357367621527778
 30
0.0
 10
-6.2874715169270825
 20
0.0327284071180556
 30
0.0
 10
-6.4345770941840268
 20
-0.1143771701388889
 30
0.0
 10
-6.5368964301215273
 20
-0.2917995876736111
 30
0.0
  0
SPLINE
  5
14F
100
AcDbEntity
  8
SCHRAFUR
 62
     7
100
AcDbSpline
210
0.0
220
0.0
230
1.0
 70
     8
 71
     3
 72
    11
 73
     7
 74
     0
 42
0.00000001
 43
0.00000001
 40
0.0
 40
0.0
 40
0.0
 40
0.0
 40
1.0
 40
1.0
 40
1.0
 40
2.0
 40
2.0
 40
2.0
 40
2.0
 10
0.4935099283854166
 20
-0.2917995876736111
 30
0.0
 10
0.1710489908854166
 20
0.2663058810763889
 30
0.0
 10
-0.5431193033854166
 20
0.4575086805555555
 30
0.0
 10
-1.1015692816840277
 20
0.1357367621527778
 30
0.0
 10
-1.279336208767361
 20
0.0327284071180556
 30
0.0
 10
-1.4267862955729165
 20
-0.1143771701388889
 30
0.0
 10
-1.5291056315104166
 20
-0.2917995876736111
 30
0.0
  0
LINE
  5
14E
100
AcDbEntity
  8
SCHRAFUR
 62
     7
100
AcDbLine
 10
10.147356
 20
-0.2918
 30
0.0
 11
6.331569
 21
-0.2918
 31
0.0
  0
SPLINE
  5
14D
100
AcDbEntity
  8
SCHRAFUR
 62
     7
100
AcDbSpline
210
0.0
220
0.0
230
1.0
 70
     8
 71
     3
 72
    11
 73
     7
 74
     0
 42
0.00000001
 43
0.00000001
 40
0.0
 40
0.0
 40
0.0
 40
0.0
 40
1.0
 40
1.0
 40
1.0
 40
2.0
 40
2.0
 40
2.0
 40
2.0
 10
6.3315687391493052
 20
-0.2917995876736111
 30
0.0
 10
6.0091078016493054
 20
0.2663058810763889
 30
0.0
 10
5.294939507378472
 20
0.4575086805555555
 30
0.0
 10
4.73614501953125
 20
0.1357367621527778
 30
0.0
 10
4.5590671115451382
 20
0.0327284071180556
 30
0.0
 10
4.4116170247395825
 20
-0.1143771701388889
 30
0.0
 10
4.3092976888020829
 20
-0.2917995876736111
 30
0.0
  0
SPLINE
  5
14C
100
AcDbEntity
  8
SCHRAFUR
 62
     7
100
AcDbSpline
210
0.0
220
0.0
230
1.0
 70
     8
 71
     3
 72
    11
 73
     7
 74
     0
 42
0.00000001
 43
0.00000001
 40
0.0
 40
0.0
 40
0.0
 40
0.0
 40
1.0
 40
1.0
 40
1.0
 40
2.0
 40
2.0
 40
2.0
 40
2.0
 10
12.169283040364583
 20
-0.2917995876736111
 30
0.0
 10
11.846822102864582
 20
0.2663058810763889
 30
0.0
 10
11.133342827690971
 20
0.4575086805555555
 30
0.0
 10
10.57454833984375
 20
0.1357367621527778
 30
0.0
 10
10.396781412760415
 20
0.0327284071180556
 30
0.0
 10
10.249675835503471
 20
-0.1143771701388889
 30
0.0
 10
10.147356499565971
 20
-0.2917995876736111
 30
0.0
  0
SPLINE
  5
14B
100
AcDbEntity
  8
SCHRAFUR
 62
     7
100
AcDbSpline
210
0.0
220
0.0
230
1.0
 70
     8
 71
     3
 72
    11
 73
     7
 74
     0
 42
0.00000001
 43
0.00000001
 40
0.0
 40
0.0
 40
0.0
 40
0.0
 40
1.0
 40
1.0
 40
1.0
 40
2.0
 40
2.0
 40
2.0
 40
2.0
 10
23.845745171440971
 20
-0.2917995876736111
 30
0.0
 10
23.52328423394097
 20
0.2663058810763889
 30
0.0
 10
22.809460449218747
 20
0.4575086805555555
 30
0.0
 10
22.251010470920136
 20
0.1357367621527778
 30
0.0
 10
22.073243543836803
 20
0.0327284071180556
 30
0.0
 10
21.925793457031247
 20
-0.1143771701388889
 30
0.0
 10
21.823474121093749
 20
-0.2917995876736111
 30
0.0
  0
SPLINE
  5
14A
100
AcDbEntity
  8
SCHRAFUR
 62
     7
100
AcDbSpline
210
0.0
220
0.0
230
1.0
 70
     8
 71
     3
 72
    11
 73
     7
 74
     0
 42
0.00000001
 43
0.00000001
 40
0.0
 40
0.0
 40
0.0
 40
0.0
 40
1.0
 40
1.0
 40
1.0
 40
2.0
 40
2.0
 40
2.0
 40
2.0
 10
18.007686360677081
 20
-0.2917995876736111
 30
0.0
 10
17.68522542317708
 20
0.2663058810763889
 30
0.0
 10
16.971057128906249
 20
0.4575086805555555
 30
0.0
 10
16.412607150607638
 20
0.1357367621527778
 30
0.0
 10
16.235184733072916
 20
0.0327284071180556
 30
0.0
 10
16.088079155815972
 20
-0.1143771701388889
 30
0.0
 10
15.985070800781248
 20
-0.2917995876736111
 30
0.0
  0
LINE
  5
149
100
AcDbEntity
  8
SCHRAFUR
 62
     7
100
AcDbLine
 10
21.823474
 20
-0.2918
 30
0.0
 11
18.007686
 21
-0.2918
 31
0.0
  0
LINE
  5
148
100
AcDbEntity
  8
SCHRAFUR
 62
     7
100
AcDbLine
 10
26.444381
 20
-0.2918
 30
0.0
 11
23.845745
 21
-0.2918
 31
0.0
  0
ENDBLK
  5
15B
100
AcDbEntity
  8
SCHRAFUR
100
AcDbBlockEnd
  0
BLOCK
  5
188
100
AcDbEntity
  8
ROHR
  6
AI9-LType2
 62
     7
100
AcDbBlockBegin
  2
AI9-BLK5
 70
     0
 10
0.0
 20
0.0
 30
0.0
  3
AI9-BLK5
  1

  0
LINE
  5
1C5
100
AcDbEntity
  8
ROHR
 62
     7
100
AcDbLine
 10
-0.488687
 20
-5.422064
 30
0.0
 11
-0.34227
 21
-5.275647
 31
0.0
  0
LINE
  5
1C4
100
AcDbEntity
  8
ROHR
 62
     7
100
AcDbLine
 10
-0.587217
 20
-5.033801
 30
0.0
 11
-0.409105
 21
-4.85569
 31
0.0
  0
LINE
  5
1C3
100
AcDbEntity
  8
ROHR
 62
     7
100
AcDbLine
 10
-1.886362
 20
5.840987
 30
0.0
 11
-0.435977
 21
7.291545
 31
0.0
  0
LINE
  5
1C2
100
AcDbEntity
  8
ROHR
 62
     7
100
AcDbLine
 10
-1.939761
 20
5.301141
 30
0.0
 11
0.096979
 21
7.337192
 31
0.0
  0
LINE
  5
1C1
100
AcDbEntity
  8
ROHR
 62
     7
100
AcDbLine
 10
-1.955608
 20
4.797812
 30
0.0
 11
0.514525
 21
7.267946
 31
0.0
  0
LINE
  5
1C0
100
AcDbEntity
  8
ROHR
 62
     7
100
AcDbLine
 10
-1.475707
 20
-1.052477
 30
0.0
 11
-0.871092
 21
-0.447862
 31
0.0
  0
LINE
  5
1BF
100
AcDbEntity
  8
ROHR
 62
     7
100
AcDbLine
 10
-1.394058
 20
-1.465544
 30
0.0
 11
-0.842154
 21
-0.913639
 31
0.0
  0
LINE
  5
1BE
100
AcDbEntity
  8
ROHR
 62
     7
100
AcDbLine
 10
-0.684368
 20
-4.643816
 30
0.0
 11
-0.47215
 21
-4.431254
 31
0.0
  0
LINE
  5
1BD
100
AcDbEntity
  8
ROHR
 62
     7
100
AcDbLine
 10
-0.779453
 20
-4.252109
 30
0.0
 11
-0.531406
 21
-4.004062
 31
0.0
  0
LINE
  5
1BC
100
AcDbEntity
  8
ROHR
 62
     7
100
AcDbLine
 10
-0.873159
 20
-3.858679
 30
0.0
 11
-0.587217
 21
-3.573081
 31
0.0
  0
LINE
  5
1BB
100
AcDbEntity
  8
ROHR
 62
     7
100
AcDbLine
 10
-0.964454
 20
-3.463527
 30
0.0
 11
-0.639582
 21
-3.13831
 31
0.0
  0
LINE
  5
1BA
100
AcDbEntity
  8
ROHR
 62
     7
100
AcDbLine
 10
-1.054371
 20
-3.066307
 30
0.0
 11
-0.688158
 21
-2.699577
 31
0.0
  0
LINE
  5
1B9
100
AcDbEntity
  8
ROHR
 62
     7
100
AcDbLine
 10
-1.14291
 20
-2.667365
 30
0.0
 11
-0.732944
 21
-2.257571
 31
0.0
  0
LINE
  5
1B8
100
AcDbEntity
  8
ROHR
 62
     7
100
AcDbLine
 10
-1.228693
 20
-2.266356
 30
0.0
 11
-0.773252
 21
-1.811259
 31
0.0
  0
LINE
  5
1B7
100
AcDbEntity
  8
ROHR
 62
     7
100
AcDbLine
 10
-1.312754
 20
-1.863797
 30
0.0
 11
-0.810114
 21
-1.360985
 31
0.0
  0
LINE
  5
1B6
100
AcDbEntity
  8
ROHR
 62
     7
100
AcDbLine
 10
-1.933904
 20
2.871832
 30
0.0
 11
-0.913812
 21
3.891752
 31
0.0
  0
LINE
  5
1B5
100
AcDbEntity
  8
ROHR
 62
     7
100
AcDbLine
 10
-1.908755
 20
2.409844
 30
0.0
 11
-0.930004
 21
3.38894
 31
0.0
  0
LINE
  5
1B4
100
AcDbEntity
  8
ROHR
 62
     7
100
AcDbLine
 10
-1.876716
 20
1.955092
 30
0.0
 11
-0.940339
 21
2.891813
 31
0.0
  0
LINE
  5
1B3
100
AcDbEntity
  8
ROHR
 62
     7
100
AcDbLine
 10
-1.837786
 20
1.506885
 30
0.0
 11
-0.944817
 21
2.399854
 31
0.0
  0
LINE
  5
1B2
100
AcDbEntity
  8
ROHR
 62
     7
100
AcDbLine
 10
-1.792311
 20
1.065224
 30
0.0
 11
-0.944817
 21
1.913062
 31
0.0
  0
LINE
  5
1B1
100
AcDbEntity
  8
ROHR
 62
     7
100
AcDbLine
 10
-1.740634
 20
0.630108
 30
0.0
 11
-0.93965
 21
1.431437
 31
0.0
  0
LINE
  5
1B0
100
AcDbEntity
  8
ROHR
 62
     7
100
AcDbLine
 10
-1.683446
 20
0.200677
 30
0.0
 11
-0.929315
 21
0.954636
 31
0.0
  0
LINE
  5
1AF
100
AcDbEntity
  8
ROHR
 62
     7
100
AcDbLine
 10
-1.619712
 20
-0.222553
 30
0.0
 11
-0.914501
 21
0.482658
 31
0.0
  0
LINE
  5
1AE
100
AcDbEntity
  8
ROHR
 62
     7
100
AcDbLine
 10
-1.550465
 20
-0.640271
 30
0.0
 11
-0.894864
 21
0.014986
 31
0.0
  0
LINE
  5
1AD
100
AcDbEntity
  8
ROHR
 62
     7
100
AcDbLine
 10
-1.962499
 20
4.30413
 30
0.0
 11
-0.832852
 21
5.433777
 31
0.0
  0
LINE
  5
1AC
100
AcDbEntity
  8
ROHR
 62
     7
100
AcDbLine
 10
-1.960776
 20
3.818544
 30
0.0
 11
-0.865236
 21
4.914601
 31
0.0
  0
LINE
  5
1AB
100
AcDbEntity
  8
ROHR
 62
     7
100
AcDbLine
 10
-1.95113
 20
3.341398
 30
0.0
 11
-0.892796
 21
4.400248
 31
0.0
  0
LINE
  5
1AA
100
AcDbEntity
  8
ROHR
 62
     7
100
AcDbLine
 10
-0.028767
 20
6.237862
 30
0.0
 11
0.864891
 21
7.13152
 31
0.0
  0
LINE
  5
1A9
100
AcDbEntity
  8
ROHR
 62
     7
100
AcDbLine
 10
0.368108
 20
6.147945
 30
0.0
 11
1.163926
 21
6.943762
 31
0.0
  0
LINE
  5
1A8
100
AcDbEntity
  8
ROHR
 62
     7
100
AcDbLine
 10
0.917946
 20
-1.093473
 30
0.0
 11
1.721686
 21
-0.289733
 31
0.0
  0
LINE
  5
1A7
100
AcDbEntity
  8
ROHR
 62
     7
100
AcDbLine
 10
0.883839
 20
-1.614372
 30
0.0
 11
1.650718
 21
-0.847838
 31
0.0
  0
LINE
  5
1A6
100
AcDbEntity
  8
ROHR
 62
     7
100
AcDbLine
 10
0.527272
 20
-4.893241
 30
0.0
 11
0.961354
 21
-4.458815
 31
0.0
  0
LINE
  5
1A5
100
AcDbEntity
  8
ROHR
 62
     7
100
AcDbLine
 10
0.11386
 20
-7.25451
 30
0.0
 11
0.158991
 21
-7.209379
 31
0.0
  0
LINE
  5
1A4
100
AcDbEntity
  8
ROHR
 62
     7
100
AcDbLine
 10
0.030834
 20
-7.337192
 30
0.0
 11
0.039446
 21
-7.328924
 31
0.0
  0
LINE
  5
1A3
100
AcDbEntity
  8
ROHR
 62
     7
100
AcDbLine
 10
0.232372
 20
-6.648862
 30
0.0
 11
0.393602
 21
-6.487632
 31
0.0
  0
LINE
  5
1A2
100
AcDbEntity
  8
ROHR
 62
     7
100
AcDbLine
 10
-0.076309
 20
-6.957198
 30
0.0
 11
-0.04358
 21
-6.924814
 31
0.0
  0
LINE
  5
1A1
100
AcDbEntity
  8
ROHR
 62
     7
100
AcDbLine
 10
-0.182073
 20
-6.576515
 30
0.0
 11
-0.123162
 21
-6.517604
 31
0.0
  0
LINE
  5
1A0
100
AcDbEntity
  8
ROHR
 62
     7
100
AcDbLine
 10
-0.286115
 20
-6.193076
 30
0.0
 11
-0.199643
 21
-6.106604
 31
0.0
  0
LINE
  5
19F
100
AcDbEntity
  8
ROHR
 62
     7
100
AcDbLine
 10
0.438388
 20
-5.468572
 30
0.0
 11
0.792544
 21
-5.114417
 31
0.0
  0
LINE
  5
19E
100
AcDbEntity
  8
ROHR
 62
     7
100
AcDbLine
 10
0.340892
 20
-6.05355
 30
0.0
 11
0.603753
 21
-5.790344
 31
0.0
  0
LINE
  5
19D
100
AcDbEntity
  8
ROHR
 62
     7
100
AcDbLine
 10
-0.388435
 20
-5.808603
 30
0.0
 11
-0.272679
 21
-5.693193
 31
0.0
  0
LINE
  5
19C
100
AcDbEntity
  8
ROHR
 62
     7
100
AcDbLine
 10
0.606509
 20
-4.326868
 30
0.0
 11
1.112938
 21
-3.820439
 31
0.0
  0
LINE
  5
19B
100
AcDbEntity
  8
ROHR
 62
     7
100
AcDbLine
 10
0.677823
 20
-3.768762
 30
0.0
 11
1.247641
 21
-3.198599
 31
0.0
  0
LINE
  5
19A
100
AcDbEntity
  8
ROHR
 62
     7
100
AcDbLine
 10
0.740179
 20
-3.218925
 30
0.0
 11
1.36822
 21
-2.591401
 31
0.0
  0
LINE
  5
199
100
AcDbEntity
  8
ROHR
 62
     7
100
AcDbLine
 10
0.795645
 20
-2.676839
 30
0.0
 11
1.474673
 21
-1.997811
 31
0.0
  0
LINE
  5
198
100
AcDbEntity
  8
ROHR
 62
     7
100
AcDbLine
 10
0.843532
 20
-2.141988
 30
0.0
 11
1.568724
 21
-1.416968
 31
0.0
  0
LINE
  5
197
100
AcDbEntity
  8
ROHR
 62
     7
100
AcDbLine
 10
0.973412
 20
2.857362
 30
0.0
 11
1.962499
 21
3.846449
 31
0.0
  0
LINE
  5
196
100
AcDbEntity
  8
ROHR
 62
     7
100
AcDbLine
 10
0.985125
 20
2.382456
 30
0.0
 11
1.959743
 21
3.357073
 31
0.0
  0
LINE
  5
195
100
AcDbEntity
  8
ROHR
 62
     7
100
AcDbLine
 10
0.99236
 20
1.902726
 30
0.0
 11
1.950441
 21
2.860807
 31
0.0
  0
LINE
  5
194
100
AcDbEntity
  8
ROHR
 62
     7
100
AcDbLine
 10
0.994427
 20
1.417485
 30
0.0
 11
1.93356
 21
2.356618
 31
0.0
  0
LINE
  5
193
100
AcDbEntity
  8
ROHR
 62
     7
100
AcDbLine
 10
0.990982
 20
0.927075
 30
0.0
 11
1.908755
 21
1.844849
 31
0.0
  0
LINE
  5
192
100
AcDbEntity
  8
ROHR
 62
     7
100
AcDbLine
 10
0.945506
 20
-0.579293
 30
0.0
 11
1.782665
 21
0.257865
 31
0.0
  0
LINE
  5
191
100
AcDbEntity
  8
ROHR
 62
     7
100
AcDbLine
 10
0.966522
 20
-0.071313
 30
0.0
 11
1.833652
 21
0.795817
 31
0.0
  0
LINE
  5
190
100
AcDbEntity
  8
ROHR
 62
     7
100
AcDbLine
 10
0.98168
 20
0.430637
 30
0.0
 11
1.875682
 21
1.324639
 31
0.0
  0
LINE
  5
18F
100
AcDbEntity
  8
ROHR
 62
     7
100
AcDbLine
 10
0.636826
 20
5.929871
 30
0.0
 11
1.418174
 21
6.710874
 31
0.0
  0
LINE
  5
18E
100
AcDbEntity
  8
ROHR
 62
     7
100
AcDbLine
 10
0.797023
 20
5.602931
 30
0.0
 11
1.62798
 21
6.433888
 31
0.0
  0
LINE
  5
18D
100
AcDbEntity
  8
ROHR
 62
     7
100
AcDbLine
 10
0.841465
 20
5.160064
 30
0.0
 11
1.790933
 21
6.109705
 31
0.0
  0
LINE
  5
18C
100
AcDbEntity
  8
ROHR
 62
     7
100
AcDbLine
 10
0.876605
 20
4.708757
 30
0.0
 11
1.895319
 21
5.727299
 31
0.0
  0
LINE
  5
18B
100
AcDbEntity
  8
ROHR
 62
     7
100
AcDbLine
 10
0.90761
 20
4.252626
 30
0.0
 11
1.929426
 21
5.274269
 31
0.0
  0
LINE
  5
18A
100
AcDbEntity
  8
ROHR
 62
     7
100
AcDbLine
 10
0.934482
 20
3.792533
 30
0.0
 11
1.946996
 21
4.804875
 31
0.0
  0
LINE
  5
189
100
AcDbEntity
  8
ROHR
 62
     7
100
AcDbLine
 10
0.956186
 20
3.327101
 30
0.0
 11
1.957676
 21
4.328935
 31
0.0
  0
ENDBLK
  5
1C6
100
AcDbEntity
  8
ROHR
100
AcDbBlockEnd
  0
BLOCK
  5
1C9
100
AcDbEntity
  8
ROHR
 62
     7
100
AcDbBlockBegin
  2
AI9-BLK6
 70
     0
 10
0.0
 20
0.0
 30
0.0
  3
AI9-BLK6
  1

  0
LINE
  5
206
100
AcDbEntity
  8
ROHR
 62
     7
100
AcDbLine
 10
-0.884098
 20
1.61463
 30
0.0
 11
-1.650631
 21
0.847752
 31
0.0
  0
LINE
  5
205
100
AcDbEntity
  8
ROHR
 62
     7
100
AcDbLine
 10
-0.91786
 20
1.093732
 30
0.0
 11
-1.721773
 21
0.289646
 31
0.0
  0
LINE
  5
204
100
AcDbEntity
  8
ROHR
 62
     7
100
AcDbLine
 10
1.394144
 20
1.465802
 30
0.0
 11
0.84224
 21
0.913898
 31
0.0
  0
LINE
  5
203
100
AcDbEntity
  8
ROHR
 62
     7
100
AcDbLine
 10
1.475793
 20
1.052391
 30
0.0
 11
0.871179
 21
0.447776
 31
0.0
  0
LINE
  5
202
100
AcDbEntity
  8
ROHR
 62
     7
100
AcDbLine
 10
-0.956445
 20
-3.327015
 30
0.0
 11
-1.957934
 21
-4.328504
 31
0.0
  0
LINE
  5
201
100
AcDbEntity
  8
ROHR
 62
     7
100
AcDbLine
 10
-0.973498
 20
-2.857448
 30
0.0
 11
-1.962585
 21
-3.846535
 31
0.0
  0
LINE
  5
200
100
AcDbEntity
  8
ROHR
 62
     7
100
AcDbLine
 10
-0.985556
 20
-2.38237
 30
0.0
 11
-1.960001
 21
-3.356987
 31
0.0
  0
LINE
  5
1FF
100
AcDbEntity
  8
ROHR
 62
     7
100
AcDbLine
 10
-0.368367
 20
-6.148204
 30
0.0
 11
-1.164184
 21
-6.943332
 31
0.0
  0
LINE
  5
1FE
100
AcDbEntity
  8
ROHR
 62
     7
100
AcDbLine
 10
1.88662
 20
-5.840557
 30
0.0
 11
0.436063
 21
-7.291286
 31
0.0
  0
LINE
  5
1FD
100
AcDbEntity
  8
ROHR
 62
     7
100
AcDbLine
 10
1.93933
 20
-5.301055
 30
0.0
 11
-0.096549
 21
-7.337106
 31
0.0
  0
LINE
  5
1FC
100
AcDbEntity
  8
ROHR
 62
     7
100
AcDbLine
 10
0.028853
 20
-6.237432
 30
0.0
 11
-0.864977
 21
-7.131434
 31
0.0
  0
LINE
  5
1FB
100
AcDbEntity
  8
ROHR
 62
     7
100
AcDbLine
 10
1.955522
 20
-4.797726
 30
0.0
 11
-0.514611
 21
-7.26786
 31
0.0
  0
LINE
  5
1FA
100
AcDbEntity
  8
ROHR
 62
     7
100
AcDbLine
 10
-0.637084
 20
-5.92944
 30
0.0
 11
-1.418087
 21
-6.710788
 31
0.0
  0
LINE
  5
1F9
100
AcDbEntity
  8
ROHR
 62
     7
100
AcDbLine
 10
-0.907869
 20
-4.252712
 30
0.0
 11
-1.929512
 21
-5.274183
 31
0.0
  0
LINE
  5
1F8
100
AcDbEntity
  8
ROHR
 62
     7
100
AcDbLine
 10
-0.797281
 20
-5.602845
 30
0.0
 11
-1.628238
 21
-6.433802
 31
0.0
  0
LINE
  5
1F7
100
AcDbEntity
  8
ROHR
 62
     7
100
AcDbLine
 10
-0.841378
 20
-5.16015
 30
0.0
 11
-1.790675
 21
-6.109274
 31
0.0
  0
LINE
  5
1F6
100
AcDbEntity
  8
ROHR
 62
     7
100
AcDbLine
 10
-0.876863
 20
-4.708498
 30
0.0
 11
-1.895578
 21
-5.727557
 31
0.0
  0
LINE
  5
1F5
100
AcDbEntity
  8
ROHR
 62
     7
100
AcDbLine
 10
-0.934396
 20
-3.792103
 30
0.0
 11
-1.946737
 21
-4.804616
 31
0.0
  0
LINE
  5
1F4
100
AcDbEntity
  8
ROHR
 62
     7
100
AcDbLine
 10
-0.992618
 20
-1.902468
 30
0.0
 11
-1.950699
 21
-2.860549
 31
0.0
  0
LINE
  5
1F3
100
AcDbEntity
  8
ROHR
 62
     7
100
AcDbLine
 10
-0.994341
 20
-1.417743
 30
0.0
 11
-1.933646
 21
-2.356531
 31
0.0
  0
LINE
  5
1F2
100
AcDbEntity
  8
ROHR
 62
     7
100
AcDbLine
 10
-0.990723
 20
-0.926817
 30
0.0
 11
-1.908497
 21
-1.84459
 31
0.0
  0
LINE
  5
1F1
100
AcDbEntity
  8
ROHR
 62
     7
100
AcDbLine
 10
-0.945248
 20
0.579723
 30
0.0
 11
-1.782751
 21
-0.258124
 31
0.0
  0
LINE
  5
1F0
100
AcDbEntity
  8
ROHR
 62
     7
100
AcDbLine
 10
-0.966435
 20
0.071227
 30
0.0
 11
-1.833566
 21
-0.795903
 31
0.0
  0
LINE
  5
1EF
100
AcDbEntity
  8
ROHR
 62
     7
100
AcDbLine
 10
-0.981422
 20
-0.430723
 30
0.0
 11
-1.875424
 21
-1.324725
 31
0.0
  0
LINE
  5
1EE
100
AcDbEntity
  8
ROHR
 62
     7
100
AcDbLine
 10
1.933818
 20
-2.871918
 30
0.0
 11
0.91407
 21
-3.891321
 31
0.0
  0
LINE
  5
1ED
100
AcDbEntity
  8
ROHR
 62
     7
100
AcDbLine
 10
1.908841
 20
-2.40993
 30
0.0
 11
0.93009
 21
-3.388682
 31
0.0
  0
LINE
  5
1EC
100
AcDbEntity
  8
ROHR
 62
     7
100
AcDbLine
 10
1.876802
 20
-1.955178
 30
0.0
 11
0.940425
 21
-2.891555
 31
0.0
  0
LINE
  5
1EB
100
AcDbEntity
  8
ROHR
 62
     7
100
AcDbLine
 10
1.951216
 20
-3.34114
 30
0.0
 11
0.892538
 21
-4.399818
 31
0.0
  0
LINE
  5
1EA
100
AcDbEntity
  8
ROHR
 62
     7
100
AcDbLine
 10
1.961034
 20
-3.81863
 30
0.0
 11
0.86515
 21
-4.914515
 31
0.0
  0
LINE
  5
1E9
100
AcDbEntity
  8
ROHR
 62
     7
100
AcDbLine
 10
1.962585
 20
-4.303699
 30
0.0
 11
0.832938
 21
-5.434035
 31
0.0
  0
LINE
  5
1E8
100
AcDbEntity
  8
ROHR
 62
     7
100
AcDbLine
 10
1.792569
 20
-1.06531
 30
0.0
 11
0.944731
 21
-1.913148
 31
0.0
  0
LINE
  5
1E7
100
AcDbEntity
  8
ROHR
 62
     7
100
AcDbLine
 10
1.619626
 20
0.222467
 30
0.0
 11
0.914587
 21
-0.482399
 31
0.0
  0
LINE
  5
1E6
100
AcDbEntity
  8
ROHR
 62
     7
100
AcDbLine
 10
1.550207
 20
0.640013
 30
0.0
 11
0.89495
 21
-0.015245
 31
0.0
  0
LINE
  5
1E5
100
AcDbEntity
  8
ROHR
 62
     7
100
AcDbLine
 10
1.838045
 20
-1.506626
 30
0.0
 11
0.945076
 21
-2.399595
 31
0.0
  0
LINE
  5
1E4
100
AcDbEntity
  8
ROHR
 62
     7
100
AcDbLine
 10
1.740893
 20
-0.630194
 30
0.0
 11
0.939564
 21
-1.431179
 31
0.0
  0
LINE
  5
1E3
100
AcDbEntity
  8
ROHR
 62
     7
100
AcDbLine
 10
1.683188
 20
-0.200591
 30
0.0
 11
0.929228
 21
-0.954722
 31
0.0
  0
LINE
  5
1E2
100
AcDbEntity
  8
ROHR
 62
     7
100
AcDbLine
 10
0.964713
 20
3.463268
 30
0.0
 11
0.639668
 21
3.138051
 31
0.0
  0
LINE
  5
1E1
100
AcDbEntity
  8
ROHR
 62
     7
100
AcDbLine
 10
0.684282
 20
4.643903
 30
0.0
 11
0.471892
 21
4.431685
 31
0.0
  0
LINE
  5
1E0
100
AcDbEntity
  8
ROHR
 62
     7
100
AcDbLine
 10
0.779711
 20
4.252195
 30
0.0
 11
0.531664
 21
4.004148
 31
0.0
  0
LINE
  5
1DF
100
AcDbEntity
  8
ROHR
 62
     7
100
AcDbLine
 10
0.873246
 20
3.858421
 30
0.0
 11
0.587475
 21
3.573167
 31
0.0
  0
LINE
  5
1DE
100
AcDbEntity
  8
ROHR
 62
     7
100
AcDbLine
 10
-0.527186
 20
4.892983
 30
0.0
 11
-0.961612
 21
4.458901
 31
0.0
  0
LINE
  5
1DD
100
AcDbEntity
  8
ROHR
 62
     7
100
AcDbLine
 10
-0.606595
 20
4.326609
 30
0.0
 11
-1.11268
 21
3.820869
 31
0.0
  0
LINE
  5
1DC
100
AcDbEntity
  8
ROHR
 62
     7
100
AcDbLine
 10
-0.677564
 20
3.768504
 30
0.0
 11
-1.2479
 21
3.198685
 31
0.0
  0
LINE
  5
1DB
100
AcDbEntity
  8
ROHR
 62
     7
100
AcDbLine
 10
-0.740437
 20
3.218667
 30
0.0
 11
-1.367961
 21
2.591315
 31
0.0
  0
LINE
  5
1DA
100
AcDbEntity
  8
ROHR
 62
     7
100
AcDbLine
 10
-0.795731
 20
2.676753
 30
0.0
 11
-1.474415
 21
1.998069
 31
0.0
  0
LINE
  5
1D9
100
AcDbEntity
  8
ROHR
 62
     7
100
AcDbLine
 10
-0.843446
 20
2.142419
 30
0.0
 11
-1.568466
 21
1.417226
 31
0.0
  0
LINE
  5
1D8
100
AcDbEntity
  8
ROHR
 62
     7
100
AcDbLine
 10
-0.438647
 20
5.468658
 30
0.0
 11
-0.79263
 21
5.114847
 31
0.0
  0
LINE
  5
1D7
100
AcDbEntity
  8
ROHR
 62
     7
100
AcDbLine
 10
-0.113774
 20
7.254424
 30
0.0
 11
-0.158733
 21
7.209465
 31
0.0
  0
LINE
  5
1D6
100
AcDbEntity
  8
ROHR
 62
     7
100
AcDbLine
 10
-0.03092
 20
7.337106
 30
0.0
 11
-0.03936
 21
7.328838
 31
0.0
  0
LINE
  5
1D5
100
AcDbEntity
  8
ROHR
 62
     7
100
AcDbLine
 10
-0.232458
 20
6.648776
 30
0.0
 11
-0.393688
 21
6.487545
 31
0.0
  0
LINE
  5
1D4
100
AcDbEntity
  8
ROHR
 62
     7
100
AcDbLine
 10
0.076395
 20
6.957629
 30
0.0
 11
0.043494
 21
6.924728
 31
0.0
  0
LINE
  5
1D3
100
AcDbEntity
  8
ROHR
 62
     7
100
AcDbLine
 10
-0.340634
 20
6.053808
 30
0.0
 11
-0.604011
 21
5.790086
 31
0.0
  0
LINE
  5
1D2
100
AcDbEntity
  8
ROHR
 62
     7
100
AcDbLine
 10
0.181815
 20
6.576257
 30
0.0
 11
0.123076
 21
6.517346
 31
0.0
  0
LINE
  5
1D1
100
AcDbEntity
  8
ROHR
 62
     7
100
AcDbLine
 10
0.285857
 20
6.193334
 30
0.0
 11
0.199557
 21
6.10669
 31
0.0
  0
LINE
  5
1D0
100
AcDbEntity
  8
ROHR
 62
     7
100
AcDbLine
 10
0.388176
 20
5.808689
 30
0.0
 11
0.272765
 21
5.692934
 31
0.0
  0
LINE
  5
1CF
100
AcDbEntity
  8
ROHR
 62
     7
100
AcDbLine
 10
0.488428
 20
5.42215
 30
0.0
 11
0.342529
 21
5.276078
 31
0.0
  0
LINE
  5
1CE
100
AcDbEntity
  8
ROHR
 62
     7
100
AcDbLine
 10
0.587475
 20
5.033543
 30
0.0
 11
0.409191
 21
4.855431
 31
0.0
  0
LINE
  5
1CD
100
AcDbEntity
  8
ROHR
 62
     7
100
AcDbLine
 10
1.05463
 20
3.066393
 30
0.0
 11
0.688244
 21
2.699835
 31
0.0
  0
LINE
  5
1CC
100
AcDbEntity
  8
ROHR
 62
     7
100
AcDbLine
 10
1.142652
 20
2.667451
 30
0.0
 11
0.732858
 21
2.257485
 31
0.0
  0
LINE
  5
1CB
100
AcDbEntity
  8
ROHR
 62
     7
100
AcDbLine
 10
1.228779
 20
2.266442
 30
0.0
 11
0.77351
 21
1.811001
 31
0.0
  0
LINE
  5
1CA
100
AcDbEntity
  8
ROHR
 62
     7
100
AcDbLine
 10
1.313012
 20
1.863711
 30
0.0
 11
0.8102
 21
1.361071
 31
0.0
  0
ENDBLK
  5
207
100
AcDbEntity
  8
ROHR
100
AcDbBlockEnd
  0
ENDSEC
  0
SECTION
  2
ENTITIES
  0
LINE
  5
220
100
AcDbEntity
  8
SCHRAUBEN
 62
     7
100
AcDbLine
 10
116.518297
 20
162.69739
 30
0.0
 11
116.518297
 21
164.531904
 31
0.0
  0
LINE
  5
21F
100
AcDbEntity
  8
SCHRAUBEN
 62
     7
100
AcDbLine
 10
117.620039
 20
162.69739
 30
0.0
 11
117.620039
 21
164.531904
 31
0.0
  0
SPLINE
  5
21E
100
AcDbEntity
  8
SCHRAUBEN
 62
     7
100
AcDbSpline
210
0.0
220
0.0
230
1.0
 70
     8
 71
     3
 72
     8
 73
     4
 74
     0
 42
0.00000001
 43
0.00000001
 40
0.0
 40
0.0
 40
0.0
 40
0.0
 40
1.0
 40
1.0
 40
1.0
 40
1.0
 10
117.51530761718749
 20
164.22597927517359
 30
0.0
 10
117.6551784939236
 20
163.83048231336804
 30
0.0
 10
117.6551784939236
 20
163.39898410373263
 30
0.0
 10
117.51530761718749
 20
163.00314263237846
 30
0.0
  0
SPLINE
  5
21D
100
AcDbEntity
  8
SCHRAUBEN
 62
     7
100
AcDbSpline
210
0.0
220
0.0
230
1.0
 70
     8
 71
     3
 72
     8
 73
     4
 74
     0
 42
0.00000001
 43
0.00000001
 40
0.0
 40
0.0
 40
0.0
 40
0.0
 40
1.0
 40
1.0
 40
1.0
 40
1.0
 10
116.62337239583333
 20
163.00314263237846
 30
0.0
 10
116.48315700954861
 20
163.39898410373263
 30
0.0
 10
116.48315700954861
 20
163.83048231336804
 30
0.0
 10
116.62337239583333
 20
164.22597927517359
 30
0.0
  0
LINE
  5
21C
100
AcDbEntity
  8
SCHRAUBEN
 62
     7
100
AcDbLine
 10
117.515308
 20
162.391466
 30
0.0
 11
116.623372
 21
162.391466
 31
0.0
  0
SPLINE
  5
21B
100
AcDbEntity
  8
SCHRAUBEN
 62
     7
100
AcDbSpline
210
0.0
220
0.0
230
1.0
 70
     8
 71
     3
 72
     8
 73
     4
 74
     0
 42
0.00000001
 43
0.00000001
 40
0.0
 40
0.0
 40
0.0
 40
0.0
 40
1.0
 40
1.0
 40
1.0
 40
1.0
 10
117.51530761718749
 20
163.00314263237846
 30
0.0
 10
117.6551784939236
 20
162.82330864800346
 30
0.0
 10
117.6551784939236
 20
162.57129991319442
 30
0.0
 10
117.51530761718749
 20
162.39146592881943
 30
0.0
  0
LINE
  5
21A
100
AcDbEntity
  8
SCHRAUBEN
 62
     7
100
AcDbLine
 10
117.515308
 20
163.003143
 30
0.0
 11
116.623372
 21
163.003143
 31
0.0
  0
SPLINE
  5
219
100
AcDbEntity
  8
SCHRAUBEN
 62
     7
100
AcDbSpline
210
0.0
220
0.0
230
1.0
 70
     8
 71
     3
 72
     8
 73
     4
 74
     0
 42
0.00000001
 43
0.00000001
 40
0.0
 40
0.0
 40
0.0
 40
0.0
 40
1.0
 40
1.0
 40
1.0
 40
1.0
 10
116.62337239583333
 20
162.39146592881943
 30
0.0
 10
116.48315700954861
 20
162.57129991319442
 30
0.0
 10
116.48315700954861
 20
162.82330864800346
 30
0.0
 10
116.62337239583333
 20
163.00314263237846
 30
0.0
  0
LINE
  5
218
100
AcDbEntity
  8
SCHRAUBEN
 62
     7
100
AcDbLine
 10
117.515308
 20
164.225979
 30
0.0
 11
116.623372
 21
164.225979
 31
0.0
  0
SPLINE
  5
217
100
AcDbEntity
  8
SCHRAUBEN
 62
     7
100
AcDbSpline
210
0.0
220
0.0
230
1.0
 70
     8
 71
     3
 72
     8
 73
     4
 74
     0
 42
0.00000001
 43
0.00000001
 40
0.0
 40
0.0
 40
0.0
 40
0.0
 40
1.0
 40
1.0
 40
1.0
 40
1.0
 10
117.51530761718749
 20
164.83765597873261
 30
0.0
 10
117.6551784939236
 20
164.65782199435762
 30
0.0
 10
117.6551784939236
 20
164.40581325954861
 30
0.0
 10
117.51530761718749
 20
164.22597927517359
 30
0.0
  0
SPLINE
  5
216
100
AcDbEntity
  8
SCHRAUBEN
 62
     7
100
AcDbSpline
210
0.0
220
0.0
230
1.0
 70
     8
 71
     3
 72
     8
 73
     4
 74
     0
 42
0.00000001
 43
0.00000001
 40
0.0
 40
0.0
 40
0.0
 40
0.0
 40
1.0
 40
1.0
 40
1.0
 40
1.0
 10
116.62337239583333
 20
164.22597927517359
 30
0.0
 10
116.48315700954861
 20
164.40581325954861
 30
0.0
 10
116.48315700954861
 20
164.65782199435762
 30
0.0
 10
116.62337239583333
 20
164.83765597873261
 30
0.0
  0
LINE
  5
215
100
AcDbEntity
  8
SCHRAUBEN
 62
     7
100
AcDbLine
 10
117.515308
 20
164.837656
 30
0.0
 11
116.623372
 21
164.837656
 31
0.0
  0
LINE
  5
214
100
AcDbEntity
  8
SCHRAUBEN
 62
     7
100
AcDbLine
 10
116.518297
 20
128.404565
 30
0.0
 11
116.518297
 21
130.239768
 31
0.0
  0
LINE
  5
213
100
AcDbEntity
  8
SCHRAUBEN
 62
     7
100
AcDbLine
 10
117.620039
 20
128.404565
 30
0.0
 11
117.620039
 21
130.239768
 31
0.0
  0
SPLINE
  5
212
100
AcDbEntity
  8
SCHRAUBEN
 62
     7
100
AcDbSpline
210
0.0
220
0.0
230
1.0
 70
     8
 71
     3
 72
     8
 73
     4
 74
     0
 42
0.00000001
 43
0.00000001
 40
0.0
 40
0.0
 40
0.0
 40
0.0
 40
1.0
 40
1.0
 40
1.0
 40
1.0
 10
117.51530761718749
 20
129.93384331597221
 30
0.0
 10
117.6551784939236
 20
129.53800184461804
 30
0.0
 10
117.6551784939236
 20
129.10633138020833
 30
0.0
 10
117.51530761718749
 20
128.71048990885416
 30
0.0
  0
SPLINE
  5
211
100
AcDbEntity
  8
SCHRAUBEN
 62
     7
100
AcDbSpline
210
0.0
220
0.0
230
1.0
 70
     8
 71
     3
 72
     8
 73
     4
 74
     0
 42
0.00000001
 43
0.00000001
 40
0.0
 40
0.0
 40
0.0
 40
0.0
 40
1.0
 40
1.0
 40
1.0
 40
1.0
 10
116.62337239583333
 20
128.71048990885416
 30
0.0
 10
116.48315700954861
 20
129.10633138020833
 30
0.0
 10
116.48315700954861
 20
129.53800184461804
 30
0.0
 10
116.62337239583333
 20
129.93384331597221
 30
0.0
  0
LINE
  5
210
100
AcDbEntity
  8
SCHRAUBEN
 62
     7
100
AcDbLine
 10
117.515308
 20
128.09933
 30
0.0
 11
116.623372
 21
128.09933
 31
0.0
  0
SPLINE
  5
20F
100
AcDbEntity
  8
SCHRAUBEN
 62
     7
100
AcDbSpline
210
0.0
220
0.0
230
1.0
 70
     8
 71
     3
 72
     8
 73
     4
 74
     0
 42
0.00000001
 43
0.00000001
 40
0.0
 40
0.0
 40
0.0
 40
0.0
 40
1.0
 40
1.0
 40
1.0
 40
1.0
 10
117.51530761718749
 20
128.71048990885416
 30
0.0
 10
117.6551784939236
 20
128.53065592447916
 30
0.0
 10
117.6551784939236
 20
128.27916395399305
 30
0.0
 10
117.51530761718749
 20
128.09932996961805
 30
0.0
  0
LINE
  5
20E
100
AcDbEntity
  8
SCHRAUBEN
 62
     7
100
AcDbLine
 10
117.515308
 20
128.71049
 30
0.0
 11
116.623372
 21
128.71049
 31
0.0
  0
SPLINE
  5
20D
100
AcDbEntity
  8
SCHRAUBEN
 62
     7
100
AcDbSpline
210
0.0
220
0.0
230
1.0
 70
     8
 71
     3
 72
     8
 73
     4
 74
     0
 42
0.00000001
 43
0.00000001
 40
0.0
 40
0.0
 40
0.0
 40
0.0
 40
1.0
 40
1.0
 40
1.0
 40
1.0
 10
116.62337239583333
 20
128.09932996961805
 30
0.0
 10
116.48315700954861
 20
128.27916395399305
 30
0.0
 10
116.48315700954861
 20
128.53065592447916
 30
0.0
 10
116.62337239583333
 20
128.71048990885416
 30
0.0
  0
LINE
  5
20C
100
AcDbEntity
  8
SCHRAUBEN
 62
     7
100
AcDbLine
 10
117.515308
 20
129.933843
 30
0.0
 11
116.623372
 21
129.933843
 31
0.0
  0
SPLINE
  5
20B
100
AcDbEntity
  8
SCHRAUBEN
 62
     7
100
AcDbSpline
210
0.0
220
0.0
230
1.0
 70
     8
 71
     3
 72
     8
 73
     4
 74
     0
 42
0.00000001
 43
0.00000001
 40
0.0
 40
0.0
 40
0.0
 40
0.0
 40
1.0
 40
1.0
 40
1.0
 40
1.0
 10
117.51530761718749
 20
130.54500325520831
 30
0.0
 10
117.6551784939236
 20
130.36516927083332
 30
0.0
 10
117.6551784939236
 20
130.11367730034721
 30
0.0
 10
117.51530761718749
 20
129.93384331597221
 30
0.0
  0
SPLINE
  5
20A
100
AcDbEntity
  8
SCHRAUBEN
 62
     7
100
AcDbSpline
210
0.0
220
0.0
230
1.0
 70
     8
 71
     3
 72
     8
 73
     4
 74
     0
 42
0.00000001
 43
0.00000001
 40
0.0
 40
0.0
 40
0.0
 40
0.0
 40
1.0
 40
1.0
 40
1.0
 40
1.0
 10
116.62337239583333
 20
129.93384331597221
 30
0.0
 10
116.48315700954861
 20
130.11367730034721
 30
0.0
 10
116.48315700954861
 20
130.36516927083332
 30
0.0
 10
116.62337239583333
 20
130.54500325520831
 30
0.0
  0
LINE
  5
209
100
AcDbEntity
  8
SCHRAUBEN
 62
     7
100
AcDbLine
 10
117.515308
 20
130.545003
 30
0.0
 11
116.623372
 21
130.545003
 31
0.0
  0
INSERT
  5
1C8
100
AcDbEntity
  8
ROHR
 62
     7
100
AcDbBlockReference
  2
AI9-BLK6
 10
101.256955
 20
141.813308
 30
0.0
  0
INSERT
  5
187
100
AcDbEntity
  8
ROHR
  6
AI9-LType2
 62
     7
100
AcDbBlockReference
  2
AI9-BLK5
 10
167.340862
 20
151.201279
 30
0.0
  0
LINE
  5
184
100
AcDbEntity
  8
GETRENNT
  6
AI9-LType2
 62
     7
100
AcDbLine
 10
107.255813
 20
201.806976
 30
0.0
 11
160.673741
 21
201.806976
 31
0.0
  0
LINE
  5
183
100
AcDbEntity
  8
GETRENNT
  6
AI9-LType2
 62
     7
100
AcDbLine
 10
107.255813
 20
90.76862
 30
0.0
 11
160.673741
 21
90.76862
 31
0.0
  0
SPLINE
  5
181
100
AcDbEntity
  8
DAEMMUNG
 62
     7
100
AcDbSpline
210
0.0
220
0.0
230
1.0
 70
     8
 71
     3
 72
    17
 73
    13
 74
     0
 42
0.00000001
 43
0.00000001
 40
0.0
 40
0.0
 40
0.0
 40
0.0
 40
1.0
 40
1.0
 40
1.0
 40
2.0
 40
2.0
 40
2.0
 40
3.0
 40
3.0
 40
3.0
 40
4.0
 40
4.0
 40
4.0
 40
4.0
 10
118.52127549913193
 20
191.95348578559026
 30
0.0
 10
117.83707953559026
 20
191.68614637586805
 30
0.0
 10
117.05848795572916
 20
191.90594346788194
 30
0.0
 10
116.61510416666665
 20
192.49178195529512
 30
0.0
 10
116.17172037760416
 20
193.07779269748261
 30
0.0
 10
116.17172037760416
 20
193.88704562717012
 30
0.0
 10
116.61510416666665
 20
194.47305636935761
 30
0.0
 10
117.05848795572916
 20
195.05872260199652
 30
0.0
 10
117.83707953559026
 20
195.27869194878471
 30
0.0
 10
118.52127549913193
 20
195.01118028428817
 30
0.0
 10
118.52127549913193
 20
195.01118028428817
 30
0.0
 10
122.45281846788194
 20
193.48241916232638
 30
0.0
 10
122.45281846788194
 20
193.48241916232638
 30
0.0
  0
SPLINE
  5
180
100
AcDbEntity
  8
DAEMMUNG
 62
     7
100
AcDbSpline
210
0.0
220
0.0
230
1.0
 70
     8
 71
     3
 72
    17
 73
    13
 74
     0
 42
0.00000001
 43
0.00000001
 40
0.0
 40
0.0
 40
0.0
 40
0.0
 40
1.0
 40
1.0
 40
1.0
 40
2.0
 40
2.0
 40
2.0
 40
3.0
 40
3.0
 40
3.0
 40
4.0
 40
4.0
 40
4.0
 40
4.0
 10
122.45281846788194
 20
193.48241916232638
 30
0.0
 10
123.16044108072916
 20
193.25659315321178
 30
0.0
 10
123.93283148871527
 20
193.51032443576386
 30
0.0
 10
124.36863606770832
 20
194.11201036241317
 30
0.0
 10
124.80409613715277
 20
194.71386854383678
 30
0.0
 10
124.80409613715277
 20
195.52691107855901
 30
0.0
 10
124.36863606770832
 20
196.12876925998262
 30
0.0
 10
123.93283148871527
 20
196.73028293185763
 30
0.0
 10
123.16044108072916
 20
196.98418646918401
 30
0.0
 10
122.45281846788194
 20
196.75836046006944
 30
0.0
 10
122.45281846788194
 20
196.75836046006944
 30
0.0
 10
118.52127549913193
 20
195.44784613715277
 30
0.0
 10
118.52127549913193
 20
195.44784613715277
 30
0.0
  0
SPLINE
  5
17F
100
AcDbEntity
  8
DAEMMUNG
 62
     7
100
AcDbSpline
210
0.0
220
0.0
230
1.0
 70
     8
 71
     3
 72
    17
 73
    13
 74
     0
 42
0.00000001
 43
0.00000001
 40
0.0
 40
0.0
 40
0.0
 40
0.0
 40
1.0
 40
1.0
 40
1.0
 40
2.0
 40
2.0
 40
2.0
 40
3.0
 40
3.0
 40
3.0
 40
4.0
 40
4.0
 40
4.0
 40
4.0
 10
118.52127549913193
 20
177.97604437934027
 30
0.0
 10
117.83707953559026
 20
177.70836046006943
 30
0.0
 10
117.05848795572916
 20
177.92832980685762
 30
0.0
 10
116.61510416666665
 20
178.51434054904513
 30
0.0
 10
116.17172037760416
 20
179.10035129123261
 30
0.0
 10
116.17172037760416
 20
179.9092597113715
 30
0.0
 10
116.61510416666665
 20
180.49527045355902
 30
0.0
 10
117.05848795572916
 20
181.0812811957465
 30
0.0
 10
117.83707953559026
 20
181.30125054253472
 30
0.0
 10
118.52127549913193
 20
181.03356662326388
 30
0.0
 10
118.52127549913193
 20
181.03356662326388
 30
0.0
 10
122.45281846788194
 20
179.50463324652776
 30
0.0
 10
122.45281846788194
 20
179.50463324652776
 30
0.0
  0
SPLINE
  5
17E
100
AcDbEntity
  8
DAEMMUNG
 62
     7
100
AcDbSpline
210
0.0
220
0.0
230
1.0
 70
     8
 71
     3
 72
    17
 73
    13
 74
     0
 42
0.00000001
 43
0.00000001
 40
0.0
 40
0.0
 40
0.0
 40
0.0
 40
1.0
 40
1.0
 40
1.0
 40
2.0
 40
2.0
 40
2.0
 40
3.0
 40
3.0
 40
3.0
 40
4.0
 40
4.0
 40
4.0
 40
4.0
 10
122.45281846788194
 20
176.01027289496525
 30
0.0
 10
123.16044108072916
 20
175.78444688585068
 30
0.0
 10
123.93283148871527
 20
176.03852267795136
 30
0.0
 10
124.36863606770832
 20
176.64003634982637
 30
0.0
 10
124.80409613715277
 20
177.24172227647568
 30
0.0
 10
124.80409613715277
 20
178.05510932074651
 30
0.0
 10
124.36863606770832
 20
178.65662299262152
 30
0.0
 10
123.93283148871527
 20
179.25848117404513
 30
0.0
 10
123.16044108072916
 20
179.51238471137151
 30
0.0
 10
122.45281846788194
 20
179.28638644748261
 30
0.0
 10
122.45281846788194
 20
179.28638644748261
 30
0.0
 10
118.52127549913193
 20
177.97604437934027
 30
0.0
 10
118.52127549913193
 20
177.97604437934027
 30
0.0
  0
SPLINE
  5
17D
100
AcDbEntity
  8
DAEMMUNG
 62
     7
100
AcDbSpline
210
0.0
220
0.0
230
1.0
 70
     8
 71
     3
 72
    17
 73
    13
 74
     0
 42
0.00000001
 43
0.00000001
 40
0.0
 40
0.0
 40
0.0
 40
0.0
 40
1.0
 40
1.0
 40
1.0
 40
2.0
 40
2.0
 40
2.0
 40
3.0
 40
3.0
 40
3.0
 40
4.0
 40
4.0
 40
4.0
 40
4.0
 10
118.52127549913193
 20
174.48151177300346
 30
0.0
 10
117.83707953559026
 20
174.21400010850692
 30
0.0
 10
117.05848795572916
 20
174.43396945529511
 30
0.0
 10
116.61510416666665
 20
175.01998019748262
 30
0.0
 10
116.17172037760416
 20
175.60564643012151
 30
0.0
 10
116.17172037760416
 20
176.414899359809
 30
0.0
 10
116.61510416666665
 20
177.00091010199651
 30
0.0
 10
117.05848795572916
 20
177.58674858940969
 30
0.0
 10
117.83707953559026
 20
177.80654568142359
 30
0.0
 10
118.52127549913193
 20
177.53920627170137
 30
0.0
 10
118.52127549913193
 20
177.53920627170137
 30
0.0
 10
122.45281846788194
 20
176.01027289496525
 30
0.0
 10
122.45281846788194
 20
176.01027289496525
 30
0.0
  0
SPLINE
  5
17C
100
AcDbEntity
  8
DAEMMUNG
 62
     7
100
AcDbSpline
210
0.0
220
0.0
230
1.0
 70
     8
 71
     3
 72
    17
 73
    13
 74
     0
 42
0.00000001
 43
0.00000001
 40
0.0
 40
0.0
 40
0.0
 40
0.0
 40
1.0
 40
1.0
 40
1.0
 40
2.0
 40
2.0
 40
2.0
 40
3.0
 40
3.0
 40
3.0
 40
4.0
 40
4.0
 40
4.0
 40
4.0
 10
122.45281846788194
 20
172.51591254340275
 30
0.0
 10
123.16044108072916
 20
172.29008653428818
 30
0.0
 10
123.93283148871527
 20
172.54381781684026
 30
0.0
 10
124.36863606770832
 20
173.14567599826387
 30
0.0
 10
124.80409613715277
 20
173.74736192491318
 30
0.0
 10
124.80409613715277
 20
174.56057671440971
 30
0.0
 10
124.36863606770832
 20
175.16226264105902
 30
0.0
 10
123.93283148871527
 20
175.76412082248262
 30
0.0
 10
123.16044108072916
 20
176.01785210503471
 30
0.0
 10
122.45281846788194
 20
175.79202609592014
 30
0.0
 10
122.45281846788194
 20
175.79202609592014
 30
0.0
 10
118.52127549913193
 20
174.48151177300346
 30
0.0
 10
118.52127549913193
 20
174.48151177300346
 30
0.0
  0
SPLINE
  5
17B
100
AcDbEntity
  8
DAEMMUNG
 62
     7
100
AcDbSpline
210
0.0
220
0.0
230
1.0
 70
     8
 71
     3
 72
    14
 73
    10
 74
     0
 42
0.00000001
 43
0.00000001
 40
0.0
 40
0.0
 40
0.0
 40
0.0
 40
1.0
 40
1.0
 40
1.0
 40
2.0
 40
2.0
 40
2.0
 40
3.0
 40
3.0
 40
3.0
 40
3.0
 10
116.28644205729165
 20
172.40274115668402
 30
0.0
 10
116.2475124782986
 20
172.9639472113715
 30
0.0
 10
116.49865993923611
 20
173.50586073133678
 30
0.0
 10
116.95237901475693
 20
173.83882921006943
 30
0.0
 10
117.40575358072915
 20
174.17196994357639
 30
0.0
 10
117.99796549479166
 20
174.24948459201389
 30
0.0
 10
118.52127549913193
 20
174.04484592013887
 30
0.0
 10
118.52127549913193
 20
174.04484592013887
 30
0.0
 10
122.45281846788194
 20
172.51591254340275
 30
0.0
 10
122.45281846788194
 20
172.51591254340275
 30
0.0
  0
SPLINE
  5
17A
100
AcDbEntity
  8
DAEMMUNG
 62
     7
100
AcDbSpline
210
0.0
220
0.0
230
1.0
 70
     8
 71
     3
 72
    17
 73
    13
 74
     0
 42
0.00000001
 43
0.00000001
 40
0.0
 40
0.0
 40
0.0
 40
0.0
 40
1.0
 40
1.0
 40
1.0
 40
2.0
 40
2.0
 40
2.0
 40
3.0
 40
3.0
 40
3.0
 40
4.0
 40
4.0
 40
4.0
 40
4.0
 10
122.45281846788194
 20
189.98805881076387
 30
0.0
 10
123.16044108072916
 20
189.76188829210068
 30
0.0
 10
123.93283148871527
 20
190.01596408420139
 30
0.0
 10
124.36863606770832
 20
190.61765001085067
 30
0.0
 10
124.80409613715277
 20
191.21916368272568
 30
0.0
 10
124.80409613715277
 20
192.0325507269965
 30
0.0
 10
124.36863606770832
 20
192.63440890842011
 30
0.0
 10
123.93283148871527
 20
193.23592258029512
 30
0.0
 10
123.16044108072916
 20
193.4898261176215
 30
0.0
 10
122.45281846788194
 20
193.26400010850693
 30
0.0
 10
122.45281846788194
 20
193.26400010850693
 30
0.0
 10
118.52127549913193
 20
191.95348578559026
 30
0.0
 10
118.52127549913193
 20
191.95348578559026
 30
0.0
  0
SPLINE
  5
179
100
AcDbEntity
  8
DAEMMUNG
 62
     7
100
AcDbSpline
210
0.0
220
0.0
230
1.0
 70
     8
 71
     3
 72
    17
 73
    13
 74
     0
 42
0.00000001
 43
0.00000001
 40
0.0
 40
0.0
 40
0.0
 40
0.0
 40
1.0
 40
1.0
 40
1.0
 40
2.0
 40
2.0
 40
2.0
 40
3.0
 40
3.0
 40
3.0
 40
4.0
 40
4.0
 40
4.0
 40
4.0
 10
118.52127549913193
 20
188.45912543402775
 30
0.0
 10
117.83707953559026
 20
188.19178602430554
 30
0.0
 10
117.05848795572916
 20
188.41158311631943
 30
0.0
 10
116.61510416666665
 20
188.99742160373262
 30
0.0
 10
116.17172037760416
 20
189.58343234592013
 30
0.0
 10
116.17172037760416
 20
190.39268527560762
 30
0.0
 10
116.61510416666665
 20
190.9783515082465
 30
0.0
 10
117.05848795572916
 20
191.56436225043402
 30
0.0
 10
117.83707953559026
 20
191.78433159722221
 30
0.0
 10
118.52127549913193
 20
191.51681993272567
 30
0.0
 10
118.52127549913193
 20
191.51681993272567
 30
0.0
 10
122.45281846788194
 20
189.98805881076387
 30
0.0
 10
122.45281846788194
 20
189.98805881076387
 30
0.0
  0
SPLINE
  5
178
100
AcDbEntity
  8
DAEMMUNG
 62
     7
100
AcDbSpline
210
0.0
220
0.0
230
1.0
 70
     8
 71
     3
 72
    17
 73
    13
 74
     0
 42
0.00000001
 43
0.00000001
 40
0.0
 40
0.0
 40
0.0
 40
0.0
 40
1.0
 40
1.0
 40
1.0
 40
2.0
 40
2.0
 40
2.0
 40
3.0
 40
3.0
 40
3.0
 40
4.0
 40
4.0
 40
4.0
 40
4.0
 10
118.52127549913193
 20
184.96476508246525
 30
0.0
 10
117.83707953559026
 20
184.69742567274304
 30
0.0
 10
117.05848795572916
 20
184.91705050998263
 30
0.0
 10
116.61510416666665
 20
185.50306125217011
 30
0.0
 10
116.17172037760416
 20
186.08907199435762
 30
0.0
 10
116.17172037760416
 20
186.89832492404511
 30
0.0
 10
116.61510416666665
 20
187.483991156684
 30
0.0
 10
117.05848795572916
 20
188.07000189887151
 30
0.0
 10
117.83707953559026
 20
188.2899712456597
 30
0.0
 10
118.52127549913193
 20
188.02245958116319
 30
0.0
 10
118.52127549913193
 20
188.02245958116319
 30
0.0
 10
122.45281846788194
 20
186.49369845920137
 30
0.0
 10
122.45281846788194
 20
186.49369845920137
 30
0.0
  0
SPLINE
  5
177
100
AcDbEntity
  8
DAEMMUNG
 62
     7
100
AcDbSpline
210
0.0
220
0.0
230
1.0
 70
     8
 71
     3
 72
    17
 73
    13
 74
     0
 42
0.00000001
 43
0.00000001
 40
0.0
 40
0.0
 40
0.0
 40
0.0
 40
1.0
 40
1.0
 40
1.0
 40
2.0
 40
2.0
 40
2.0
 40
3.0
 40
3.0
 40
3.0
 40
4.0
 40
4.0
 40
4.0
 40
4.0
 10
122.45281846788194
 20
182.99933810763886
 30
0.0
 10
123.16044108072916
 20
182.77316758897567
 30
0.0
 10
123.93283148871527
 20
183.02724338107637
 30
0.0
 10
124.36863606770832
 20
183.62892930772568
 30
0.0
 10
124.80409613715277
 20
184.23044297960067
 30
0.0
 10
124.80409613715277
 20
185.04383002387152
 30
0.0
 10
124.36863606770832
 20
185.64568820529513
 30
0.0
 10
123.93283148871527
 20
186.24720187717011
 30
0.0
 10
123.16044108072916
 20
186.50110541449652
 30
0.0
 10
122.45281846788194
 20
186.27510715060762
 30
0.0
 10
122.45281846788194
 20
186.27510715060762
 30
0.0
 10
118.52127549913193
 20
184.96476508246525
 30
0.0
 10
118.52127549913193
 20
184.96476508246525
 30
0.0
  0
SPLINE
  5
176
100
AcDbEntity
  8
DAEMMUNG
 62
     7
100
AcDbSpline
210
0.0
220
0.0
230
1.0
 70
     8
 71
     3
 72
    17
 73
    13
 74
     0
 42
0.00000001
 43
0.00000001
 40
0.0
 40
0.0
 40
0.0
 40
0.0
 40
1.0
 40
1.0
 40
1.0
 40
2.0
 40
2.0
 40
2.0
 40
3.0
 40
3.0
 40
3.0
 40
4.0
 40
4.0
 40
4.0
 40
4.0
 10
118.52127549913193
 20
181.47040473090277
 30
0.0
 10
117.83707953559026
 20
181.20272081163193
 30
0.0
 10
117.05848795572916
 20
181.42269015842012
 30
0.0
 10
116.61510416666665
 20
182.00870090060764
 30
0.0
 10
116.17172037760416
 20
182.59471164279512
 30
0.0
 10
116.17172037760416
 20
183.40396457248264
 30
0.0
 10
116.61510416666665
 20
183.98963080512152
 30
0.0
 10
117.05848795572916
 20
184.575641547309
 30
0.0
 10
117.83707953559026
 20
184.79561089409719
 30
0.0
 10
118.52127549913193
 20
184.52792697482639
 30
0.0
 10
118.52127549913193
 20
184.52792697482639
 30
0.0
 10
122.45281846788194
 20
182.99933810763886
 30
0.0
 10
122.45281846788194
 20
182.99933810763886
 30
0.0
  0
SPLINE
  5
175
100
AcDbEntity
  8
DAEMMUNG
 62
     7
100
AcDbSpline
210
0.0
220
0.0
230
1.0
 70
     8
 71
     3
 72
    17
 73
    13
 74
     0
 42
0.00000001
 43
0.00000001
 40
0.0
 40
0.0
 40
0.0
 40
0.0
 40
1.0
 40
1.0
 40
1.0
 40
2.0
 40
2.0
 40
2.0
 40
3.0
 40
3.0
 40
3.0
 40
4.0
 40
4.0
 40
4.0
 40
4.0
 10
122.45281846788194
 20
179.50463324652776
 30
0.0
 10
123.16044108072916
 20
179.27880723741319
 30
0.0
 10
123.93283148871527
 20
179.53288302951387
 30
0.0
 10
124.36863606770832
 20
180.13439670138888
 30
0.0
 10
124.80409613715277
 20
180.73608262803819
 30
0.0
 10
124.80409613715277
 20
181.54946967230902
 30
0.0
 10
124.36863606770832
 20
182.150983344184
 30
0.0
 10
123.93283148871527
 20
182.75284152560764
 30
0.0
 10
123.16044108072916
 20
183.00674506293402
 30
0.0
 10
122.45281846788194
 20
182.78074679904512
 30
0.0
 10
122.45281846788194
 20
182.78074679904512
 30
0.0
 10
118.52127549913193
 20
181.47040473090277
 30
0.0
 10
118.52127549913193
 20
181.47040473090277
 30
0.0
  0
SPLINE
  5
174
100
AcDbEntity
  8
DAEMMUNG
 62
     7
100
AcDbSpline
210
0.0
220
0.0
230
1.0
 70
     8
 71
     3
 72
    17
 73
    13
 74
     0
 42
0.00000001
 43
0.00000001
 40
0.0
 40
0.0
 40
0.0
 40
0.0
 40
1.0
 40
1.0
 40
1.0
 40
2.0
 40
2.0
 40
2.0
 40
3.0
 40
3.0
 40
3.0
 40
4.0
 40
4.0
 40
4.0
 40
4.0
 10
122.45281846788194
 20
186.49369845920137
 30
0.0
 10
123.16044108072916
 20
186.26752794053817
 30
0.0
 10
123.93283148871527
 20
186.52160373263888
 30
0.0
 10
124.36863606770832
 20
187.12328965928819
 30
0.0
 10
124.80409613715277
 20
187.72480333116317
 30
0.0
 10
124.80409613715277
 20
188.538190375434
 30
0.0
 10
124.36863606770832
 20
189.14004855685764
 30
0.0
 10
123.93283148871527
 20
189.74156222873262
 30
0.0
 10
123.16044108072916
 20
189.995465766059
 30
0.0
 10
122.45281846788194
 20
189.76963975694443
 30
0.0
 10
122.45281846788194
 20
189.76963975694443
 30
0.0
 10
118.52127549913193
 20
188.45912543402775
 30
0.0
 10
118.52127549913193
 20
188.45912543402775
 30
0.0
  0
SPLINE
  5
173
100
AcDbEntity
  8
DAEMMUNG
 62
     7
100
AcDbSpline
210
0.0
220
0.0
230
1.0
 70
     8
 71
     3
 72
    11
 73
     7
 74
     0
 42
0.00000001
 43
0.00000001
 40
0.0
 40
0.0
 40
0.0
 40
0.0
 40
1.0
 40
1.0
 40
1.0
 40
2.0
 40
2.0
 40
2.0
 40
2.0
 10
118.52127549913193
 20
198.94255099826387
 30
0.0
 10
117.75026312934027
 20
198.64093288845484
 30
0.0
 10
116.87486436631943
 20
198.96115451388886
 30
0.0
 10
116.48074544270833
 20
199.68927544487846
 30
0.0
 10
116.0862820095486
 20
200.41756863064234
 30
0.0
 10
116.29608832465277
 20
201.32552354600693
 30
0.0
 10
116.9699490017361
 20
201.80697564019096
 30
0.0
  0
SPLINE
  5
172
100
AcDbEntity
  8
DAEMMUNG
 62
     7
100
AcDbSpline
210
0.0
220
0.0
230
1.0
 70
     8
 71
     3
 72
    17
 73
    13
 74
     0
 42
0.00000001
 43
0.00000001
 40
0.0
 40
0.0
 40
0.0
 40
0.0
 40
1.0
 40
1.0
 40
1.0
 40
2.0
 40
2.0
 40
2.0
 40
3.0
 40
3.0
 40
3.0
 40
4.0
 40
4.0
 40
4.0
 40
4.0
 10
122.45281846788194
 20
196.97677951388886
 30
0.0
 10
123.16044108072916
 20
196.75095350477429
 30
0.0
 10
123.93283148871527
 20
197.00485704210067
 30
0.0
 10
124.36863606770832
 20
197.60637071397568
 30
0.0
 10
124.80409613715277
 20
198.20822889539929
 30
0.0
 10
124.80409613715277
 20
199.02161593967011
 30
0.0
 10
124.36863606770832
 20
199.62312961154512
 30
0.0
 10
123.93283148871527
 20
200.22481553819443
 30
0.0
 10
123.16044108072916
 20
200.47889133029511
 30
0.0
 10
122.45281846788194
 20
200.25272081163192
 30
0.0
 10
122.45281846788194
 20
200.25272081163192
 30
0.0
 10
118.52127549913193
 20
198.94255099826387
 30
0.0
 10
118.52127549913193
 20
198.94255099826387
 30
0.0
  0
SPLINE
  5
171
100
AcDbEntity
  8
DAEMMUNG
 62
     7
100
AcDbSpline
210
0.0
220
0.0
230
1.0
 70
     8
 71
     3
 72
    17
 73
    13
 74
     0
 42
0.00000001
 43
0.00000001
 40
0.0
 40
0.0
 40
0.0
 40
0.0
 40
1.0
 40
1.0
 40
1.0
 40
2.0
 40
2.0
 40
2.0
 40
3.0
 40
3.0
 40
3.0
 40
4.0
 40
4.0
 40
4.0
 40
4.0
 10
118.52127549913193
 20
195.44784613715277
 30
0.0
 10
117.83707953559026
 20
195.18050672743053
 30
0.0
 10
117.05848795572916
 20
195.40030381944442
 30
0.0
 10
116.61510416666665
 20
195.98631456163193
 30
0.0
 10
116.17172037760416
 20
196.57215304904511
 30
0.0
 10
116.17172037760416
 20
197.38140597873263
 30
0.0
 10
116.61510416666665
 20
197.96741672092011
 30
0.0
 10
117.05848795572916
 20
198.553082953559
 30
0.0
 10
117.83707953559026
 20
198.77305230034722
 30
0.0
 10
118.52127549913193
 20
198.50554063585068
 30
0.0
 10
118.52127549913193
 20
198.50554063585068
 30
0.0
 10
122.45281846788194
 20
196.97677951388886
 30
0.0
 10
122.45281846788194
 20
196.97677951388886
 30
0.0
  0
SPLINE
  5
170
100
AcDbEntity
  8
DAEMMUNG
 62
     7
100
AcDbSpline
210
0.0
220
0.0
230
1.0
 70
     8
 71
     3
 72
    11
 73
     7
 74
     0
 42
0.00000001
 43
0.00000001
 40
0.0
 40
0.0
 40
0.0
 40
0.0
 40
1.0
 40
1.0
 40
1.0
 40
2.0
 40
2.0
 40
2.0
 40
2.0
 10
122.45281846788194
 20
200.47113986545136
 30
0.0
 10
122.92479654947915
 20
200.320416937934
 30
0.0
 10
123.43880479600693
 20
200.38070610894096
 30
0.0
 10
123.86358506944444
 20
200.63650444878471
 30
0.0
 10
124.28802083333332
 20
200.89247504340275
 30
0.0
 10
124.58154296874999
 20
201.31915011935763
 30
0.0
 10
124.66870388454861
 20
201.80697564019096
 30
0.0
  0
LINE
  5
16F
100
AcDbEntity
  8
DAEMMUNG
 62
     7
100
AcDbLine
 10
119.018058
 20
201.806976
 30
0.0
 11
122.452818
 21
200.47114
 31
0.0
  0
SPLINE
  5
16E
100
AcDbEntity
  8
DAEMMUNG
 62
     7
100
AcDbSpline
210
0.0
220
0.0
230
1.0
 70
     8
 71
     3
 72
    17
 73
    13
 74
     0
 42
0.00000001
 43
0.00000001
 40
0.0
 40
0.0
 40
0.0
 40
0.0
 40
1.0
 40
1.0
 40
1.0
 40
2.0
 40
2.0
 40
2.0
 40
3.0
 40
3.0
 40
3.0
 40
4.0
 40
4.0
 40
4.0
 40
4.0
 10
118.52127549913193
 20
106.89373372395832
 30
0.0
 10
117.83707953559026
 20
106.6260498046875
 30
0.0
 10
117.05848795572916
 20
106.84619140624999
 30
0.0
 10
116.61510416666665
 20
107.43185763888889
 30
0.0
 10
116.17172037760416
 20
108.01786838107638
 30
0.0
 10
116.17172037760416
 20
108.82712131076389
 30
0.0
 10
116.61510416666665
 20
109.41313205295138
 30
0.0
 10
117.05848795572916
 20
109.99914279513888
 30
0.0
 10
117.83707953559026
 20
110.21859537760416
 30
0.0
 10
118.52127549913193
 20
109.95160047743055
 30
0.0
 10
118.52127549913193
 20
109.95160047743055
 30
0.0
 10
122.45281846788194
 20
108.42232259114583
 30
0.0
 10
122.45281846788194
 20
108.42232259114583
 30
0.0
  0
SPLINE
  5
16D
100
AcDbEntity
  8
DAEMMUNG
 62
     7
100
AcDbSpline
210
0.0
220
0.0
230
1.0
 70
     8
 71
     3
 72
    17
 73
    13
 74
     0
 42
0.00000001
 43
0.00000001
 40
0.0
 40
0.0
 40
0.0
 40
0.0
 40
1.0
 40
1.0
 40
1.0
 40
2.0
 40
2.0
 40
2.0
 40
3.0
 40
3.0
 40
3.0
 40
4.0
 40
4.0
 40
4.0
 40
4.0
 10
122.45281846788194
 20
104.92796223958332
 30
0.0
 10
123.16044108072916
 20
104.70230848524305
 30
0.0
 10
123.93283148871527
 20
104.95586751302082
 30
0.0
 10
124.36863606770832
 20
105.55807020399304
 30
0.0
 10
124.80409613715277
 20
106.15958387586805
 30
0.0
 10
124.80409613715277
 20
106.97297092013888
 30
0.0
 10
124.36863606770832
 20
107.57448459201387
 30
0.0
 10
123.93283148871527
 20
108.17599826388889
 30
0.0
 10
123.16044108072916
 20
108.43024631076388
 30
0.0
 10
122.45281846788194
 20
108.20424804687499
 30
0.0
 10
122.45281846788194
 20
108.20424804687499
 30
0.0
 10
118.52127549913193
 20
106.89373372395832
 30
0.0
 10
118.52127549913193
 20
106.89373372395832
 30
0.0
  0
SPLINE
  5
16C
100
AcDbEntity
  8
DAEMMUNG
 62
     7
100
AcDbSpline
210
0.0
220
0.0
230
1.0
 70
     8
 71
     3
 72
    17
 73
    13
 74
     0
 42
0.00000001
 43
0.00000001
 40
0.0
 40
0.0
 40
0.0
 40
0.0
 40
1.0
 40
1.0
 40
1.0
 40
2.0
 40
2.0
 40
2.0
 40
3.0
 40
3.0
 40
3.0
 40
4.0
 40
4.0
 40
4.0
 40
4.0
 10
118.52127549913193
 20
99.905013020833323
 30
0.0
 10
117.83707953559026
 20
99.637329101562486
 30
0.0
 10
117.05848795572916
 20
99.857126193576377
 30
0.0
 10
116.61510416666665
 20
100.44313693576387
 30
0.0
 10
116.17172037760416
 20
101.02914767795139
 30
0.0
 10
116.17172037760416
 20
101.83840060763887
 30
0.0
 10
116.61510416666665
 20
102.42441134982639
 30
0.0
 10
117.05848795572916
 20
103.01042209201388
 30
0.0
 10
117.83707953559026
 20
103.22987467447916
 30
0.0
 10
118.52127549913193
 20
102.96219075520833
 30
0.0
 10
118.52127549913193
 20
102.96219075520833
 30
0.0
 10
122.45281846788194
 20
101.43360188802082
 30
0.0
 10
122.45281846788194
 20
101.43360188802082
 30
0.0
  0
SPLINE
  5
16B
100
AcDbEntity
  8
DAEMMUNG
 62
     7
100
AcDbSpline
210
0.0
220
0.0
230
1.0
 70
     8
 71
     3
 72
    17
 73
    13
 74
     0
 42
0.00000001
 43
0.00000001
 40
0.0
 40
0.0
 40
0.0
 40
0.0
 40
1.0
 40
1.0
 40
1.0
 40
2.0
 40
2.0
 40
2.0
 40
3.0
 40
3.0
 40
3.0
 40
4.0
 40
4.0
 40
4.0
 40
4.0
 10
122.45281846788194
 20
101.43360188802082
 30
0.0
 10
123.16044108072916
 20
101.20794813368055
 30
0.0
 10
123.93283148871527
 20
101.46150716145833
 30
0.0
 10
124.36863606770832
 20
102.06370985243055
 30
0.0
 10
124.80409613715277
 20
102.66522352430555
 30
0.0
 10
124.80409613715277
 20
103.47861056857639
 30
0.0
 10
124.36863606770832
 20
104.08012424045138
 30
0.0
 10
123.93283148871527
 20
104.68163791232638
 30
0.0
 10
123.16044108072916
 20
104.93588595920139
 30
0.0
 10
122.45281846788194
 20
104.70988769531249
 30
0.0
 10
122.45281846788194
 20
104.70988769531249
 30
0.0
 10
118.52127549913193
 20
103.39937337239583
 30
0.0
 10
118.52127549913193
 20
103.39937337239583
 30
0.0
  0
SPLINE
  5
16A
100
AcDbEntity
  8
DAEMMUNG
 62
     7
100
AcDbSpline
210
0.0
220
0.0
230
1.0
 70
     8
 71
     3
 72
    17
 73
    13
 74
     0
 42
0.00000001
 43
0.00000001
 40
0.0
 40
0.0
 40
0.0
 40
0.0
 40
1.0
 40
1.0
 40
1.0
 40
2.0
 40
2.0
 40
2.0
 40
3.0
 40
3.0
 40
3.0
 40
4.0
 40
4.0
 40
4.0
 40
4.0
 10
118.52127549913193
 20
103.39937337239583
 30
0.0
 10
117.83707953559026
 20
103.13168945312499
 30
0.0
 10
117.05848795572916
 20
103.35183105468749
 30
0.0
 10
116.61510416666665
 20
103.93749728732638
 30
0.0
 10
116.17172037760416
 20
104.52350802951388
 30
0.0
 10
116.17172037760416
 20
105.33276095920138
 30
0.0
 10
116.61510416666665
 20
105.91877170138888
 30
0.0
 10
117.05848795572916
 20
106.50478244357637
 30
0.0
 10
117.83707953559026
 20
106.72423502604165
 30
0.0
 10
118.52127549913193
 20
106.45655110677082
 30
0.0
 10
118.52127549913193
 20
106.45655110677082
 30
0.0
 10
122.45281846788194
 20
104.92796223958332
 30
0.0
 10
122.45281846788194
 20
104.92796223958332
 30
0.0
  0
SPLINE
  5
169
100
AcDbEntity
  8
DAEMMUNG
 62
     7
100
AcDbSpline
210
0.0
220
0.0
230
1.0
 70
     8
 71
     3
 72
    17
 73
    13
 74
     0
 42
0.00000001
 43
0.00000001
 40
0.0
 40
0.0
 40
0.0
 40
0.0
 40
1.0
 40
1.0
 40
1.0
 40
2.0
 40
2.0
 40
2.0
 40
3.0
 40
3.0
 40
3.0
 40
4.0
 40
4.0
 40
4.0
 40
4.0
 10
118.52127549913193
 20
113.88245442708332
 30
0.0
 10
117.83707953559026
 20
113.61477050781249
 30
0.0
 10
117.05848795572916
 20
113.83491210937498
 30
0.0
 10
116.61510416666665
 20
114.42092285156249
 30
0.0
 10
116.17172037760416
 20
115.00658908420138
 30
0.0
 10
116.17172037760416
 20
115.81584201388888
 30
0.0
 10
116.61510416666665
 20
116.40185275607638
 30
0.0
 10
117.05848795572916
 20
116.98786349826388
 30
0.0
 10
117.83707953559026
 20
117.20731608072916
 30
0.0
 10
118.52127549913193
 20
116.94032118055554
 30
0.0
 10
118.52127549913193
 20
116.94032118055554
 30
0.0
 10
122.45281846788194
 20
115.41104329427083
 30
0.0
 10
122.45281846788194
 20
115.41104329427083
 30
0.0
  0
SPLINE
  5
168
100
AcDbEntity
  8
DAEMMUNG
 62
     7
100
AcDbSpline
210
0.0
220
0.0
230
1.0
 70
     8
 71
     3
 72
    17
 73
    13
 74
     0
 42
0.00000001
 43
0.00000001
 40
0.0
 40
0.0
 40
0.0
 40
0.0
 40
1.0
 40
1.0
 40
1.0
 40
2.0
 40
2.0
 40
2.0
 40
3.0
 40
3.0
 40
3.0
 40
4.0
 40
4.0
 40
4.0
 40
4.0
 10
122.45281846788194
 20
115.41104329427083
 30
0.0
 10
123.16044108072916
 20
115.18538953993054
 30
0.0
 10
123.93283148871527
 20
115.43963758680555
 30
0.0
 10
124.36863606770832
 20
116.04115125868054
 30
0.0
 10
124.80409613715277
 20
116.64266493055554
 30
0.0
 10
124.80409613715277
 20
117.45605197482638
 30
0.0
 10
124.36863606770832
 20
118.05756564670138
 30
0.0
 10
123.93283148871527
 20
118.65942382812499
 30
0.0
 10
123.16044108072916
 20
118.91332736545138
 30
0.0
 10
122.45281846788194
 20
118.68732910156248
 30
0.0
 10
122.45281846788194
 20
118.68732910156248
 30
0.0
 10
118.52127549913193
 20
117.37681477864582
 30
0.0
 10
118.52127549913193
 20
117.37681477864582
 30
0.0
  0
SPLINE
  5
167
100
AcDbEntity
  8
DAEMMUNG
 62
     7
100
AcDbSpline
210
0.0
220
0.0
230
1.0
 70
     8
 71
     3
 72
    17
 73
    13
 74
     0
 42
0.00000001
 43
0.00000001
 40
0.0
 40
0.0
 40
0.0
 40
0.0
 40
1.0
 40
1.0
 40
1.0
 40
2.0
 40
2.0
 40
2.0
 40
3.0
 40
3.0
 40
3.0
 40
4.0
 40
4.0
 40
4.0
 40
4.0
 10
122.45281846788194
 20
108.42232259114583
 30
0.0
 10
123.16044108072916
 20
108.19666883680554
 30
0.0
 10
123.93283148871527
 20
108.45022786458333
 30
0.0
 10
124.36863606770832
 20
109.05243055555555
 30
0.0
 10
124.80409613715277
 20
109.65394422743054
 30
0.0
 10
124.80409613715277
 20
110.46733127170138
 30
0.0
 10
124.36863606770832
 20
111.06884494357638
 30
0.0
 10
123.93283148871527
 20
111.67035861545138
 30
0.0
 10
123.16044108072916
 20
111.92460666232638
 30
0.0
 10
122.45281846788194
 20
111.69860839843749
 30
0.0
 10
122.45281846788194
 20
111.69860839843749
 30
0.0
 10
118.52127549913193
 20
110.38809407552083
 30
0.0
 10
118.52127549913193
 20
110.38809407552083
 30
0.0
  0
SPLINE
  5
166
100
AcDbEntity
  8
DAEMMUNG
 62
     7
100
AcDbSpline
210
0.0
220
0.0
230
1.0
 70
     8
 71
     3
 72
    17
 73
    13
 74
     0
 42
0.00000001
 43
0.00000001
 40
0.0
 40
0.0
 40
0.0
 40
0.0
 40
1.0
 40
1.0
 40
1.0
 40
2.0
 40
2.0
 40
2.0
 40
3.0
 40
3.0
 40
3.0
 40
4.0
 40
4.0
 40
4.0
 40
4.0
 10
122.45281846788194
 20
111.91668294270832
 30
0.0
 10
123.16044108072916
 20
111.69102918836805
 30
0.0
 10
123.93283148871527
 20
111.94458821614582
 30
0.0
 10
124.36863606770832
 20
112.54679090711805
 30
0.0
 10
124.80409613715277
 20
113.14830457899305
 30
0.0
 10
124.80409613715277
 20
113.96169162326387
 30
0.0
 10
124.36863606770832
 20
114.56320529513887
 30
0.0
 10
123.93283148871527
 20
115.16506347656249
 30
0.0
 10
123.16044108072916
 20
115.41896701388887
 30
0.0
 10
122.45281846788194
 20
115.19296874999999
 30
0.0
 10
122.45281846788194
 20
115.19296874999999
 30
0.0
 10
118.52127549913193
 20
113.88245442708332
 30
0.0
 10
118.52127549913193
 20
113.88245442708332
 30
0.0
  0
SPLINE
  5
165
100
AcDbEntity
  8
DAEMMUNG
 62
     7
100
AcDbSpline
210
0.0
220
0.0
230
1.0
 70
     8
 71
     3
 72
    17
 73
    13
 74
     0
 42
0.00000001
 43
0.00000001
 40
0.0
 40
0.0
 40
0.0
 40
0.0
 40
1.0
 40
1.0
 40
1.0
 40
2.0
 40
2.0
 40
2.0
 40
3.0
 40
3.0
 40
3.0
 40
4.0
 40
4.0
 40
4.0
 40
4.0
 10
118.52127549913193
 20
110.38809407552083
 30
0.0
 10
117.83707953559026
 20
110.12041015624999
 30
0.0
 10
117.05848795572916
 20
110.34055175781249
 30
0.0
 10
116.61510416666665
 20
110.92621799045138
 30
0.0
 10
116.17172037760416
 20
111.51222873263887
 30
0.0
 10
116.17172037760416
 20
112.32148166232638
 30
0.0
 10
116.61510416666665
 20
112.90749240451387
 30
0.0
 10
117.05848795572916
 20
113.49350314670137
 30
0.0
 10
117.83707953559026
 20
113.71295572916665
 30
0.0
 10
118.52127549913193
 20
113.44596082899305
 30
0.0
 10
118.52127549913193
 20
113.44596082899305
 30
0.0
 10
122.45281846788194
 20
111.91668294270832
 30
0.0
 10
122.45281846788194
 20
111.91668294270832
 30
0.0
  0
SPLINE
  5
164
100
AcDbEntity
  8
DAEMMUNG
 62
     7
100
AcDbSpline
210
0.0
220
0.0
230
1.0
 70
     8
 71
     3
 72
    11
 73
     7
 74
     0
 42
0.00000001
 43
0.00000001
 40
0.0
 40
0.0
 40
0.0
 40
0.0
 40
1.0
 40
1.0
 40
1.0
 40
2.0
 40
2.0
 40
2.0
 40
2.0
 10
122.45281846788194
 20
118.90540364583332
 30
0.0
 10
122.95166829427082
 20
118.74210611979166
 30
0.0
 10
123.49840494791665
 20
118.81962076822916
 30
0.0
 10
123.93248697916665
 20
119.11520996093749
 30
0.0
 10
124.36587999131943
 20
119.41148817274305
 30
0.0
 10
124.63838704427083
 20
119.89138997395833
 30
0.0
 10
124.66870388454861
 20
120.41538899739582
 30
0.0
  0
SPLINE
  5
163
100
AcDbEntity
  8
DAEMMUNG
 62
     7
100
AcDbSpline
210
0.0
220
0.0
230
1.0
 70
     8
 71
     3
 72
    14
 73
    10
 74
     0
 42
0.00000001
 43
0.00000001
 40
0.0
 40
0.0
 40
0.0
 40
0.0
 40
1.0
 40
1.0
 40
1.0
 40
2.0
 40
2.0
 40
2.0
 40
3.0
 40
3.0
 40
3.0
 40
3.0
 10
116.28644205729165
 20
90.83752170138888
 30
0.0
 10
116.2475124782986
 20
91.398727756076383
 30
0.0
 10
116.49865993923611
 20
91.940296766493049
 30
0.0
 10
116.95237901475693
 20
92.273437499999986
 30
0.0
 10
117.40575358072915
 20
92.606233723958326
 30
0.0
 10
117.99796549479166
 20
92.683748372395826
 30
0.0
 10
118.52127549913193
 20
92.479109700520823
 30
0.0
 10
118.52127549913193
 20
92.479109700520823
 30
0.0
 10
122.45281846788194
 20
90.950520833333329
 30
0.0
 10
122.45281846788194
 20
90.950520833333329
 30
0.0
  0
SPLINE
  5
162
100
AcDbEntity
  8
DAEMMUNG
 62
     7
100
AcDbSpline
210
0.0
220
0.0
230
1.0
 70
     8
 71
     3
 72
    17
 73
    13
 74
     0
 42
0.00000001
 43
0.00000001
 40
0.0
 40
0.0
 40
0.0
 40
0.0
 40
1.0
 40
1.0
 40
1.0
 40
2.0
 40
2.0
 40
2.0
 40
3.0
 40
3.0
 40
3.0
 40
4.0
 40
4.0
 40
4.0
 40
4.0
 10
122.45281846788194
 20
90.950520833333329
 30
0.0
 10
123.16044108072916
 20
90.724867078993043
 30
0.0
 10
123.93283148871527
 20
90.978426106770826
 30
0.0
 10
124.36863606770832
 20
91.579939778645823
 30
0.0
 10
124.80409613715277
 20
92.182142469618043
 30
0.0
 10
124.80409613715277
 20
92.995529513888883
 30
0.0
 10
124.36863606770832
 20
93.59704318576388
 30
0.0
 10
123.93283148871527
 20
94.198556857638877
 30
0.0
 10
123.16044108072916
 20
94.452804904513883
 30
0.0
 10
122.45281846788194
 20
94.226462131076374
 30
0.0
 10
122.45281846788194
 20
94.226462131076374
 30
0.0
 10
118.52127549913193
 20
92.915947808159714
 30
0.0
 10
118.52127549913193
 20
92.915947808159714
 30
0.0
  0
SPLINE
  5
161
100
AcDbEntity
  8
DAEMMUNG
 62
     7
100
AcDbSpline
210
0.0
220
0.0
230
1.0
 70
     8
 71
     3
 72
    17
 73
    13
 74
     0
 42
0.00000001
 43
0.00000001
 40
0.0
 40
0.0
 40
0.0
 40
0.0
 40
1.0
 40
1.0
 40
1.0
 40
2.0
 40
2.0
 40
2.0
 40
3.0
 40
3.0
 40
3.0
 40
4.0
 40
4.0
 40
4.0
 40
4.0
 10
122.45281846788194
 20
97.939241536458326
 30
0.0
 10
123.16044108072916
 20
97.71358778211804
 30
0.0
 10
123.93283148871527
 20
97.967146809895823
 30
0.0
 10
124.36863606770832
 20
98.56866048177082
 30
0.0
 10
124.80409613715277
 20
99.17086317274304
 30
0.0
 10
124.80409613715277
 20
99.98425021701388
 30
0.0
 10
124.36863606770832
 20
100.58576388888888
 30
0.0
 10
123.93283148871527
 20
101.18727756076387
 30
0.0
 10
123.16044108072916
 20
101.44152560763888
 30
0.0
 10
122.45281846788194
 20
101.21518283420139
 30
0.0
 10
122.45281846788194
 20
101.21518283420139
 30
0.0
 10
118.52127549913193
 20
99.905013020833323
 30
0.0
 10
118.52127549913193
 20
99.905013020833323
 30
0.0
  0
SPLINE
  5
160
100
AcDbEntity
  8
DAEMMUNG
 62
     7
100
AcDbSpline
210
0.0
220
0.0
230
1.0
 70
     8
 71
     3
 72
    17
 73
    13
 74
     0
 42
0.00000001
 43
0.00000001
 40
0.0
 40
0.0
 40
0.0
 40
0.0
 40
1.0
 40
1.0
 40
1.0
 40
2.0
 40
2.0
 40
2.0
 40
3.0
 40
3.0
 40
3.0
 40
4.0
 40
4.0
 40
4.0
 40
4.0
 10
118.52127549913193
 20
92.915947808159714
 30
0.0
 10
117.83707953559026
 20
92.648608398437489
 30
0.0
 10
117.05848795572916
 20
92.86840549045138
 30
0.0
 10
116.61510416666665
 20
93.454416232638877
 30
0.0
 10
116.17172037760416
 20
94.040426974826374
 30
0.0
 10
116.17172037760416
 20
94.849679904513877
 30
0.0
 10
116.61510416666665
 20
95.435690646701374
 30
0.0
 10
117.05848795572916
 20
96.021701388888886
 30
0.0
 10
117.83707953559026
 20
96.241153971354152
 30
0.0
 10
118.52127549913193
 20
95.973470052083329
 30
0.0
 10
118.52127549913193
 20
95.973470052083329
 30
0.0
 10
122.45281846788194
 20
94.44488118489582
 30
0.0
 10
122.45281846788194
 20
94.44488118489582
 30
0.0
  0
SPLINE
  5
15F
100
AcDbEntity
  8
DAEMMUNG
 62
     7
100
AcDbSpline
210
0.0
220
0.0
230
1.0
 70
     8
 71
     3
 72
    17
 73
    13
 74
     0
 42
0.00000001
 43
0.00000001
 40
0.0
 40
0.0
 40
0.0
 40
0.0
 40
1.0
 40
1.0
 40
1.0
 40
2.0
 40
2.0
 40
2.0
 40
3.0
 40
3.0
 40
3.0
 40
4.0
 40
4.0
 40
4.0
 40
4.0
 10
122.45281846788194
 20
94.44488118489582
 30
0.0
 10
123.16044108072916
 20
94.219227430555549
 30
0.0
 10
123.93283148871527
 20
94.472786458333331
 30
0.0
 10
124.36863606770832
 20
95.074300130208329
 30
0.0
 10
124.80409613715277
 20
95.676502821180549
 30
0.0
 10
124.80409613715277
 20
96.489889865451374
 30
0.0
 10
124.36863606770832
 20
97.091403537326386
 30
0.0
 10
123.93283148871527
 20
97.692917209201383
 30
0.0
 10
123.16044108072916
 20
97.947165256076374
 30
0.0
 10
122.45281846788194
 20
97.72082248263888
 30
0.0
 10
122.45281846788194
 20
97.72082248263888
 30
0.0
 10
118.52127549913193
 20
96.410652669270831
 30
0.0
 10
118.52127549913193
 20
96.410652669270831
 30
0.0
  0
SPLINE
  5
15E
100
AcDbEntity
  8
DAEMMUNG
 62
     7
100
AcDbSpline
210
0.0
220
0.0
230
1.0
 70
     8
 71
     3
 72
    17
 73
    13
 74
     0
 42
0.00000001
 43
0.00000001
 40
0.0
 40
0.0
 40
0.0
 40
0.0
 40
1.0
 40
1.0
 40
1.0
 40
2.0
 40
2.0
 40
2.0
 40
3.0
 40
3.0
 40
3.0
 40
4.0
 40
4.0
 40
4.0
 40
4.0
 10
118.52127549913193
 20
96.410652669270831
 30
0.0
 10
117.83707953559026
 20
96.142968749999994
 30
0.0
 10
117.05848795572916
 20
96.362765842013886
 30
0.0
 10
116.61510416666665
 20
96.948776584201383
 30
0.0
 10
116.17172037760416
 20
97.53478732638888
 30
0.0
 10
116.17172037760416
 20
98.344040256076383
 30
0.0
 10
116.61510416666665
 20
98.93005099826388
 30
0.0
 10
117.05848795572916
 20
99.516061740451377
 30
0.0
 10
117.83707953559026
 20
99.735514322916657
 30
0.0
 10
118.52127549913193
 20
99.46783040364582
 30
0.0
 10
118.52127549913193
 20
99.46783040364582
 30
0.0
 10
122.45281846788194
 20
97.939241536458326
 30
0.0
 10
122.45281846788194
 20
97.939241536458326
 30
0.0
  0
SPLINE
  5
15D
100
AcDbEntity
  8
DAEMMUNG
 62
     7
100
AcDbSpline
210
0.0
220
0.0
230
1.0
 70
     8
 71
     3
 72
    17
 73
    13
 74
     0
 42
0.00000001
 43
0.00000001
 40
0.0
 40
0.0
 40
0.0
 40
0.0
 40
1.0
 40
1.0
 40
1.0
 40
2.0
 40
2.0
 40
2.0
 40
3.0
 40
3.0
 40
3.0
 40
4.0
 40
4.0
 40
4.0
 40
4.0
 10
118.52127549913193
 20
117.37681477864582
 30
0.0
 10
117.83707953559026
 20
117.10913085937499
 30
0.0
 10
117.05848795572916
 20
117.32927246093749
 30
0.0
 10
116.61510416666665
 20
117.91528320312499
 30
0.0
 10
116.17172037760416
 20
118.50129394531248
 30
0.0
 10
116.17172037760416
 20
119.31020236545137
 30
0.0
 10
116.61510416666665
 20
119.89621310763887
 30
0.0
 10
117.05848795572916
 20
120.48222384982638
 30
0.0
 10
117.83707953559026
 20
120.70236545138887
 30
0.0
 10
118.52127549913193
 20
120.43468153211805
 30
0.0
 10
118.52127549913193
 20
120.43468153211805
 30
0.0
 10
122.45281846788194
 20
118.90540364583332
 30
0.0
 10
122.45281846788194
 20
118.90540364583332
 30
0.0
  0
INSERT
  5
146
100
AcDbEntity
  8
SCHRAFUR
 62
     7
100
AcDbBlockReference
  2
AI9-BLK4
 10
133.700194
 20
120.782636
 30
0.0
  0
POLYLINE
  5
13F
100
AcDbEntity
  8
SCHRAFUR
 62
     7
100
AcDb2dPolyline
 66
     1
 10
0.0
 20
0.0
 30
0.0
  0
VERTEX
  5
140
100
AcDbEntity
  8
SCHRAFUR
 62
     7
100
AcDbVertex
100
AcDb2dVertex
 10
107.255813
 20
120.490837
 30
0.0
  0
VERTEX
  5
141
100
AcDbEntity
  8
SCHRAFUR
 62
     7
100
AcDbVertex
100
AcDb2dVertex
 10
107.255813
 20
124.42927
 30
0.0
  0
VERTEX
  5
142
100
AcDbEntity
  8
SCHRAFUR
 62
     7
100
AcDbVertex
100
AcDb2dVertex
 10
160.144575
 20
124.433748
 30
0.0
  0
VERTEX
  5
143
100
AcDbEntity
  8
SCHRAFUR
 62
     7
100
AcDbVertex
100
AcDb2dVertex
 10
160.144575
 20
120.490837
 30
0.0
  0
SEQEND
  5
144
100
AcDbEntity
  8
SCHRAFUR
 62
     7
  0
SPLINE
  5
13E
100
AcDbEntity
  8
SCHRAFUR
 62
     7
100
AcDbSpline
210
0.0
220
0.0
230
1.0
 70
     8
 71
     3
 72
   173
 73
   169
 74
     0
 42
0.00000001
 43
0.00000001
 40
0.0
 40
0.0
 40
0.0
 40
0.0
 40
1.0
 40
1.0
 40
1.0
 40
2.0
 40
2.0
 40
2.0
 40
3.0
 40
3.0
 40
3.0
 40
4.0
 40
4.0
 40
4.0
 40
5.0
 40
5.0
 40
5.0
 40
6.0
 40
6.0
 40
6.0
 40
7.0
 40
7.0
 40
7.0
 40
8.0
 40
8.0
 40
8.0
 40
9.0
 40
9.0
 40
9.0
 40
10.0
 40
10.0
 40
10.0
 40
11.0
 40
11.0
 40
11.0
 40
12.0
 40
12.0
 40
12.0
 40
13.0
 40
13.0
 40
13.0
 40
14.0
 40
14.0
 40
14.0
 40
15.0
 40
15.0
 40
15.0
 40
16.0
 40
16.0
 40
16.0
 40
17.0
 40
17.0
 40
17.0
 40
18.0
 40
18.0
 40
18.0
 40
19.0
 40
19.0
 40
19.0
 40
20.0
 40
20.0
 40
20.0
 40
21.0
 40
21.0
 40
21.0
 40
22.0
 40
22.0
 40
22.0
 40
23.0
 40
23.0
 40
23.0
 40
24.0
 40
24.0
 40
24.0
 40
25.0
 40
25.0
 40
25.0
 40
26.0
 40
26.0
 40
26.0
 40
27.0
 40
27.0
 40
27.0
 40
28.0
 40
28.0
 40
28.0
 40
29.0
 40
29.0
 40
29.0
 40
30.0
 40
30.0
 40
30.0
 40
31.0
 40
31.0
 40
31.0
 40
32.0
 40
32.0
 40
32.0
 40
33.0
 40
33.0
 40
33.0
 40
34.0
 40
34.0
 40
34.0
 40
35.0
 40
35.0
 40
35.0
 40
36.0
 40
36.0
 40
36.0
 40
37.0
 40
37.0
 40
37.0
 40
38.0
 40
38.0
 40
38.0
 40
39.0
 40
39.0
 40
39.0
 40
40.0
 40
40.0
 40
40.0
 40
41.0
 40
41.0
 40
41.0
 40
42.0
 40
42.0
 40
42.0
 40
43.0
 40
43.0
 40
43.0
 40
44.0
 40
44.0
 40
44.0
 40
45.0
 40
45.0
 40
45.0
 40
46.0
 40
46.0
 40
46.0
 40
47.0
 40
47.0
 40
47.0
 40
48.0
 40
48.0
 40
48.0
 40
49.0
 40
49.0
 40
49.0
 40
50.0
 40
50.0
 40
50.0
 40
51.0
 40
51.0
 40
51.0
 40
52.0
 40
52.0
 40
52.0
 40
53.0
 40
53.0
 40
53.0
 40
54.0
 40
54.0
 40
54.0
 40
55.0
 40
55.0
 40
55.0
 40
56.0
 40
56.0
 40
56.0
 40
56.0
 10
160.14457465277778
 20
124.42926974826388
 30
0.0
 10
160.14457465277778
 20
124.42926974826388
 30
0.0
 10
107.2558132595486
 20
124.42926974826388
 30
0.0
 10
107.2558132595486
 20
124.42926974826388
 30
0.0
 10
107.2558132595486
 20
124.42926974826388
 30
0.0
 10
107.2558132595486
 20
120.49083658854165
 30
0.0
 10
107.2558132595486
 20
120.49083658854165
 30
0.0
 10
107.2558132595486
 20
120.49083658854165
 30
0.0
 10
110.75017361111109
 20
120.49083658854165
 30
0.0
 10
110.75017361111109
 20
120.49083658854165
 30
0.0
 10
110.8524929470486
 20
120.66825900607638
 30
0.0
 10
111.00028754340276
 20
120.81536458333332
 30
0.0
 10
111.17770996093749
 20
120.91837293836805
 30
0.0
 10
111.7361599392361
 20
121.24014485677083
 30
0.0
 10
112.45032823350694
 20
121.04894205729165
 30
0.0
 10
112.77278917100693
 20
120.49083658854165
 30
0.0
 10
112.77278917100693
 20
120.49083658854165
 30
0.0
 10
116.5885769314236
 20
120.49083658854165
 30
0.0
 10
116.5885769314236
 20
120.49083658854165
 30
0.0
 10
116.6908962673611
 20
120.66825900607638
 30
0.0
 10
116.83834635416666
 20
120.81536458333332
 30
0.0
 10
117.01611328124999
 20
120.91837293836805
 30
0.0
 10
117.57421874999999
 20
121.24014485677083
 30
0.0
 10
118.28838704427082
 20
121.04894205729165
 30
0.0
 10
118.61084798177082
 20
120.49083658854165
 30
0.0
 10
118.61084798177082
 20
120.49083658854165
 30
0.0
 10
117.25692545572916
 20
121.02207031249999
 30
0.0
 10
117.25692545572916
 20
121.02207031249999
 30
0.0
 10
117.25692545572916
 20
121.02207031249999
 30
0.0
 10
117.25933702256944
 20
121.02517089843749
 30
0.0
 10
117.25933702256944
 20
121.02517089843749
 30
0.0
 10
117.25933702256944
 20
121.02517089843749
 30
0.0
 10
118.61084798177082
 20
120.49083658854165
 30
0.0
 10
118.61084798177082
 20
120.49083658854165
 30
0.0
 10
118.61084798177082
 20
120.49083658854165
 30
0.0
 10
121.59671223958333
 20
120.49083658854165
 30
0.0
 10
121.59671223958333
 20
120.49083658854165
 30
0.0
 10
121.69903157552082
 20
120.66825900607638
 30
0.0
 10
121.84613715277777
 20
120.81536458333332
 30
0.0
 10
122.0239040798611
 20
120.91837293836805
 30
0.0
 10
122.5820095486111
 20
121.24014485677083
 30
0.0
 10
123.29617784288193
 20
121.04894205729165
 30
0.0
 10
123.61863878038193
 20
120.49083658854165
 30
0.0
 10
123.61863878038193
 20
120.49083658854165
 30
0.0
 10
127.16329752604166
 20
120.49083658854165
 30
0.0
 10
127.16329752604166
 20
120.49083658854165
 30
0.0
 10
127.26561686197915
 20
120.66825900607638
 30
0.0
 10
127.41272243923611
 20
120.81536458333332
 30
0.0
 10
127.59048936631943
 20
120.91837293836805
 30
0.0
 10
128.14928385416667
 20
121.24014485677083
 30
0.0
 10
128.86345214843749
 20
121.04894205729165
 30
0.0
 10
129.18522406684028
 20
120.49083658854165
 30
0.0
 10
129.18522406684028
 20
120.49083658854165
 30
0.0
 10
132.17108832465277
 20
120.49083658854165
 30
0.0
 10
132.17108832465277
 20
120.49083658854165
 30
0.0
 10
132.27340766059027
 20
120.66825900607638
 30
0.0
 10
132.42085774739581
 20
120.81536458333332
 30
0.0
 10
132.59862467447917
 20
120.91837293836805
 30
0.0
 10
133.15707465277777
 20
121.24014485677083
 30
0.0
 10
133.87124294704859
 20
121.04894205729165
 30
0.0
 10
134.1937038845486
 20
120.49083658854165
 30
0.0
 10
134.1937038845486
 20
120.49083658854165
 30
0.0
 10
138.00949164496527
 20
120.49083658854165
 30
0.0
 10
138.00949164496527
 20
120.49083658854165
 30
0.0
 10
138.11181098090276
 20
120.66825900607638
 30
0.0
 10
138.25926106770831
 20
120.81536458333332
 30
0.0
 10
138.43633897569444
 20
120.91837293836805
 30
0.0
 10
138.99513346354166
 20
121.24014485677083
 30
0.0
 10
139.70930175781248
 20
121.04894205729165
 30
0.0
 10
140.03176269531249
 20
120.49083658854165
 30
0.0
 10
140.03176269531249
 20
120.49083658854165
 30
0.0
 10
143.84755045572916
 20
120.49083658854165
 30
0.0
 10
143.84755045572916
 20
120.49083658854165
 30
0.0
 10
143.94986979166666
 20
120.66825900607638
 30
0.0
 10
144.09697536892361
 20
120.81536458333332
 30
0.0
 10
144.27474229600693
 20
120.91837293836805
 30
0.0
 10
144.83353678385416
 20
121.24014485677083
 30
0.0
 10
145.54701605902775
 20
121.04894205729165
 30
0.0
 10
145.86947699652777
 20
120.49083658854165
 30
0.0
 10
145.86947699652777
 20
120.49083658854165
 30
0.0
 10
149.68526475694443
 20
120.49083658854165
 30
0.0
 10
149.68526475694443
 20
120.49083658854165
 30
0.0
 10
149.69835611979164
 20
120.51254069010416
 30
0.0
 10
149.7117919921875
 20
120.53493381076387
 30
0.0
 10
149.72626139322915
 20
120.55594889322916
 30
0.0
 10
149.75451117621526
 20
120.59832356770832
 30
0.0
 10
149.78551703559026
 20
120.63863118489583
 30
0.0
 10
149.81927897135415
 20
120.67687174479165
 30
0.0
 10
149.81927897135415
 20
120.67687174479165
 30
0.0
 10
149.68526475694443
 20
120.49083658854165
 30
0.0
 10
149.68526475694443
 20
120.49083658854165
 30
0.0
 10
150.27954372829859
 20
121.17882215711805
 30
0.0
 10
149.42481553819442
 20
120.32409396701388
 30
0.0
 10
150.11280110677083
 20
120.91837293836805
 30
0.0
 10
151.96075032552082
 20
121.15815158420138
 30
0.0
 10
149.52679036458332
 20
121.21740722656249
 30
0.0
 10
151.32960883246525
 20
120.88840060763887
 30
0.0
 10
151.32960883246525
 20
120.88840060763887
 30
0.0
 10
149.81927897135415
 20
120.67687174479165
 30
0.0
 10
149.81927897135415
 20
120.67687174479165
 30
0.0
 10
149.8358154296875
 20
120.69616427951388
 30
0.0
 10
149.85338541666664
 20
120.71476779513888
 30
0.0
 10
149.87095540364581
 20
120.73233778211805
 30
0.0
 10
149.8888699001736
 20
120.75025227864582
 30
0.0
 10
149.90747341579859
 20
120.76782226562499
 30
0.0
 10
149.92676595052083
 20
120.78435872395832
 30
0.0
 10
149.96500651041666
 20
120.81812065972221
 30
0.0
 10
150.00531412760415
 20
120.84912651909721
 30
0.0
 10
150.04768880208331
 20
120.87737630208332
 30
0.0
 10
150.14484049479165
 20
120.93938802083332
 30
0.0
 10
150.01461588541665
 20
120.85842827690971
 30
0.0
 10
150.11280110677083
 20
120.91837293836805
 30
0.0
 10
150.2078857421875
 20
120.97039388020832
 30
0.0
 10
150.08076171874998
 20
120.90183648003472
 30
0.0
 10
150.17619086371528
 20
120.95247938368054
 30
0.0
 10
150.19444986979164
 20
120.96109212239583
 30
0.0
 10
150.21201985677081
 20
120.96936035156249
 30
0.0
 10
150.2299343532986
 20
120.97728407118055
 30
0.0
 10
150.25542805989582
 20
120.98865288628471
 30
0.0
 10
150.28057725694444
 20
120.99829915364582
 30
0.0
 10
150.30641547309025
 20
121.00760091145833
 30
0.0
 10
150.33397623697914
 20
121.01759168836804
 30
0.0
 10
150.36188151041665
 20
121.02620442708333
 30
0.0
 10
150.38978678385416
 20
121.03343912760415
 30
0.0
 10
150.41562499999998
 20
121.04067382812499
 30
0.0
 10
150.44180772569442
 20
121.04687499999999
 30
0.0
 10
150.46833496093748
 20
121.05204264322916
 30
0.0
 10
150.53241373697915
 20
121.06513400607638
 30
0.0
 10
150.59649251302082
 20
121.07236870659722
 30
0.0
 10
150.66057128906249
 20
121.07443576388887
 30
0.0
 10
150.68675401475693
 20
121.07478027343748
 30
0.0
 10
150.71328124999999
 20
121.07478027343748
 30
0.0
 10
150.73946397569443
 20
121.07374674479165
 30
0.0
 10
150.77667100694444
 20
121.07236870659722
 30
0.0
 10
150.81456705729164
 20
121.06926812065971
 30
0.0
 10
150.85177408854165
 20
121.06444498697915
 30
0.0
 10
150.87761230468749
 20
121.06099989149304
 30
0.0
 10
150.90345052083333
 20
121.05617675781249
 30
0.0
 10
150.92928873697915
 20
121.05100911458332
 30
0.0
 10
150.96580674913193
 20
121.04377441406248
 30
0.0
 10
151.00198025173609
 20
121.03447265624999
 30
0.0
 10
151.03780924479165
 20
121.02379286024305
 30
0.0
 10
151.06295844184027
 20
121.01586914062499
 30
0.0
 10
151.08776312934026
 20
121.00725640190971
 30
0.0
 10
151.11222330729166
 20
120.99829915364582
 30
0.0
 10
151.17147894965277
 20
120.97556152343749
 30
0.0
 10
151.22935655381943
 20
120.94834526909722
 30
0.0
 10
151.28482259114583
 20
120.91561686197916
 30
0.0
 10
151.30032552083333
 20
120.90700412326387
 30
0.0
 10
151.3151394314236
 20
120.89770236545138
 30
0.0
 10
151.32960883246525
 20
120.88840060763887
 30
0.0
 10
151.48119303385414
 20
120.79124891493055
 30
0.0
 10
151.61176215277777
 20
120.65723470052082
 30
0.0
 10
151.70788031684026
 20
120.49083658854165
 30
0.0
 10
151.70788031684026
 20
120.49083658854165
 30
0.0
 10
155.52366807725693
 20
120.49083658854165
 30
0.0
 10
155.52366807725693
 20
120.49083658854165
 30
0.0
 10
155.62598741319442
 20
120.66825900607638
 30
0.0
 10
155.7734375
 20
120.81536458333332
 30
0.0
 10
155.95120442708333
 20
120.91837293836805
 30
0.0
 10
156.50965440538192
 20
121.24014485677083
 30
0.0
 10
157.22347819010415
 20
121.04894205729165
 30
0.0
 10
157.54593912760416
 20
120.49083658854165
 30
0.0
 10
157.54593912760416
 20
120.49083658854165
 30
0.0
 10
160.14457465277778
 20
120.49083658854165
 30
0.0
 10
160.14457465277778
 20
120.49083658854165
 30
0.0
 10
160.14457465277778
 20
120.49083658854165
 30
0.0
 10
160.14457465277778
 20
124.42926974826388
 30
0.0
 10
160.14457465277778
 20
124.42926974826388
 30
0.0
  0
HATCH
  5
13D
100
AcDbEntity
  8
SCHRAFUR
 62
     7
100
AcDbHatch
 10
0.0
 20
0.0
 30
0.0
210
0.0
220
0.0
230
1.0
  2
_U
 70
     0
 71
     0
 91
        1
 92
        1
 93
        1
 72
     4
 94
        3
 73
     0
 74
     0
 95
      173
 96
      169
 40
0.0
 40
0.0
 40
0.0
 40
0.0
 40
1.0
 40
1.0
 40
1.0
 40
2.0
 40
2.0
 40
2.0
 40
3.0
 40
3.0
 40
3.0
 40
4.0
 40
4.0
 40
4.0
 40
5.0
 40
5.0
 40
5.0
 40
6.0
 40
6.0
 40
6.0
 40
7.0
 40
7.0
 40
7.0
 40
8.0
 40
8.0
 40
8.0
 40
9.0
 40
9.0
 40
9.0
 40
10.0
 40
10.0
 40
10.0
 40
11.0
 40
11.0
 40
11.0
 40
12.0
 40
12.0
 40
12.0
 40
13.0
 40
13.0
 40
13.0
 40
14.0
 40
14.0
 40
14.0
 40
15.0
 40
15.0
 40
15.0
 40
16.0
 40
16.0
 40
16.0
 40
17.0
 40
17.0
 40
17.0
 40
18.0
 40
18.0
 40
18.0
 40
19.0
 40
19.0
 40
19.0
 40
20.0
 40
20.0
 40
20.0
 40
21.0
 40
21.0
 40
21.0
 40
22.0
 40
22.0
 40
22.0
 40
23.0
 40
23.0
 40
23.0
 40
24.0
 40
24.0
 40
24.0
 40
25.0
 40
25.0
 40
25.0
 40
26.0
 40
26.0
 40
26.0
 40
27.0
 40
27.0
 40
27.0
 40
28.0
 40
28.0
 40
28.0
 40
29.0
 40
29.0
 40
29.0
 40
30.0
 40
30.0
 40
30.0
 40
31.0
 40
31.0
 40
31.0
 40
32.0
 40
32.0
 40
32.0
 40
33.0
 40
33.0
 40
33.0
 40
34.0
 40
34.0
 40
34.0
 40
35.0
 40
35.0
 40
35.0
 40
36.0
 40
36.0
 40
36.0
 40
37.0
 40
37.0
 40
37.0
 40
38.0
 40
38.0
 40
38.0
 40
39.0
 40
39.0
 40
39.0
 40
40.0
 40
40.0
 40
40.0
 40
41.0
 40
41.0
 40
41.0
 40
42.0
 40
42.0
 40
42.0
 40
43.0
 40
43.0
 40
43.0
 40
44.0
 40
44.0
 40
44.0
 40
45.0
 40
45.0
 40
45.0
 40
46.0
 40
46.0
 40
46.0
 40
47.0
 40
47.0
 40
47.0
 40
48.0
 40
48.0
 40
48.0
 40
49.0
 40
49.0
 40
49.0
 40
50.0
 40
50.0
 40
50.0
 40
51.0
 40
51.0
 40
51.0
 40
52.0
 40
52.0
 40
52.0
 40
53.0
 40
53.0
 40
53.0
 40
54.0
 40
54.0
 40
54.0
 40
55.0
 40
55.0
 40
55.0
 40
56.0
 40
56.0
 40
56.0
 40
56.0
 10
160.14457465277778
 20
124.42926974826388
 10
160.14457465277778
 20
124.42926974826388
 10
107.2558132595486
 20
124.42926974826388
 10
107.2558132595486
 20
124.42926974826388
 10
107.2558132595486
 20
124.42926974826388
 10
107.2558132595486
 20
120.49083658854165
 10
107.2558132595486
 20
120.49083658854165
 10
107.2558132595486
 20
120.49083658854165
 10
110.75017361111109
 20
120.49083658854165
 10
110.75017361111109
 20
120.49083658854165
 10
110.8524929470486
 20
120.66825900607638
 10
111.00028754340276
 20
120.81536458333332
 10
111.17770996093749
 20
120.91837293836805
 10
111.7361599392361
 20
121.24014485677083
 10
112.45032823350694
 20
121.04894205729165
 10
112.77278917100693
 20
120.49083658854165
 10
112.77278917100693
 20
120.49083658854165
 10
116.5885769314236
 20
120.49083658854165
 10
116.5885769314236
 20
120.49083658854165
 10
116.6908962673611
 20
120.66825900607638
 10
116.83834635416666
 20
120.81536458333332
 10
117.01611328124999
 20
120.91837293836805
 10
117.57421874999999
 20
121.24014485677083
 10
118.28838704427082
 20
121.04894205729165
 10
118.61084798177082
 20
120.49083658854165
 10
118.61084798177082
 20
120.49083658854165
 10
117.25692545572916
 20
121.02207031249999
 10
117.25692545572916
 20
121.02207031249999
 10
117.25692545572916
 20
121.02207031249999
 10
117.25933702256944
 20
121.02517089843749
 10
117.25933702256944
 20
121.02517089843749
 10
117.25933702256944
 20
121.02517089843749
 10
118.61084798177082
 20
120.49083658854165
 10
118.61084798177082
 20
120.49083658854165
 10
118.61084798177082
 20
120.49083658854165
 10
121.59671223958333
 20
120.49083658854165
 10
121.59671223958333
 20
120.49083658854165
 10
121.69903157552082
 20
120.66825900607638
 10
121.84613715277777
 20
120.81536458333332
 10
122.0239040798611
 20
120.91837293836805
 10
122.5820095486111
 20
121.24014485677083
 10
123.29617784288193
 20
121.04894205729165
 10
123.61863878038193
 20
120.49083658854165
 10
123.61863878038193
 20
120.49083658854165
 10
127.16329752604166
 20
120.49083658854165
 10
127.16329752604166
 20
120.49083658854165
 10
127.26561686197915
 20
120.66825900607638
 10
127.41272243923611
 20
120.81536458333332
 10
127.59048936631943
 20
120.91837293836805
 10
128.14928385416667
 20
121.24014485677083
 10
128.86345214843749
 20
121.04894205729165
 10
129.18522406684028
 20
120.49083658854165
 10
129.18522406684028
 20
120.49083658854165
 10
132.17108832465277
 20
120.49083658854165
 10
132.17108832465277
 20
120.49083658854165
 10
132.27340766059027
 20
120.66825900607638
 10
132.42085774739581
 20
120.81536458333332
 10
132.59862467447917
 20
120.91837293836805
 10
133.15707465277777
 20
121.24014485677083
 10
133.87124294704859
 20
121.04894205729165
 10
134.1937038845486
 20
120.49083658854165
 10
134.1937038845486
 20
120.49083658854165
 10
138.00949164496527
 20
120.49083658854165
 10
138.00949164496527
 20
120.49083658854165
 10
138.11181098090276
 20
120.66825900607638
 10
138.25926106770831
 20
120.81536458333332
 10
138.43633897569444
 20
120.91837293836805
 10
138.99513346354166
 20
121.24014485677083
 10
139.70930175781248
 20
121.04894205729165
 10
140.03176269531249
 20
120.49083658854165
 10
140.03176269531249
 20
120.49083658854165
 10
143.84755045572916
 20
120.49083658854165
 10
143.84755045572916
 20
120.49083658854165
 10
143.94986979166666
 20
120.66825900607638
 10
144.09697536892361
 20
120.81536458333332
 10
144.27474229600693
 20
120.91837293836805
 10
144.83353678385416
 20
121.24014485677083
 10
145.54701605902775
 20
121.04894205729165
 10
145.86947699652777
 20
120.49083658854165
 10
145.86947699652777
 20
120.49083658854165
 10
149.68526475694443
 20
120.49083658854165
 10
149.68526475694443
 20
120.49083658854165
 10
149.69835611979164
 20
120.51254069010416
 10
149.7117919921875
 20
120.53493381076387
 10
149.72626139322915
 20
120.55594889322916
 10
149.75451117621526
 20
120.59832356770832
 10
149.78551703559026
 20
120.63863118489583
 10
149.81927897135415
 20
120.67687174479165
 10
149.81927897135415
 20
120.67687174479165
 10
149.68526475694443
 20
120.49083658854165
 10
149.68526475694443
 20
120.49083658854165
 10
150.27954372829859
 20
121.17882215711805
 10
149.42481553819442
 20
120.32409396701388
 10
150.11280110677083
 20
120.91837293836805
 10
151.96075032552082
 20
121.15815158420138
 10
149.52679036458332
 20
121.21740722656249
 10
151.32960883246525
 20
120.88840060763887
 10
151.32960883246525
 20
120.88840060763887
 10
149.81927897135415
 20
120.67687174479165
 10
149.81927897135415
 20
120.67687174479165
 10
149.8358154296875
 20
120.69616427951388
 10
149.85338541666664
 20
120.71476779513888
 10
149.87095540364581
 20
120.73233778211805
 10
149.8888699001736
 20
120.75025227864582
 10
149.90747341579859
 20
120.76782226562499
 10
149.92676595052083
 20
120.78435872395832
 10
149.96500651041666
 20
120.81812065972221
 10
150.00531412760415
 20
120.84912651909721
 10
150.04768880208331
 20
120.87737630208332
 10
150.14484049479165
 20
120.93938802083332
 10
150.01461588541665
 20
120.85842827690971
 10
150.11280110677083
 20
120.91837293836805
 10
150.2078857421875
 20
120.97039388020832
 10
150.08076171874998
 20
120.90183648003472
 10
150.17619086371528
 20
120.95247938368054
 10
150.19444986979164
 20
120.96109212239583
 10
150.21201985677081
 20
120.96936035156249
 10
150.2299343532986
 20
120.97728407118055
 10
150.25542805989582
 20
120.98865288628471
 10
150.28057725694444
 20
120.99829915364582
 10
150.30641547309025
 20
121.00760091145833
 10
150.33397623697914
 20
121.01759168836804
 10
150.36188151041665
 20
121.02620442708333
 10
150.38978678385416
 20
121.03343912760415
 10
150.41562499999998
 20
121.04067382812499
 10
150.44180772569442
 20
121.04687499999999
 10
150.46833496093748
 20
121.05204264322916
 10
150.53241373697915
 20
121.06513400607638
 10
150.59649251302082
 20
121.07236870659722
 10
150.66057128906249
 20
121.07443576388887
 10
150.68675401475693
 20
121.07478027343748
 10
150.71328124999999
 20
121.07478027343748
 10
150.73946397569443
 20
121.07374674479165
 10
150.77667100694444
 20
121.07236870659722
 10
150.81456705729164
 20
121.06926812065971
 10
150.85177408854165
 20
121.06444498697915
 10
150.87761230468749
 20
121.06099989149304
 10
150.90345052083333
 20
121.05617675781249
 10
150.92928873697915
 20
121.05100911458332
 10
150.96580674913193
 20
121.04377441406248
 10
151.00198025173609
 20
121.03447265624999
 10
151.03780924479165
 20
121.02379286024305
 10
151.06295844184027
 20
121.01586914062499
 10
151.08776312934026
 20
121.00725640190971
 10
151.11222330729166
 20
120.99829915364582
 10
151.17147894965277
 20
120.97556152343749
 10
151.22935655381943
 20
120.94834526909722
 10
151.28482259114583
 20
120.91561686197916
 10
151.30032552083333
 20
120.90700412326387
 10
151.3151394314236
 20
120.89770236545138
 10
151.32960883246525
 20
120.88840060763887
 10
151.48119303385414
 20
120.79124891493055
 10
151.61176215277777
 20
120.65723470052082
 10
151.70788031684026
 20
120.49083658854165
 10
151.70788031684026
 20
120.49083658854165
 10
155.52366807725693
 20
120.49083658854165
 10
155.52366807725693
 20
120.49083658854165
 10
155.62598741319442
 20
120.66825900607638
 10
155.7734375
 20
120.81536458333332
 10
155.95120442708333
 20
120.91837293836805
 10
156.50965440538192
 20
121.24014485677083
 10
157.22347819010415
 20
121.04894205729165
 10
157.54593912760416
 20
120.49083658854165
 10
157.54593912760416
 20
120.49083658854165
 10
160.14457465277778
 20
120.49083658854165
 10
160.14457465277778
 20
120.49083658854165
 10
160.14457465277778
 20
120.49083658854165
 10
160.14457465277778
 20
124.42926974826388
 10
160.14457465277778
 20
124.42926974826388
 97
        0
 75
     0
 76
     0
 52
45.0
 41
2.0
 77
     0
 78
     1
 53
45.0
 43
0.0
 44
0.0
 45
-1.4142135623730949
 46
1.4142135623730951
 79
     0
 98
        1
 10
0.0
 20
0.0
  0
SPLINE
  5
13C
100
AcDbEntity
  8
SCHRAFUR
 62
     7
100
AcDbSpline
210
0.0
220
0.0
230
1.0
 70
     8
 71
     3
 72
   173
 73
   169
 74
     0
 42
0.00000001
 43
0.00000001
 40
0.0
 40
0.0
 40
0.0
 40
0.0
 40
1.0
 40
1.0
 40
1.0
 40
2.0
 40
2.0
 40
2.0
 40
3.0
 40
3.0
 40
3.0
 40
4.0
 40
4.0
 40
4.0
 40
5.0
 40
5.0
 40
5.0
 40
6.0
 40
6.0
 40
6.0
 40
7.0
 40
7.0
 40
7.0
 40
8.0
 40
8.0
 40
8.0
 40
9.0
 40
9.0
 40
9.0
 40
10.0
 40
10.0
 40
10.0
 40
11.0
 40
11.0
 40
11.0
 40
12.0
 40
12.0
 40
12.0
 40
13.0
 40
13.0
 40
13.0
 40
14.0
 40
14.0
 40
14.0
 40
15.0
 40
15.0
 40
15.0
 40
16.0
 40
16.0
 40
16.0
 40
17.0
 40
17.0
 40
17.0
 40
18.0
 40
18.0
 40
18.0
 40
19.0
 40
19.0
 40
19.0
 40
20.0
 40
20.0
 40
20.0
 40
21.0
 40
21.0
 40
21.0
 40
22.0
 40
22.0
 40
22.0
 40
23.0
 40
23.0
 40
23.0
 40
24.0
 40
24.0
 40
24.0
 40
25.0
 40
25.0
 40
25.0
 40
26.0
 40
26.0
 40
26.0
 40
27.0
 40
27.0
 40
27.0
 40
28.0
 40
28.0
 40
28.0
 40
29.0
 40
29.0
 40
29.0
 40
30.0
 40
30.0
 40
30.0
 40
31.0
 40
31.0
 40
31.0
 40
32.0
 40
32.0
 40
32.0
 40
33.0
 40
33.0
 40
33.0
 40
34.0
 40
34.0
 40
34.0
 40
35.0
 40
35.0
 40
35.0
 40
36.0
 40
36.0
 40
36.0
 40
37.0
 40
37.0
 40
37.0
 40
38.0
 40
38.0
 40
38.0
 40
39.0
 40
39.0
 40
39.0
 40
40.0
 40
40.0
 40
40.0
 40
41.0
 40
41.0
 40
41.0
 40
42.0
 40
42.0
 40
42.0
 40
43.0
 40
43.0
 40
43.0
 40
44.0
 40
44.0
 40
44.0
 40
45.0
 40
45.0
 40
45.0
 40
46.0
 40
46.0
 40
46.0
 40
47.0
 40
47.0
 40
47.0
 40
48.0
 40
48.0
 40
48.0
 40
49.0
 40
49.0
 40
49.0
 40
50.0
 40
50.0
 40
50.0
 40
51.0
 40
51.0
 40
51.0
 40
52.0
 40
52.0
 40
52.0
 40
53.0
 40
53.0
 40
53.0
 40
54.0
 40
54.0
 40
54.0
 40
55.0
 40
55.0
 40
55.0
 40
56.0
 40
56.0
 40
56.0
 40
56.0
 10
160.14457465277778
 20
168.5077162000868
 30
0.0
 10
160.14457465277778
 20
168.5077162000868
 30
0.0
 10
107.2558132595486
 20
168.5077162000868
 30
0.0
 10
107.2558132595486
 20
168.5077162000868
 30
0.0
 10
107.2558132595486
 20
168.5077162000868
 30
0.0
 10
107.2558132595486
 20
172.446149359809
 30
0.0
 10
107.2558132595486
 20
172.446149359809
 30
0.0
 10
107.2558132595486
 20
172.446149359809
 30
0.0
 10
110.75017361111109
 20
172.446149359809
 30
0.0
 10
110.75017361111109
 20
172.446149359809
 30
0.0
 10
110.8524929470486
 20
172.2687269422743
 30
0.0
 10
111.00028754340276
 20
172.12144911024305
 30
0.0
 10
111.17770996093749
 20
172.01878526475693
 30
0.0
 10
111.7361599392361
 20
171.69632432725692
 30
0.0
 10
112.45032823350694
 20
171.8878716362847
 30
0.0
 10
112.77278917100693
 20
172.446149359809
 30
0.0
 10
112.77278917100693
 20
172.446149359809
 30
0.0
 10
116.5885769314236
 20
172.446149359809
 30
0.0
 10
116.5885769314236
 20
172.446149359809
 30
0.0
 10
116.6908962673611
 20
172.2687269422743
 30
0.0
 10
116.83834635416666
 20
172.12144911024305
 30
0.0
 10
117.01611328124999
 20
172.01878526475693
 30
0.0
 10
117.57421874999999
 20
171.69632432725692
 30
0.0
 10
118.28838704427082
 20
171.8878716362847
 30
0.0
 10
118.61084798177082
 20
172.446149359809
 30
0.0
 10
118.61084798177082
 20
172.446149359809
 30
0.0
 10
117.25692545572916
 20
171.91474338107636
 30
0.0
 10
117.25692545572916
 20
171.91474338107636
 30
0.0
 10
117.25692545572916
 20
171.91474338107636
 30
0.0
 10
117.25933702256944
 20
171.91181504991317
 30
0.0
 10
117.25933702256944
 20
171.91181504991317
 30
0.0
 10
117.25933702256944
 20
171.91181504991317
 30
0.0
 10
118.61084798177082
 20
172.446149359809
 30
0.0
 10
118.61084798177082
 20
172.446149359809
 30
0.0
 10
118.61084798177082
 20
172.446149359809
 30
0.0
 10
121.59671223958333
 20
172.446149359809
 30
0.0
 10
121.59671223958333
 20
172.446149359809
 30
0.0
 10
121.69903157552082
 20
172.2687269422743
 30
0.0
 10
121.84613715277777
 20
172.12144911024305
 30
0.0
 10
122.0239040798611
 20
172.01878526475693
 30
0.0
 10
122.5820095486111
 20
171.69632432725692
 30
0.0
 10
123.29617784288193
 20
171.8878716362847
 30
0.0
 10
123.61863878038193
 20
172.446149359809
 30
0.0
 10
123.61863878038193
 20
172.446149359809
 30
0.0
 10
127.16329752604166
 20
172.446149359809
 30
0.0
 10
127.16329752604166
 20
172.446149359809
 30
0.0
 10
127.26561686197915
 20
172.2687269422743
 30
0.0
 10
127.41272243923611
 20
172.12144911024305
 30
0.0
 10
127.59048936631943
 20
172.01878526475693
 30
0.0
 10
128.14928385416667
 20
171.69632432725692
 30
0.0
 10
128.86345214843749
 20
171.8878716362847
 30
0.0
 10
129.18522406684028
 20
172.446149359809
 30
0.0
 10
129.18522406684028
 20
172.446149359809
 30
0.0
 10
132.17108832465277
 20
172.446149359809
 30
0.0
 10
132.17108832465277
 20
172.446149359809
 30
0.0
 10
132.27340766059027
 20
172.2687269422743
 30
0.0
 10
132.42085774739581
 20
172.12144911024305
 30
0.0
 10
132.59862467447917
 20
172.01878526475693
 30
0.0
 10
133.15707465277777
 20
171.69632432725692
 30
0.0
 10
133.87124294704859
 20
171.8878716362847
 30
0.0
 10
134.1937038845486
 20
172.446149359809
 30
0.0
 10
134.1937038845486
 20
172.446149359809
 30
0.0
 10
138.00949164496527
 20
172.446149359809
 30
0.0
 10
138.00949164496527
 20
172.446149359809
 30
0.0
 10
138.11181098090276
 20
172.2687269422743
 30
0.0
 10
138.25926106770831
 20
172.12144911024305
 30
0.0
 10
138.43633897569444
 20
172.01878526475693
 30
0.0
 10
138.99513346354166
 20
171.69632432725692
 30
0.0
 10
139.70930175781248
 20
171.8878716362847
 30
0.0
 10
140.03176269531249
 20
172.446149359809
 30
0.0
 10
140.03176269531249
 20
172.446149359809
 30
0.0
 10
143.84755045572916
 20
172.446149359809
 30
0.0
 10
143.84755045572916
 20
172.446149359809
 30
0.0
 10
143.94986979166666
 20
172.2687269422743
 30
0.0
 10
144.09697536892361
 20
172.12144911024305
 30
0.0
 10
144.27474229600693
 20
172.01878526475693
 30
0.0
 10
144.83353678385416
 20
171.69632432725692
 30
0.0
 10
145.54701605902775
 20
171.8878716362847
 30
0.0
 10
145.86947699652777
 20
172.446149359809
 30
0.0
 10
145.86947699652777
 20
172.446149359809
 30
0.0
 10
149.68526475694443
 20
172.446149359809
 30
0.0
 10
149.68526475694443
 20
172.446149359809
 30
0.0
 10
149.69835611979164
 20
172.4239284939236
 30
0.0
 10
149.7117919921875
 20
172.40222439236109
 30
0.0
 10
149.72626139322915
 20
172.38103705512151
 30
0.0
 10
149.75451117621526
 20
172.33866238064235
 30
0.0
 10
149.78551703559026
 20
172.29818250868053
 30
0.0
 10
149.81927897135415
 20
172.2599419487847
 30
0.0
 10
149.81927897135415
 20
172.2599419487847
 30
0.0
 10
149.68526475694443
 20
172.446149359809
 30
0.0
 10
149.68526475694443
 20
172.446149359809
 30
0.0
 10
150.27954372829859
 20
171.75833604600692
 30
0.0
 10
149.42481553819442
 20
172.61306423611109
 30
0.0
 10
150.11280110677083
 20
172.01878526475693
 30
0.0
 10
151.96075032552082
 20
171.77883436414928
 30
0.0
 10
149.52679036458332
 20
171.71906195746527
 30
0.0
 10
151.32960883246525
 20
172.04858534071178
 30
0.0
 10
151.32960883246525
 20
172.04858534071178
 30
0.0
 10
149.81927897135415
 20
172.2599419487847
 30
0.0
 10
149.81927897135415
 20
172.2599419487847
 30
0.0
 10
149.8358154296875
 20
172.24082166883679
 30
0.0
 10
149.85338541666664
 20
172.2223904079861
 30
0.0
 10
149.87095540364581
 20
172.204303656684
 30
0.0
 10
149.8888699001736
 20
172.18656141493054
 30
0.0
 10
149.90747341579859
 20
172.16899142795137
 30
0.0
 10
149.92676595052083
 20
172.15211046006942
 30
0.0
 10
149.96500651041666
 20
172.11886528862846
 30
0.0
 10
150.00531412760415
 20
172.08785942925346
 30
0.0
 10
150.04768880208331
 20
172.05943739149305
 30
0.0
 10
150.14484049479165
 20
171.99759792751735
 30
0.0
 10
150.01461588541665
 20
172.07872992621526
 30
0.0
 10
150.11280110677083
 20
172.01878526475693
 30
0.0
 10
150.2078857421875
 20
171.96659206814235
 30
0.0
 10
150.08076171874998
 20
172.03514946831595
 30
0.0
 10
150.17619086371528
 20
171.98467881944444
 30
0.0
 10
150.19444986979164
 20
171.97572157118054
 30
0.0
 10
150.21201985677081
 20
171.96745334201387
 30
0.0
 10
150.2299343532986
 20
171.95970187717012
 30
0.0
 10
150.25542805989582
 20
171.94850531684025
 30
0.0
 10
150.28057725694444
 20
171.93851453993054
 30
0.0
 10
150.30641547309025
 20
171.92921278211804
 30
0.0
 10
150.33397623697914
 20
171.91939425998262
 30
0.0
 10
150.36188151041665
 20
171.91078152126735
 30
0.0
 10
150.38978678385416
 20
171.9030300564236
 30
0.0
 10
150.41562499999998
 20
171.89613986545137
 30
0.0
 10
150.44180772569442
 20
171.88993869357637
 30
0.0
 10
150.46833496093748
 20
171.88442654079859
 30
0.0
 10
150.53241373697915
 20
171.87185194227428
 30
0.0
 10
150.59649251302082
 20
171.86461724175345
 30
0.0
 10
150.66057128906249
 20
171.86272243923611
 30
0.0
 10
150.68675401475693
 20
171.86203342013889
 30
0.0
 10
150.71328124999999
 20
171.86203342013889
 30
0.0
 10
150.73946397569443
 20
171.86306694878471
 30
0.0
 10
150.77667100694444
 20
171.86427273220485
 30
0.0
 10
150.81456705729164
 20
171.86771782769097
 30
0.0
 10
150.85177408854165
 20
171.8725409613715
 30
0.0
 10
150.87761230468749
 20
171.87615831163194
 30
0.0
 10
150.90345052083333
 20
171.88063693576387
 30
0.0
 10
150.92928873697915
 20
171.88580457899303
 30
0.0
 10
150.96580674913193
 20
171.89321153428818
 30
0.0
 10
151.00198025173609
 20
171.90234103732638
 30
0.0
 10
151.03780924479165
 20
171.91336534288192
 30
0.0
 10
151.06295844184027
 20
171.92094455295137
 30
0.0
 10
151.08776312934026
 20
171.92938503689234
 30
0.0
 10
151.11222330729166
 20
171.93868679470484
 30
0.0
 10
151.17147894965277
 20
171.96142442491319
 30
0.0
 10
151.22935655381943
 20
171.98881293402775
 30
0.0
 10
151.28482259114583
 20
172.02119683159719
 30
0.0
 10
151.30032552083333
 20
172.02998182508679
 30
0.0
 10
151.3151394314236
 20
172.03893907335069
 30
0.0
 10
151.32960883246525
 20
172.04858534071178
 30
0.0
 10
151.48119303385414
 20
172.14590928819442
 30
0.0
 10
151.61176215277777
 20
172.27975124782984
 30
0.0
 10
151.70788031684026
 20
172.446149359809
 30
0.0
 10
151.70788031684026
 20
172.446149359809
 30
0.0
 10
155.52366807725693
 20
172.446149359809
 30
0.0
 10
155.52366807725693
 20
172.446149359809
 30
0.0
 10
155.62598741319442
 20
172.2687269422743
 30
0.0
 10
155.7734375
 20
172.12144911024305
 30
0.0
 10
155.95120442708333
 20
172.01878526475693
 30
0.0
 10
156.50965440538192
 20
171.69632432725692
 30
0.0
 10
157.22347819010415
 20
171.8878716362847
 30
0.0
 10
157.54593912760416
 20
172.446149359809
 30
0.0
 10
157.54593912760416
 20
172.446149359809
 30
0.0
 10
160.14457465277778
 20
172.446149359809
 30
0.0
 10
160.14457465277778
 20
172.446149359809
 30
0.0
 10
160.14457465277778
 20
172.446149359809
 30
0.0
 10
160.14457465277778
 20
168.5077162000868
 30
0.0
 10
160.14457465277778
 20
168.5077162000868
 30
0.0
  0
HATCH
  5
13B
100
AcDbEntity
  8
SCHRAFUR
 62
     7
100
AcDbHatch
 10
0.0
 20
0.0
 30
0.0
210
0.0
220
0.0
230
1.0
  2
_U
 70
     0
 71
     0
 91
        1
 92
        1
 93
        1
 72
     4
 94
        3
 73
     0
 74
     0
 95
      173
 96
      169
 40
0.0
 40
0.0
 40
0.0
 40
0.0
 40
1.0
 40
1.0
 40
1.0
 40
2.0
 40
2.0
 40
2.0
 40
3.0
 40
3.0
 40
3.0
 40
4.0
 40
4.0
 40
4.0
 40
5.0
 40
5.0
 40
5.0
 40
6.0
 40
6.0
 40
6.0
 40
7.0
 40
7.0
 40
7.0
 40
8.0
 40
8.0
 40
8.0
 40
9.0
 40
9.0
 40
9.0
 40
10.0
 40
10.0
 40
10.0
 40
11.0
 40
11.0
 40
11.0
 40
12.0
 40
12.0
 40
12.0
 40
13.0
 40
13.0
 40
13.0
 40
14.0
 40
14.0
 40
14.0
 40
15.0
 40
15.0
 40
15.0
 40
16.0
 40
16.0
 40
16.0
 40
17.0
 40
17.0
 40
17.0
 40
18.0
 40
18.0
 40
18.0
 40
19.0
 40
19.0
 40
19.0
 40
20.0
 40
20.0
 40
20.0
 40
21.0
 40
21.0
 40
21.0
 40
22.0
 40
22.0
 40
22.0
 40
23.0
 40
23.0
 40
23.0
 40
24.0
 40
24.0
 40
24.0
 40
25.0
 40
25.0
 40
25.0
 40
26.0
 40
26.0
 40
26.0
 40
27.0
 40
27.0
 40
27.0
 40
28.0
 40
28.0
 40
28.0
 40
29.0
 40
29.0
 40
29.0
 40
30.0
 40
30.0
 40
30.0
 40
31.0
 40
31.0
 40
31.0
 40
32.0
 40
32.0
 40
32.0
 40
33.0
 40
33.0
 40
33.0
 40
34.0
 40
34.0
 40
34.0
 40
35.0
 40
35.0
 40
35.0
 40
36.0
 40
36.0
 40
36.0
 40
37.0
 40
37.0
 40
37.0
 40
38.0
 40
38.0
 40
38.0
 40
39.0
 40
39.0
 40
39.0
 40
40.0
 40
40.0
 40
40.0
 40
41.0
 40
41.0
 40
41.0
 40
42.0
 40
42.0
 40
42.0
 40
43.0
 40
43.0
 40
43.0
 40
44.0
 40
44.0
 40
44.0
 40
45.0
 40
45.0
 40
45.0
 40
46.0
 40
46.0
 40
46.0
 40
47.0
 40
47.0
 40
47.0
 40
48.0
 40
48.0
 40
48.0
 40
49.0
 40
49.0
 40
49.0
 40
50.0
 40
50.0
 40
50.0
 40
51.0
 40
51.0
 40
51.0
 40
52.0
 40
52.0
 40
52.0
 40
53.0
 40
53.0
 40
53.0
 40
54.0
 40
54.0
 40
54.0
 40
55.0
 40
55.0
 40
55.0
 40
56.0
 40
56.0
 40
56.0
 40
56.0
 10
160.14457465277778
 20
168.5077162000868
 10
160.14457465277778
 20
168.5077162000868
 10
107.2558132595486
 20
168.5077162000868
 10
107.2558132595486
 20
168.5077162000868
 10
107.2558132595486
 20
168.5077162000868
 10
107.2558132595486
 20
172.446149359809
 10
107.2558132595486
 20
172.446149359809
 10
107.2558132595486
 20
172.446149359809
 10
110.75017361111109
 20
172.446149359809
 10
110.75017361111109
 20
172.446149359809
 10
110.8524929470486
 20
172.2687269422743
 10
111.00028754340276
 20
172.12144911024305
 10
111.17770996093749
 20
172.01878526475693
 10
111.7361599392361
 20
171.69632432725692
 10
112.45032823350694
 20
171.8878716362847
 10
112.77278917100693
 20
172.446149359809
 10
112.77278917100693
 20
172.446149359809
 10
116.5885769314236
 20
172.446149359809
 10
116.5885769314236
 20
172.446149359809
 10
116.6908962673611
 20
172.2687269422743
 10
116.83834635416666
 20
172.12144911024305
 10
117.01611328124999
 20
172.01878526475693
 10
117.57421874999999
 20
171.69632432725692
 10
118.28838704427082
 20
171.8878716362847
 10
118.61084798177082
 20
172.446149359809
 10
118.61084798177082
 20
172.446149359809
 10
117.25692545572916
 20
171.91474338107636
 10
117.25692545572916
 20
171.91474338107636
 10
117.25692545572916
 20
171.91474338107636
 10
117.25933702256944
 20
171.91181504991317
 10
117.25933702256944
 20
171.91181504991317
 10
117.25933702256944
 20
171.91181504991317
 10
118.61084798177082
 20
172.446149359809
 10
118.61084798177082
 20
172.446149359809
 10
118.61084798177082
 20
172.446149359809
 10
121.59671223958333
 20
172.446149359809
 10
121.59671223958333
 20
172.446149359809
 10
121.69903157552082
 20
172.2687269422743
 10
121.84613715277777
 20
172.12144911024305
 10
122.0239040798611
 20
172.01878526475693
 10
122.5820095486111
 20
171.69632432725692
 10
123.29617784288193
 20
171.8878716362847
 10
123.61863878038193
 20
172.446149359809
 10
123.61863878038193
 20
172.446149359809
 10
127.16329752604166
 20
172.446149359809
 10
127.16329752604166
 20
172.446149359809
 10
127.26561686197915
 20
172.2687269422743
 10
127.41272243923611
 20
172.12144911024305
 10
127.59048936631943
 20
172.01878526475693
 10
128.14928385416667
 20
171.69632432725692
 10
128.86345214843749
 20
171.8878716362847
 10
129.18522406684028
 20
172.446149359809
 10
129.18522406684028
 20
172.446149359809
 10
132.17108832465277
 20
172.446149359809
 10
132.17108832465277
 20
172.446149359809
 10
132.27340766059027
 20
172.2687269422743
 10
132.42085774739581
 20
172.12144911024305
 10
132.59862467447917
 20
172.01878526475693
 10
133.15707465277777
 20
171.69632432725692
 10
133.87124294704859
 20
171.8878716362847
 10
134.1937038845486
 20
172.446149359809
 10
134.1937038845486
 20
172.446149359809
 10
138.00949164496527
 20
172.446149359809
 10
138.00949164496527
 20
172.446149359809
 10
138.11181098090276
 20
172.2687269422743
 10
138.25926106770831
 20
172.12144911024305
 10
138.43633897569444
 20
172.01878526475693
 10
138.99513346354166
 20
171.69632432725692
 10
139.70930175781248
 20
171.8878716362847
 10
140.03176269531249
 20
172.446149359809
 10
140.03176269531249
 20
172.446149359809
 10
143.84755045572916
 20
172.446149359809
 10
143.84755045572916
 20
172.446149359809
 10
143.94986979166666
 20
172.2687269422743
 10
144.09697536892361
 20
172.12144911024305
 10
144.27474229600693
 20
172.01878526475693
 10
144.83353678385416
 20
171.69632432725692
 10
145.54701605902775
 20
171.8878716362847
 10
145.86947699652777
 20
172.446149359809
 10
145.86947699652777
 20
172.446149359809
 10
149.68526475694443
 20
172.446149359809
 10
149.68526475694443
 20
172.446149359809
 10
149.69835611979164
 20
172.4239284939236
 10
149.7117919921875
 20
172.40222439236109
 10
149.72626139322915
 20
172.38103705512151
 10
149.75451117621526
 20
172.33866238064235
 10
149.78551703559026
 20
172.29818250868053
 10
149.81927897135415
 20
172.2599419487847
 10
149.81927897135415
 20
172.2599419487847
 10
149.68526475694443
 20
172.446149359809
 10
149.68526475694443
 20
172.446149359809
 10
150.27954372829859
 20
171.75833604600692
 10
149.42481553819442
 20
172.61306423611109
 10
150.11280110677083
 20
172.01878526475693
 10
151.96075032552082
 20
171.77883436414928
 10
149.52679036458332
 20
171.71906195746527
 10
151.32960883246525
 20
172.04858534071178
 10
151.32960883246525
 20
172.04858534071178
 10
149.81927897135415
 20
172.2599419487847
 10
149.81927897135415
 20
172.2599419487847
 10
149.8358154296875
 20
172.24082166883679
 10
149.85338541666664
 20
172.2223904079861
 10
149.87095540364581
 20
172.204303656684
 10
149.8888699001736
 20
172.18656141493054
 10
149.90747341579859
 20
172.16899142795137
 10
149.92676595052083
 20
172.15211046006942
 10
149.96500651041666
 20
172.11886528862846
 10
150.00531412760415
 20
172.08785942925346
 10
150.04768880208331
 20
172.05943739149305
 10
150.14484049479165
 20
171.99759792751735
 10
150.01461588541665
 20
172.07872992621526
 10
150.11280110677083
 20
172.01878526475693
 10
150.2078857421875
 20
171.96659206814235
 10
150.08076171874998
 20
172.03514946831595
 10
150.17619086371528
 20
171.98467881944444
 10
150.19444986979164
 20
171.97572157118054
 10
150.21201985677081
 20
171.96745334201387
 10
150.2299343532986
 20
171.95970187717012
 10
150.25542805989582
 20
171.94850531684025
 10
150.28057725694444
 20
171.93851453993054
 10
150.30641547309025
 20
171.92921278211804
 10
150.33397623697914
 20
171.91939425998262
 10
150.36188151041665
 20
171.91078152126735
 10
150.38978678385416
 20
171.9030300564236
 10
150.41562499999998
 20
171.89613986545137
 10
150.44180772569442
 20
171.88993869357637
 10
150.46833496093748
 20
171.88442654079859
 10
150.53241373697915
 20
171.87185194227428
 10
150.59649251302082
 20
171.86461724175345
 10
150.66057128906249
 20
171.86272243923611
 10
150.68675401475693
 20
171.86203342013889
 10
150.71328124999999
 20
171.86203342013889
 10
150.73946397569443
 20
171.86306694878471
 10
150.77667100694444
 20
171.86427273220485
 10
150.81456705729164
 20
171.86771782769097
 10
150.85177408854165
 20
171.8725409613715
 10
150.87761230468749
 20
171.87615831163194
 10
150.90345052083333
 20
171.88063693576387
 10
150.92928873697915
 20
171.88580457899303
 10
150.96580674913193
 20
171.89321153428818
 10
151.00198025173609
 20
171.90234103732638
 10
151.03780924479165
 20
171.91336534288192
 10
151.06295844184027
 20
171.92094455295137
 10
151.08776312934026
 20
171.92938503689234
 10
151.11222330729166
 20
171.93868679470484
 10
151.17147894965277
 20
171.96142442491319
 10
151.22935655381943
 20
171.98881293402775
 10
151.28482259114583
 20
172.02119683159719
 10
151.30032552083333
 20
172.02998182508679
 10
151.3151394314236
 20
172.03893907335069
 10
151.32960883246525
 20
172.04858534071178
 10
151.48119303385414
 20
172.14590928819442
 10
151.61176215277777
 20
172.27975124782984
 10
151.70788031684026
 20
172.446149359809
 10
151.70788031684026
 20
172.446149359809
 10
155.52366807725693
 20
172.446149359809
 10
155.52366807725693
 20
172.446149359809
 10
155.62598741319442
 20
172.2687269422743
 10
155.7734375
 20
172.12144911024305
 10
155.95120442708333
 20
172.01878526475693
 10
156.50965440538192
 20
171.69632432725692
 10
157.22347819010415
 20
171.8878716362847
 10
157.54593912760416
 20
172.446149359809
 10
157.54593912760416
 20
172.446149359809
 10
160.14457465277778
 20
172.446149359809
 10
160.14457465277778
 20
172.446149359809
 10
160.14457465277778
 20
172.446149359809
 10
160.14457465277778
 20
168.5077162000868
 10
160.14457465277778
 20
168.5077162000868
 97
        0
 75
     0
 76
     0
 52
45.0
 41
2.0
 77
     0
 78
     1
 53
45.0
 43
0.0
 44
0.0
 45
-1.4142135623730949
 46
1.4142135623730951
 79
     0
 98
        1
 10
0.0
 20
0.0
  0
HATCH
  5
139
100
AcDbEntity
  8
EBENE_1
 62
   152
100
AcDbHatch
 10
0.0
 20
0.0
 30
0.0
210
0.0
220
0.0
230
1.0
  2
SOLID
 70
     1
 71
     0
 91
        1
 92
        1
 93
        1
 72
     4
 94
        3
 73
     0
 74
     0
 95
       23
 96
       19
 40
0.0
 40
0.0
 40
0.0
 40
0.0
 40
1.0
 40
1.0
 40
1.0
 40
2.0
 40
2.0
 40
2.0
 40
3.0
 40
3.0
 40
3.0
 40
4.0
 40
4.0
 40
4.0
 40
5.0
 40
5.0
 40
5.0
 40
6.0
 40
6.0
 40
6.0
 40
6.0
 10
90.820985243055546
 20
128.14170464409722
 10
90.820985243055546
 20
128.14170464409722
 10
90.430828179253467
 20
128.38251681857639
 10
89.900111219618054
 20
128.63607584635415
 10
85.523461914062494
 20
130.72966037326387
 10
86.590752495659714
 20
126.48736979166665
 10
82.258717176649299
 20
129.15387369791665
 10
81.647729492187494
 20
129.52973361545136
 10
81.083939615885413
 20
128.61333821614582
 10
81.694755045572904
 20
128.23782280815971
 10
81.694755045572904
 20
128.23782280815971
 10
82.085084364149296
 20
127.99701063368055
 10
82.61562906901041
 20
127.74310709635415
 10
86.986938476562486
 20
125.65124511718749
 10
85.924643283420124
 20
129.88526746961804
 10
90.257539876302076
 20
127.22530924479166
 10
90.868355305989581
 20
126.84979383680555
 10
91.432145182291663
 20
127.76584472656249
 10
90.820985243055546
 20
128.14170464409722
 97
        0
 75
     0
 76
     1
 98
        1
 10
0.0
 20
0.0
  0
HATCH
  5
138
100
AcDbEntity
  8
EBENE_1
 62
   152
100
AcDbHatch
 10
0.0
 20
0.0
 30
0.0
210
0.0
220
0.0
230
1.0
  2
SOLID
 70
     1
 71
     0
 91
        1
 92
        1
 93
        1
 72
     4
 94
        3
 73
     0
 74
     0
 95
       23
 96
       19
 40
0.0
 40
0.0
 40
0.0
 40
0.0
 40
1.0
 40
1.0
 40
1.0
 40
2.0
 40
2.0
 40
2.0
 40
3.0
 40
3.0
 40
3.0
 40
4.0
 40
4.0
 40
4.0
 40
5.0
 40
5.0
 40
5.0
 40
6.0
 40
6.0
 40
6.0
 40
6.0
 10
90.820985243055546
 20
125.61162651909721
 10
90.820985243055546
 20
125.61162651909721
 10
90.430828179253467
 20
125.85243869357637
 10
89.900111219618054
 20
126.10599772135416
 10
85.523461914062494
 20
128.19958224826388
 10
86.590752495659714
 20
123.95729166666665
 10
82.258717176649299
 20
126.62379557291665
 10
81.647729492187494
 20
126.99965549045137
 10
81.083939615885413
 20
126.08326009114582
 10
81.694755045572904
 20
125.70774468315972
 10
81.694755045572904
 20
125.70774468315972
 10
82.085084364149296
 20
125.46693250868054
 10
82.61562906901041
 20
125.21302897135415
 10
86.986938476562486
 20
123.12116699218748
 10
85.924643283420124
 20
127.35518934461804
 10
90.257539876302076
 20
124.69523111979166
 10
90.868355305989581
 20
124.31971571180554
 10
91.432145182291663
 20
125.23576660156249
 10
90.820985243055546
 20
125.61162651909721
 97
        0
 75
     0
 76
     1
 98
        1
 10
0.0
 20
0.0
  0
HATCH
  5
137
100
AcDbEntity
  8
EBENE_1
 62
   152
100
AcDbHatch
 10
0.0
 20
0.0
 30
0.0
210
0.0
220
0.0
230
1.0
  2
SOLID
 70
     1
 71
     0
 91
        1
 92
        1
 93
        1
 72
     4
 94
        3
 73
     0
 74
     0
 95
       23
 96
       19
 40
0.0
 40
0.0
 40
0.0
 40
0.0
 40
1.0
 40
1.0
 40
1.0
 40
2.0
 40
2.0
 40
2.0
 40
3.0
 40
3.0
 40
3.0
 40
4.0
 40
4.0
 40
4.0
 40
5.0
 40
5.0
 40
5.0
 40
6.0
 40
6.0
 40
6.0
 40
6.0
 10
90.820985243055546
 20
123.08154839409721
 10
90.820985243055546
 20
123.08154839409721
 10
90.430828179253467
 20
123.32236056857637
 10
89.900111219618054
 20
123.57591959635415
 10
85.523461914062494
 20
125.66950412326388
 10
86.590752495659714
 20
121.42721354166666
 10
82.258717176649299
 20
124.09371744791666
 10
81.647729492187494
 20
124.46957736545137
 10
81.083939615885413
 20
123.55318196614583
 10
81.694755045572904
 20
123.17766655815971
 10
81.694755045572904
 20
123.17766655815971
 10
82.085084364149296
 20
122.93685438368054
 10
82.61562906901041
 20
122.68295084635416
 10
86.986938476562486
 20
120.59074435763888
 10
85.924643283420124
 20
124.82511121961804
 10
90.257539876302076
 20
122.16515299479165
 10
90.868355305989581
 20
121.78963758680554
 10
91.432145182291663
 20
122.70568847656249
 10
90.820985243055546
 20
123.08154839409721
 97
        0
 75
     0
 76
     1
 98
        1
 10
0.0
 20
0.0
  0
HATCH
  5
136
100
AcDbEntity
  8
EBENE_1
 62
   152
100
AcDbHatch
 10
0.0
 20
0.0
 30
0.0
210
0.0
220
0.0
230
1.0
  2
SOLID
 70
     1
 71
     0
 91
        1
 92
        1
 93
        1
 72
     4
 94
        3
 73
     0
 74
     0
 95
       23
 96
       19
 40
0.0
 40
0.0
 40
0.0
 40
0.0
 40
1.0
 40
1.0
 40
1.0
 40
2.0
 40
2.0
 40
2.0
 40
3.0
 40
3.0
 40
3.0
 40
4.0
 40
4.0
 40
4.0
 40
5.0
 40
5.0
 40
5.0
 40
6.0
 40
6.0
 40
6.0
 40
6.0
 10
90.820985243055546
 20
130.66764865451387
 10
90.820985243055546
 20
130.66764865451387
 10
90.430828179253467
 20
130.90777180989582
 10
89.900111219618054
 20
131.16201985677083
 10
85.523461914062494
 20
133.25560438368055
 10
86.590752495659714
 20
129.01331380208333
 10
82.258717176649299
 20
131.67981770833333
 10
81.647729492187494
 20
132.05567762586804
 10
81.083939615885413
 20
131.1392822265625
 10
81.694755045572904
 20
130.76307779947916
 10
81.694755045572904
 20
130.76307779947916
 10
82.085084364149296
 20
130.52295464409721
 10
82.61562906901041
 20
130.26905110677083
 10
86.986938476562486
 20
128.17684461805555
 10
85.924643283420124
 20
132.4105224609375
 10
90.257539876302076
 20
129.75125325520833
 10
90.868355305989581
 20
129.37504882812499
 10
91.432145182291663
 20
130.29178873697916
 10
90.820985243055546
 20
130.66764865451387
 97
        0
 75
     0
 76
     1
 98
        1
 10
0.0
 20
0.0
  0
HATCH
  5
134
100
AcDbEntity
  8
SCHRAFFUR
 62
     7
100
AcDbHatch
 10
0.0
 20
0.0
 30
0.0
210
0.0
220
0.0
230
1.0
  2
SOLID
 70
     1
 71
     0
 91
        4
 92
        1
 93
        1
 72
     4
 94
        3
 73
     0
 74
     0
 95
       20
 96
       16
 40
0.0
 40
0.0
 40
0.0
 40
0.0
 40
1.0
 40
1.0
 40
1.0
 40
2.0
 40
2.0
 40
2.0
 40
3.0
 40
3.0
 40
3.0
 40
4.0
 40
4.0
 40
4.0
 40
5.0
 40
5.0
 40
5.0
 40
5.0
 10
109.90750325520833
 20
168.06450466579861
 10
109.90750325520833
 20
168.06450466579861
 10
109.90750325520833
 20
168.50530463324651
 10
109.90750325520833
 20
168.50530463324651
 10
109.90750325520833
 20
168.50530463324651
 10
114.31481391059027
 20
168.50530463324651
 10
114.31481391059027
 20
168.50530463324651
 10
114.31481391059027
 20
168.50530463324651
 10
114.31481391059027
 20
163.61464708116318
 10
114.31481391059027
 20
163.61464708116318
 10
114.31481391059027
 20
163.61464708116318
 10
109.90750325520833
 20
163.61464708116318
 10
109.90750325520833
 20
163.61464708116318
 10
109.90750325520833
 20
163.61464708116318
 10
109.90750325520833
 20
168.06450466579861
 10
109.90750325520833
 20
168.06450466579861
 97
        0
 92
        1
 93
        1
 72
     4
 94
        3
 73
     0
 74
     0
 95
       17
 96
       13
 40
0.0
 40
0.0
 40
0.0
 40
0.0
 40
1.0
 40
1.0
 40
1.0
 40
2.0
 40
2.0
 40
2.0
 40
3.0
 40
3.0
 40
3.0
 40
4.0
 40
4.0
 40
4.0
 40
4.0
 10
109.90750325520833
 20
163.61464708116318
 10
109.90750325520833
 20
163.61464708116318
 10
114.31481391059027
 20
163.61464708116318
 10
114.31481391059027
 20
163.61464708116318
 10
114.31481391059027
 20
163.61464708116318
 10
114.31481391059027
 20
146.46857910156248
 10
114.31481391059027
 20
146.46857910156248
 10
114.31481391059027
 20
146.46857910156248
 10
109.90750325520833
 20
146.46857910156248
 10
109.90750325520833
 20
146.46857910156248
 10
109.90750325520833
 20
146.46857910156248
 10
109.90750325520833
 20
163.61464708116318
 10
109.90750325520833
 20
163.61464708116318
 97
        0
 92
        1
 93
        1
 72
     4
 94
        3
 73
     0
 74
     0
 95
       17
 96
       13
 40
0.0
 40
0.0
 40
0.0
 40
0.0
 40
1.0
 40
1.0
 40
1.0
 40
2.0
 40
2.0
 40
2.0
 40
3.0
 40
3.0
 40
3.0
 40
4.0
 40
4.0
 40
4.0
 40
4.0
 10
109.90750325520833
 20
146.46857910156248
 10
109.90750325520833
 20
146.46857910156248
 10
114.31481391059027
 20
146.46857910156248
 10
114.31481391059027
 20
146.46857910156248
 10
114.31481391059027
 20
146.46857910156248
 10
114.31481391059027
 20
129.32233886718748
 10
114.31481391059027
 20
129.32233886718748
 10
114.31481391059027
 20
129.32233886718748
 10
109.90750325520833
 20
129.32233886718748
 10
109.90750325520833
 20
129.32233886718748
 10
109.90750325520833
 20
129.32233886718748
 10
109.90750325520833
 20
146.46857910156248
 10
109.90750325520833
 20
146.46857910156248
 97
        0
 92
        1
 93
        1
 72
     4
 94
        3
 73
     0
 74
     0
 95
       17
 96
       13
 40
0.0
 40
0.0
 40
0.0
 40
0.0
 40
1.0
 40
1.0
 40
1.0
 40
2.0
 40
2.0
 40
2.0
 40
3.0
 40
3.0
 40
3.0
 40
4.0
 40
4.0
 40
4.0
 40
4.0
 10
109.90750325520833
 20
129.32233886718748
 10
109.90750325520833
 20
129.32233886718748
 10
114.31481391059027
 20
129.32233886718748
 10
114.31481391059027
 20
129.32233886718748
 10
114.31481391059027
 20
129.32233886718748
 10
114.31481391059027
 20
124.43133680555555
 10
114.31481391059027
 20
124.43133680555555
 10
114.31481391059027
 20
124.43133680555555
 10
109.90750325520833
 20
124.43133680555555
 10
109.90750325520833
 20
124.43133680555555
 10
109.90750325520833
 20
124.43133680555555
 10
109.90750325520833
 20
129.32233886718748
 10
109.90750325520833
 20
129.32233886718748
 97
        0
 75
     0
 76
     1
 98
        1
 10
0.0
 20
0.0
  0
LINE
  5
133
100
AcDbEntity
  8
SCHRAFFUR
 62
     7
100
AcDbLine
 10
147.302637
 20
200.835975
 30
0.0
 11
149.996357
 21
198.142083
 31
0.0
  0
LINE
  5
132
100
AcDbEntity
  8
SCHRAFFUR
 62
     7
100
AcDbLine
 10
141.914163
 20
200.835975
 30
0.0
 11
144.608228
 21
198.142083
 31
0.0
  0
LINE
  5
131
100
AcDbEntity
  8
SCHRAFFUR
 62
     7
100
AcDbLine
 10
147.302637
 20
195.447846
 30
0.0
 11
149.996357
 21
192.753781
 31
0.0
  0
LINE
  5
130
100
AcDbEntity
  8
SCHRAFFUR
 62
     7
100
AcDbLine
 10
136.526034
 20
200.835975
 30
0.0
 11
139.220443
 21
198.142083
 31
0.0
  0
LINE
  5
12F
100
AcDbEntity
  8
SCHRAFFUR
 62
     7
100
AcDbLine
 10
141.914163
 20
195.447846
 30
0.0
 11
144.608228
 21
192.753781
 31
0.0
  0
LINE
  5
12E
100
AcDbEntity
  8
SCHRAFFUR
 62
     7
100
AcDbLine
 10
147.302637
 20
190.059889
 30
0.0
 11
149.996357
 21
187.365652
 31
0.0
  0
LINE
  5
12D
100
AcDbEntity
  8
SCHRAFFUR
 62
     7
100
AcDbLine
 10
131.13756
 20
200.835975
 30
0.0
 11
133.831969
 21
198.142083
 31
0.0
  0
LINE
  5
12C
100
AcDbEntity
  8
SCHRAFFUR
 62
     7
100
AcDbLine
 10
136.526034
 20
195.447846
 30
0.0
 11
139.220443
 21
192.753781
 31
0.0
  0
LINE
  5
12B
100
AcDbEntity
  8
SCHRAFFUR
 62
     7
100
AcDbLine
 10
141.914163
 20
190.059889
 30
0.0
 11
144.608228
 21
187.365652
 31
0.0
  0
LINE
  5
12A
100
AcDbEntity
  8
SCHRAFFUR
 62
     7
100
AcDbLine
 10
147.302637
 20
184.671587
 30
0.0
 11
149.996357
 21
181.977351
 31
0.0
  0
LINE
  5
129
100
AcDbEntity
  8
SCHRAFFUR
 62
     7
100
AcDbLine
 10
125.749775
 20
200.835975
 30
0.0
 11
128.44384
 21
198.142083
 31
0.0
  0
LINE
  5
128
100
AcDbEntity
  8
SCHRAFFUR
 62
     7
100
AcDbLine
 10
131.13756
 20
195.447846
 30
0.0
 11
133.831969
 21
192.753781
 31
0.0
  0
LINE
  5
127
100
AcDbEntity
  8
SCHRAFFUR
 62
     7
100
AcDbLine
 10
136.526034
 20
190.059889
 30
0.0
 11
139.220443
 21
187.365652
 31
0.0
  0
LINE
  5
126
100
AcDbEntity
  8
SCHRAFFUR
 62
     7
100
AcDbLine
 10
141.914163
 20
184.671587
 30
0.0
 11
144.608228
 21
181.977351
 31
0.0
  0
LINE
  5
125
100
AcDbEntity
  8
SCHRAFFUR
 62
     7
100
AcDbLine
 10
147.302637
 20
179.283458
 30
0.0
 11
149.996357
 21
176.589393
 31
0.0
  0
LINE
  5
124
100
AcDbEntity
  8
SCHRAFFUR
 62
     7
100
AcDbLine
 10
125.749775
 20
195.447846
 30
0.0
 11
128.44384
 21
192.753781
 31
0.0
  0
LINE
  5
123
100
AcDbEntity
  8
SCHRAFFUR
 62
     7
100
AcDbLine
 10
131.13756
 20
190.059889
 30
0.0
 11
133.831969
 21
187.365652
 31
0.0
  0
LINE
  5
122
100
AcDbEntity
  8
SCHRAFFUR
 62
     7
100
AcDbLine
 10
136.526034
 20
184.671587
 30
0.0
 11
139.220443
 21
181.977351
 31
0.0
  0
LINE
  5
121
100
AcDbEntity
  8
SCHRAFFUR
 62
     7
100
AcDbLine
 10
141.914163
 20
179.283458
 30
0.0
 11
144.608228
 21
176.589393
 31
0.0
  0
LINE
  5
120
100
AcDbEntity
  8
SCHRAFFUR
 62
     7
100
AcDbLine
 10
147.302637
 20
173.895157
 30
0.0
 11
148.751644
 21
172.446149
 31
0.0
  0
LINE
  5
11F
100
AcDbEntity
  8
SCHRAFFUR
 62
     7
100
AcDbLine
 10
125.749775
 20
190.059889
 30
0.0
 11
128.44384
 21
187.365652
 31
0.0
  0
LINE
  5
11E
100
AcDbEntity
  8
SCHRAFFUR
 62
     7
100
AcDbLine
 10
131.13756
 20
184.671587
 30
0.0
 11
133.831969
 21
181.977351
 31
0.0
  0
LINE
  5
11D
100
AcDbEntity
  8
SCHRAFFUR
 62
     7
100
AcDbLine
 10
136.526034
 20
179.283458
 30
0.0
 11
139.220443
 21
176.589393
 31
0.0
  0
LINE
  5
11C
100
AcDbEntity
  8
SCHRAFFUR
 62
     7
100
AcDbLine
 10
141.914163
 20
173.895157
 30
0.0
 11
143.36317
 21
172.446149
 31
0.0
  0
LINE
  5
11B
100
AcDbEntity
  8
SCHRAFFUR
 62
     7
100
AcDbLine
 10
125.749775
 20
184.671587
 30
0.0
 11
128.44384
 21
181.977351
 31
0.0
  0
LINE
  5
11A
100
AcDbEntity
  8
SCHRAFFUR
 62
     7
100
AcDbLine
 10
131.13756
 20
179.283458
 30
0.0
 11
133.831969
 21
176.589393
 31
0.0
  0
LINE
  5
119
100
AcDbEntity
  8
SCHRAFFUR
 62
     7
100
AcDbLine
 10
136.526034
 20
173.895157
 30
0.0
 11
137.975041
 21
172.446149
 31
0.0
  0
LINE
  5
118
100
AcDbEntity
  8
SCHRAFFUR
 62
     7
100
AcDbLine
 10
138.071503
 20
172.349859
 30
0.0
 11
138.340221
 21
172.080797
 31
0.0
  0
LINE
  5
117
100
AcDbEntity
  8
SCHRAFFUR
 62
     7
100
AcDbLine
 10
125.749775
 20
179.283458
 30
0.0
 11
128.44384
 21
176.589393
 31
0.0
  0
LINE
  5
116
100
AcDbEntity
  8
SCHRAFFUR
 62
     7
100
AcDbLine
 10
131.13756
 20
173.895157
 30
0.0
 11
133.170511
 21
171.862206
 31
0.0
  0
LINE
  5
115
100
AcDbEntity
  8
SCHRAFFUR
 62
     7
100
AcDbLine
 10
125.749775
 20
173.895157
 30
0.0
 11
127.666626
 21
171.978478
 31
0.0
  0
LINE
  5
114
100
AcDbEntity
  8
SCHRAFFUR
 62
     7
100
AcDbLine
 10
147.302637
 20
120.013346
 30
0.0
 11
149.996357
 21
117.319626
 31
0.0
  0
LINE
  5
113
100
AcDbEntity
  8
SCHRAFFUR
 62
     7
100
AcDbLine
 10
141.914163
 20
120.013346
 30
0.0
 11
144.608228
 21
117.319626
 31
0.0
  0
LINE
  5
112
100
AcDbEntity
  8
SCHRAFFUR
 62
     7
100
AcDbLine
 10
147.302637
 20
114.625562
 30
0.0
 11
149.996357
 21
111.931152
 31
0.0
  0
LINE
  5
111
100
AcDbEntity
  8
SCHRAFFUR
 62
     7
100
AcDbLine
 10
136.526034
 20
120.013346
 30
0.0
 11
139.220443
 21
117.319626
 31
0.0
  0
LINE
  5
110
100
AcDbEntity
  8
SCHRAFFUR
 62
     7
100
AcDbLine
 10
141.914163
 20
114.625562
 30
0.0
 11
144.608228
 21
111.931152
 31
0.0
  0
LINE
  5
10F
100
AcDbEntity
  8
SCHRAFFUR
 62
     7
100
AcDbLine
 10
147.302637
 20
109.237432
 30
0.0
 11
149.996357
 21
106.543368
 31
0.0
  0
LINE
  5
10E
100
AcDbEntity
  8
SCHRAFFUR
 62
     7
100
AcDbLine
 10
131.13756
 20
120.013346
 30
0.0
 11
133.831969
 21
117.319626
 31
0.0
  0
LINE
  5
10D
100
AcDbEntity
  8
SCHRAFFUR
 62
     7
100
AcDbLine
 10
136.526034
 20
114.625562
 30
0.0
 11
139.220443
 21
111.931152
 31
0.0
  0
LINE
  5
10C
100
AcDbEntity
  8
SCHRAFFUR
 62
     7
100
AcDbLine
 10
141.914163
 20
109.237432
 30
0.0
 11
144.608228
 21
106.543368
 31
0.0
  0
LINE
  5
10B
100
AcDbEntity
  8
SCHRAFFUR
 62
     7
100
AcDbLine
 10
147.302637
 20
103.848958
 30
0.0
 11
149.996357
 21
101.155238
 31
0.0
  0
LINE
  5
10A
100
AcDbEntity
  8
SCHRAFFUR
 62
     7
100
AcDbLine
 10
125.749775
 20
120.013346
 30
0.0
 11
128.44384
 21
117.319626
 31
0.0
  0
LINE
  5
109
100
AcDbEntity
  8
SCHRAFFUR
 62
     7
100
AcDbLine
 10
131.13756
 20
114.625562
 30
0.0
 11
133.831969
 21
111.931152
 31
0.0
  0
LINE
  5
108
100
AcDbEntity
  8
SCHRAFFUR
 62
     7
100
AcDbLine
 10
136.526034
 20
109.237432
 30
0.0
 11
139.220443
 21
106.543368
 31
0.0
  0
LINE
  5
107
100
AcDbEntity
  8
SCHRAFFUR
 62
     7
100
AcDbLine
 10
141.914163
 20
103.848958
 30
0.0
 11
144.608228
 21
101.155238
 31
0.0
  0
LINE
  5
106
100
AcDbEntity
  8
SCHRAFFUR
 62
     7
100
AcDbLine
 10
147.302637
 20
98.461174
 30
0.0
 11
149.996357
 21
95.766764
 31
0.0
  0
LINE
  5
105
100
AcDbEntity
  8
SCHRAFFUR
 62
     7
100
AcDbLine
 10
125.749775
 20
114.625562
 30
0.0
 11
128.44384
 21
111.931152
 31
0.0
  0
LINE
  5
104
100
AcDbEntity
  8
SCHRAFFUR
 62
     7
100
AcDbLine
 10
131.13756
 20
109.237432
 30
0.0
 11
133.831969
 21
106.543368
 31
0.0
  0
LINE
  5
103
100
AcDbEntity
  8
SCHRAFFUR
 62
     7
100
AcDbLine
 10
136.526034
 20
103.848958
 30
0.0
 11
139.220443
 21
101.155238
 31
0.0
  0
LINE
  5
102
100
AcDbEntity
  8
SCHRAFFUR
 62
     7
100
AcDbLine
 10
141.914163
 20
98.461174
 30
0.0
 11
144.608228
 21
95.766764
 31
0.0
  0
LINE
  5
101
100
AcDbEntity
  8
SCHRAFFUR
 62
     7
100
AcDbLine
 10
147.302637
 20
93.073044
 30
0.0
 11
149.606717
 21
90.76862
 31
0.0
  0
LINE
  5
100
100
AcDbEntity
  8
SCHRAFFUR
 62
     7
100
AcDbLine
 10
125.749775
 20
109.237432
 30
0.0
 11
128.44384
 21
106.543368
 31
0.0
  0
LINE
  5
FF
100
AcDbEntity
  8
SCHRAFFUR
 62
     7
100
AcDbLine
 10
131.13756
 20
103.848958
 30
0.0
 11
133.831969
 21
101.155238
 31
0.0
  0
LINE
  5
FE
100
AcDbEntity
  8
SCHRAFFUR
 62
     7
100
AcDbLine
 10
136.526034
 20
98.461174
 30
0.0
 11
139.220443
 21
95.766764
 31
0.0
  0
LINE
  5
FD
100
AcDbEntity
  8
SCHRAFFUR
 62
     7
100
AcDbLine
 10
141.914163
 20
93.073044
 30
0.0
 11
144.218587
 21
90.76862
 31
0.0
  0
LINE
  5
FC
100
AcDbEntity
  8
SCHRAFFUR
 62
     7
100
AcDbLine
 10
125.749775
 20
103.848958
 30
0.0
 11
128.44384
 21
101.155238
 31
0.0
  0
LINE
  5
FB
100
AcDbEntity
  8
SCHRAFFUR
 62
     7
100
AcDbLine
 10
131.13756
 20
98.461174
 30
0.0
 11
133.831969
 21
95.766764
 31
0.0
  0
LINE
  5
FA
100
AcDbEntity
  8
SCHRAFFUR
 62
     7
100
AcDbLine
 10
136.526034
 20
93.073044
 30
0.0
 11
138.830113
 21
90.76862
 31
0.0
  0
LINE
  5
F9
100
AcDbEntity
  8
SCHRAFFUR
 62
     7
100
AcDbLine
 10
125.749775
 20
98.461174
 30
0.0
 11
128.44384
 21
95.766764
 31
0.0
  0
LINE
  5
F8
100
AcDbEntity
  8
SCHRAFFUR
 62
     7
100
AcDbLine
 10
131.13756
 20
93.073044
 30
0.0
 11
133.442329
 21
90.76862
 31
0.0
  0
LINE
  5
F7
100
AcDbEntity
  8
SCHRAFFUR
 62
     7
100
AcDbLine
 10
125.749775
 20
93.073044
 30
0.0
 11
128.054199
 21
90.76862
 31
0.0
  0
LINE
  5
F6
100
AcDbEntity
  8
SCHRAFFUR
 62
     7
100
AcDbLine
 10
107.255813
 20
198.506574
 30
0.0
 11
110.55587
 21
201.806976
 31
0.0
  0
LINE
  5
F5
100
AcDbEntity
  8
SCHRAFFUR
 62
     7
100
AcDbLine
 10
107.255813
 20
187.730315
 30
0.0
 11
116.070435
 21
196.544937
 31
0.0
  0
LINE
  5
F4
100
AcDbEntity
  8
SCHRAFFUR
 62
     7
100
AcDbLine
 10
107.255813
 20
176.953885
 30
0.0
 11
116.070435
 21
185.768678
 31
0.0
  0
LINE
  5
F3
100
AcDbEntity
  8
SCHRAFFUR
 62
     7
100
AcDbLine
 10
113.524164
 20
172.446149
 30
0.0
 11
116.070435
 21
174.992592
 31
0.0
  0
LINE
  5
F2
100
AcDbEntity
  8
SCHRAFFUR
 62
     7
100
AcDbLine
 10
151.329609
 20
199.475335
 30
0.0
 11
153.661249
 21
201.806976
 31
0.0
  0
LINE
  5
F1
100
AcDbEntity
  8
SCHRAFFUR
 62
     7
100
AcDbLine
 10
151.329609
 20
188.698904
 30
0.0
 11
160.144575
 21
197.513698
 31
0.0
  0
LINE
  5
F0
100
AcDbEntity
  8
SCHRAFFUR
 62
     7
100
AcDbLine
 10
151.329609
 20
177.922645
 30
0.0
 11
160.144575
 21
186.737267
 31
0.0
  0
LINE
  5
EF
100
AcDbEntity
  8
SCHRAFFUR
 62
     7
100
AcDbLine
 10
156.121048
 20
171.937998
 30
0.0
 11
160.144575
 21
175.961008
 31
0.0
  0
LINE
  5
EE
100
AcDbEntity
  8
SCHRAFFUR
 62
     7
100
AcDbLine
 10
107.255813
 20
112.295988
 30
0.0
 11
115.450317
 21
120.490837
 31
0.0
  0
LINE
  5
ED
100
AcDbEntity
  8
SCHRAFFUR
 62
     7
100
AcDbLine
 10
107.255813
 20
101.519385
 30
0.0
 11
116.070435
 21
110.334351
 31
0.0
  0
LINE
  5
EC
100
AcDbEntity
  8
SCHRAFFUR
 62
     7
100
AcDbLine
 10
107.280618
 20
90.76862
 30
0.0
 11
116.070435
 21
99.558436
 31
0.0
  0
LINE
  5
EB
100
AcDbEntity
  8
SCHRAFFUR
 62
     7
100
AcDbLine
 10
151.329609
 20
113.265093
 30
0.0
 11
158.555697
 21
120.490837
 31
0.0
  0
LINE
  5
EA
100
AcDbEntity
  8
SCHRAFFUR
 62
     7
100
AcDbLine
 10
151.329609
 20
102.48849
 30
0.0
 11
160.144575
 21
111.303456
 31
0.0
  0
LINE
  5
E9
100
AcDbEntity
  8
SCHRAFFUR
 62
     7
100
AcDbLine
 10
151.329609
 20
91.712231
 30
0.0
 11
160.144575
 21
100.526853
 31
0.0
  0
LINE
  5
E8
100
AcDbEntity
  8
SCHRAFFUR
 62
     7
100
AcDbLine
 10
108.238354
 20
194.100986
 30
0.0
 11
110.932075
 21
196.794878
 31
0.0
  0
LINE
  5
E7
100
AcDbEntity
  8
SCHRAFFUR
 62
     7
100
AcDbLine
 10
112.279451
 20
198.142083
 30
0.0
 11
114.973172
 21
200.835975
 31
0.0
  0
LINE
  5
E6
100
AcDbEntity
  8
SCHRAFFUR
 62
     7
100
AcDbLine
 10
107.255813
 20
182.342014
 30
0.0
 11
108.238354
 21
183.324555
 31
0.0
  0
LINE
  5
E5
100
AcDbEntity
  8
SCHRAFFUR
 62
     7
100
AcDbLine
 10
109.585387
 20
184.671587
 30
0.0
 11
112.279451
 21
187.365652
 31
0.0
  0
LINE
  5
E4
100
AcDbEntity
  8
SCHRAFFUR
 62
     7
100
AcDbLine
 10
113.626484
 20
188.712684
 30
0.0
 11
116.070435
 21
191.15698
 31
0.0
  0
LINE
  5
E3
100
AcDbEntity
  8
SCHRAFFUR
 62
     7
100
AcDbLine
 10
108.13638
 20
172.446149
 30
0.0
 11
109.585387
 21
173.895157
 31
0.0
  0
LINE
  5
E2
100
AcDbEntity
  8
SCHRAFFUR
 62
     7
100
AcDbLine
 10
110.932075
 20
175.242189
 30
0.0
 11
113.626484
 21
177.936254
 31
0.0
  0
LINE
  5
E1
100
AcDbEntity
  8
SCHRAFFUR
 62
     7
100
AcDbLine
 10
114.973172
 20
179.283458
 30
0.0
 11
116.070435
 21
180.380549
 31
0.0
  0
LINE
  5
E0
100
AcDbEntity
  8
SCHRAFFUR
 62
     7
100
AcDbLine
 10
151.329609
 20
194.087206
 30
0.0
 11
152.690422
 21
195.447846
 31
0.0
  0
LINE
  5
DF
100
AcDbEntity
  8
SCHRAFFUR
 62
     7
100
AcDbLine
 10
154.037454
 20
196.794878
 30
0.0
 11
156.731519
 21
199.488943
 31
0.0
  0
LINE
  5
DE
100
AcDbEntity
  8
SCHRAFFUR
 62
     7
100
AcDbLine
 10
158.078551
 20
200.835975
 30
0.0
 11
159.049723
 21
201.806976
 31
0.0
  0
LINE
  5
DD
100
AcDbEntity
  8
SCHRAFFUR
 62
     7
100
AcDbLine
 10
151.343734
 20
183.324555
 30
0.0
 11
154.037454
 21
186.018448
 31
0.0
  0
LINE
  5
DC
100
AcDbEntity
  8
SCHRAFFUR
 62
     7
100
AcDbLine
 10
155.384831
 20
187.365652
 30
0.0
 11
158.078551
 21
190.059889
 31
0.0
  0
LINE
  5
DB
100
AcDbEntity
  8
SCHRAFFUR
 62
     7
100
AcDbLine
 10
159.425928
 20
191.406749
 30
0.0
 11
160.144575
 21
192.125568
 31
0.0
  0
LINE
  5
DA
100
AcDbEntity
  8
SCHRAFFUR
 62
     7
100
AcDbLine
 10
150.657815
 20
171.862722
 30
0.0
 11
151.343734
 21
172.548296
 31
0.0
  0
LINE
  5
D9
100
AcDbEntity
  8
SCHRAFFUR
 62
     7
100
AcDbLine
 10
152.690422
 20
173.895157
 30
0.0
 11
155.384831
 21
176.589393
 31
0.0
  0
LINE
  5
D8
100
AcDbEntity
  8
SCHRAFFUR
 62
     7
100
AcDbLine
 10
156.731519
 20
177.936254
 30
0.0
 11
159.425928
 21
180.63049
 31
0.0
  0
LINE
  5
D7
100
AcDbEntity
  8
SCHRAFFUR
 62
     7
100
AcDbLine
 10
107.255813
 20
117.684462
 30
0.0
 11
108.238354
 21
118.666659
 31
0.0
  0
LINE
  5
D6
100
AcDbEntity
  8
SCHRAFFUR
 62
     7
100
AcDbLine
 10
109.585387
 20
120.013346
 30
0.0
 11
110.062533
 21
120.490837
 31
0.0
  0
LINE
  5
D5
100
AcDbEntity
  8
SCHRAFFUR
 62
     7
100
AcDbLine
 10
107.255813
 20
106.907859
 30
0.0
 11
109.585387
 21
109.237432
 31
0.0
  0
LINE
  5
D4
100
AcDbEntity
  8
SCHRAFFUR
 62
     7
100
AcDbLine
 10
110.932075
 20
110.584465
 30
0.0
 11
113.626484
 21
113.278529
 31
0.0
  0
LINE
  5
D3
100
AcDbEntity
  8
SCHRAFFUR
 62
     7
100
AcDbLine
 10
114.973172
 20
114.625562
 30
0.0
 11
116.070435
 21
115.722824
 31
0.0
  0
LINE
  5
D2
100
AcDbEntity
  8
SCHRAFFUR
 62
     7
100
AcDbLine
 10
108.238354
 20
97.114141
 30
0.0
 11
110.932075
 21
99.807861
 31
0.0
  0
LINE
  5
D1
100
AcDbEntity
  8
SCHRAFFUR
 62
     7
100
AcDbLine
 10
112.279451
 20
101.155238
 30
0.0
 11
114.973172
 21
103.848958
 31
0.0
  0
LINE
  5
D0
100
AcDbEntity
  8
SCHRAFFUR
 62
     7
100
AcDbLine
 10
113.626484
 20
91.725667
 30
0.0
 11
116.070435
 21
94.169963
 31
0.0
  0
LINE
  5
CF
100
AcDbEntity
  8
SCHRAFFUR
 62
     7
100
AcDbLine
 10
151.343734
 20
118.666659
 30
0.0
 11
153.167223
 21
120.490837
 31
0.0
  0
LINE
  5
CE
100
AcDbEntity
  8
SCHRAFFUR
 62
     7
100
AcDbLine
 10
151.329609
 20
107.876619
 30
0.0
 11
151.343734
 21
107.890055
 31
0.0
  0
LINE
  5
CD
100
AcDbEntity
  8
SCHRAFFUR
 62
     7
100
AcDbLine
 10
152.690422
 20
109.237432
 30
0.0
 11
155.384831
 21
111.931152
 31
0.0
  0
LINE
  5
CC
100
AcDbEntity
  8
SCHRAFFUR
 62
     7
100
AcDbLine
 10
156.731519
 20
113.278529
 30
0.0
 11
159.425928
 21
115.972249
 31
0.0
  0
LINE
  5
CB
100
AcDbEntity
  8
SCHRAFFUR
 62
     7
100
AcDbLine
 10
151.329609
 20
97.100705
 30
0.0
 11
152.690422
 21
98.461174
 31
0.0
  0
LINE
  5
CA
100
AcDbEntity
  8
SCHRAFFUR
 62
     7
100
AcDbLine
 10
154.037454
 20
99.807861
 30
0.0
 11
156.731519
 21
102.502271
 31
0.0
  0
LINE
  5
C9
100
AcDbEntity
  8
SCHRAFFUR
 62
     7
100
AcDbLine
 10
158.078551
 20
103.848958
 30
0.0
 11
160.144575
 21
105.914982
 31
0.0
  0
LINE
  5
C8
100
AcDbEntity
  8
SCHRAFFUR
 62
     7
100
AcDbLine
 10
155.774471
 20
90.76862
 30
0.0
 11
158.078551
 21
93.073044
 31
0.0
  0
LINE
  5
C7
100
AcDbEntity
  8
SCHRAFFUR
 62
     7
100
AcDbLine
 10
159.425928
 20
94.420076
 30
0.0
 11
160.144575
 21
95.139068
 31
0.0
  0
LINE
  5
C5
100
AcDbEntity
  8
MITTELLINIE
  6
AI9-LType2
 62
     7
100
AcDbLine
 10
106.378347
 20
163.614647
 30
0.0
 11
118.46512
 21
163.614647
 31
0.0
  0
LINE
  5
C3
100
AcDbEntity
  8
MITTELLINIE
 62
     7
100
AcDbLine
 10
106.212638
 20
129.322339
 30
0.0
 11
118.46512
 21
129.322339
 31
0.0
  0
LINE
  5
C2
100
AcDbEntity
  8
MITTELLINIE
  6
AI9-LType1
 62
     7
100
AcDbLine
 10
91.262991
 20
146.421037
 30
0.0
 11
173.373741
 21
146.421037
 31
0.0
  0
LINE
  5
BF
100
AcDbEntity
  8
OBJEKT
 62
     7
100
AcDbLine
 10
160.144575
 20
168.505305
 30
0.0
 11
107.255813
 21
168.505305
 31
0.0
  0
LINE
  5
BE
100
AcDbEntity
  8
OBJEKT
 62
     7
100
AcDbLine
 10
160.144575
 20
124.431337
 30
0.0
 11
107.255813
 21
124.431337
 31
0.0
  0
LINE
  5
BD
100
AcDbEntity
  8
OBJEKT
 62
     7
100
AcDbLine
 10
127.163298
 20
120.490837
 30
0.0
 11
124.8854
 21
120.490837
 31
0.0
  0
LINE
  5
BC
100
AcDbEntity
  8
OBJEKT
 62
     7
100
AcDbLine
 10
149.685265
 20
120.490837
 30
0.0
 11
145.869477
 21
120.490837
 31
0.0
  0
LINE
  5
BB
100
AcDbEntity
  8
OBJEKT
 62
     7
100
AcDbLine
 10
112.772789
 20
120.490837
 30
0.0
 11
116.588577
 21
120.490837
 31
0.0
  0
LINE
  5
BA
100
AcDbEntity
  8
OBJEKT
 62
     7
100
AcDbLine
 10
107.255813
 20
120.490837
 30
0.0
 11
110.750174
 21
120.490837
 31
0.0
  0
SPLINE
  5
B9
100
AcDbEntity
  8
OBJEKT
 62
     7
100
AcDbSpline
210
0.0
220
0.0
230
1.0
 70
     8
 71
     3
 72
    11
 73
     7
 74
     0
 42
0.00000001
 43
0.00000001
 40
0.0
 40
0.0
 40
0.0
 40
0.0
 40
1.0
 40
1.0
 40
1.0
 40
2.0
 40
2.0
 40
2.0
 40
2.0
 10
112.77278917100693
 20
120.49083658854165
 30
0.0
 10
112.45032823350694
 20
121.04894205729165
 30
0.0
 10
111.7361599392361
 20
121.24014485677083
 30
0.0
 10
111.17770996093749
 20
120.91837293836805
 30
0.0
 10
111.00028754340276
 20
120.81536458333332
 30
0.0
 10
110.8524929470486
 20
120.66825900607638
 30
0.0
 10
110.75017361111109
 20
120.49083658854165
 30
0.0
  0
SPLINE
  5
B8
100
AcDbEntity
  8
OBJEKT
 62
     7
100
AcDbSpline
210
0.0
220
0.0
230
1.0
 70
     8
 71
     3
 72
    11
 73
     7
 74
     0
 42
0.00000001
 43
0.00000001
 40
0.0
 40
0.0
 40
0.0
 40
0.0
 40
1.0
 40
1.0
 40
1.0
 40
2.0
 40
2.0
 40
2.0
 40
2.0
 10
118.61084798177082
 20
120.49083658854165
 30
0.0
 10
118.28838704427082
 20
121.04894205729165
 30
0.0
 10
117.57421874999999
 20
121.24014485677083
 30
0.0
 10
117.01611328124999
 20
120.91837293836805
 30
0.0
 10
116.83834635416666
 20
120.81536458333332
 30
0.0
 10
116.6908962673611
 20
120.66825900607638
 30
0.0
 10
116.5885769314236
 20
120.49083658854165
 30
0.0
  0
LINE
  5
B7
100
AcDbEntity
  8
OBJEKT
 62
     7
100
AcDbLine
 10
138.009492
 20
120.490837
 30
0.0
 11
134.193704
 21
120.490837
 31
0.0
  0
LINE
  5
B6
100
AcDbEntity
  8
OBJEKT
 62
     7
100
AcDbLine
 10
132.171088
 20
120.490837
 30
0.0
 11
129.185224
 21
120.490837
 31
0.0
  0
SPLINE
  5
B5
100
AcDbEntity
  8
OBJEKT
 62
     7
100
AcDbSpline
210
0.0
220
0.0
230
1.0
 70
     8
 71
     3
 72
    11
 73
     7
 74
     0
 42
0.00000001
 43
0.00000001
 40
0.0
 40
0.0
 40
0.0
 40
0.0
 40
1.0
 40
1.0
 40
1.0
 40
2.0
 40
2.0
 40
2.0
 40
2.0
 10
129.18522406684028
 20
120.49083658854165
 30
0.0
 10
128.86345214843749
 20
121.04894205729165
 30
0.0
 10
128.14928385416667
 20
121.24014485677083
 30
0.0
 10
127.59048936631943
 20
120.91837293836805
 30
0.0
 10
127.41272243923611
 20
120.81536458333332
 30
0.0
 10
127.26561686197915
 20
120.66825900607638
 30
0.0
 10
127.16329752604166
 20
120.49083658854165
 30
0.0
  0
SPLINE
  5
B4
100
AcDbEntity
  8
OBJEKT
 62
     7
100
AcDbSpline
210
0.0
220
0.0
230
1.0
 70
     8
 71
     3
 72
    11
 73
     7
 74
     0
 42
0.00000001
 43
0.00000001
 40
0.0
 40
0.0
 40
0.0
 40
0.0
 40
1.0
 40
1.0
 40
1.0
 40
2.0
 40
2.0
 40
2.0
 40
2.0
 10
134.1937038845486
 20
120.49083658854165
 30
0.0
 10
133.87124294704859
 20
121.04894205729165
 30
0.0
 10
133.15707465277777
 20
121.24014485677083
 30
0.0
 10
132.59862467447917
 20
120.91837293836805
 30
0.0
 10
132.42085774739581
 20
120.81536458333332
 30
0.0
 10
132.27340766059027
 20
120.66825900607638
 30
0.0
 10
132.17108832465277
 20
120.49083658854165
 30
0.0
  0
LINE
  5
B3
100
AcDbEntity
  8
OBJEKT
 62
     7
100
AcDbLine
 10
143.84755
 20
120.490837
 30
0.0
 11
140.031763
 21
120.490837
 31
0.0
  0
SPLINE
  5
B2
100
AcDbEntity
  8
OBJEKT
 62
     7
100
AcDbSpline
210
0.0
220
0.0
230
1.0
 70
     8
 71
     3
 72
    11
 73
     7
 74
     0
 42
0.00000001
 43
0.00000001
 40
0.0
 40
0.0
 40
0.0
 40
0.0
 40
1.0
 40
1.0
 40
1.0
 40
2.0
 40
2.0
 40
2.0
 40
2.0
 10
140.03176269531249
 20
120.49083658854165
 30
0.0
 10
139.70930175781248
 20
121.04894205729165
 30
0.0
 10
138.99513346354166
 20
121.24014485677083
 30
0.0
 10
138.43633897569444
 20
120.91837293836805
 30
0.0
 10
138.25926106770831
 20
120.81536458333332
 30
0.0
 10
138.11181098090276
 20
120.66825900607638
 30
0.0
 10
138.00949164496527
 20
120.49083658854165
 30
0.0
  0
SPLINE
  5
B1
100
AcDbEntity
  8
OBJEKT
 62
     7
100
AcDbSpline
210
0.0
220
0.0
230
1.0
 70
     8
 71
     3
 72
    11
 73
     7
 74
     0
 42
0.00000001
 43
0.00000001
 40
0.0
 40
0.0
 40
0.0
 40
0.0
 40
1.0
 40
1.0
 40
1.0
 40
2.0
 40
2.0
 40
2.0
 40
2.0
 10
145.86947699652777
 20
120.49083658854165
 30
0.0
 10
145.54701605902775
 20
121.04894205729165
 30
0.0
 10
144.83353678385416
 20
121.24014485677083
 30
0.0
 10
144.27474229600693
 20
120.91837293836805
 30
0.0
 10
144.09697536892361
 20
120.81536458333332
 30
0.0
 10
143.94986979166666
 20
120.66825900607638
 30
0.0
 10
143.84755045572916
 20
120.49083658854165
 30
0.0
  0
SPLINE
  5
B0
100
AcDbEntity
  8
OBJEKT
 62
     7
100
AcDbSpline
210
0.0
220
0.0
230
1.0
 70
     8
 71
     3
 72
    11
 73
     7
 74
     0
 42
0.00000001
 43
0.00000001
 40
0.0
 40
0.0
 40
0.0
 40
0.0
 40
1.0
 40
1.0
 40
1.0
 40
2.0
 40
2.0
 40
2.0
 40
2.0
 10
151.32960883246525
 20
120.88840060763887
 30
0.0
 10
149.52679036458332
 20
121.21740722656249
 30
0.0
 10
151.96075032552082
 20
121.15815158420138
 30
0.0
 10
150.11280110677083
 20
120.91837293836805
 30
0.0
 10
149.42481553819442
 20
120.32409396701388
 30
0.0
 10
150.27954372829859
 20
121.17882215711805
 30
0.0
 10
149.68526475694443
 20
120.49083658854165
 30
0.0
  0
LINE
  5
AF
100
AcDbEntity
  8
OBJEKT
 62
     7
100
AcDbLine
 10
127.163298
 20
172.446149
 30
0.0
 11
123.618639
 21
172.446149
 31
0.0
  0
LINE
  5
AE
100
AcDbEntity
  8
OBJEKT
 62
     7
100
AcDbLine
 10
149.685265
 20
172.446149
 30
0.0
 11
145.869477
 21
172.446149
 31
0.0
  0
LINE
  5
AD
100
AcDbEntity
  8
OBJEKT
 62
     7
100
AcDbLine
 10
112.772789
 20
172.446149
 30
0.0
 11
116.588577
 21
172.446149
 31
0.0
  0
LINE
  5
AC
100
AcDbEntity
  8
OBJEKT
 62
     7
100
AcDbLine
 10
107.255813
 20
172.446149
 30
0.0
 11
110.750174
 21
172.446149
 31
0.0
  0
SPLINE
  5
AB
100
AcDbEntity
  8
OBJEKT
 62
     7
100
AcDbSpline
210
0.0
220
0.0
230
1.0
 70
     8
 71
     3
 72
    11
 73
     7
 74
     0
 42
0.00000001
 43
0.00000001
 40
0.0
 40
0.0
 40
0.0
 40
0.0
 40
1.0
 40
1.0
 40
1.0
 40
2.0
 40
2.0
 40
2.0
 40
2.0
 10
112.77278917100693
 20
172.446149359809
 30
0.0
 10
112.45032823350694
 20
171.8878716362847
 30
0.0
 10
111.7361599392361
 20
171.69632432725692
 30
0.0
 10
111.17770996093749
 20
172.01878526475693
 30
0.0
 10
111.00028754340276
 20
172.12144911024305
 30
0.0
 10
110.8524929470486
 20
172.2687269422743
 30
0.0
 10
110.75017361111109
 20
172.446149359809
 30
0.0
  0
LINE
  5
AA
100
AcDbEntity
  8
OBJEKT
 62
     7
100
AcDbLine
 10
121.596712
 20
172.446149
 30
0.0
 11
118.610848
 21
172.446149
 31
0.0
  0
SPLINE
  5
A9
100
AcDbEntity
  8
OBJEKT
 62
     7
100
AcDbSpline
210
0.0
220
0.0
230
1.0
 70
     8
 71
     3
 72
    11
 73
     7
 74
     0
 42
0.00000001
 43
0.00000001
 40
0.0
 40
0.0
 40
0.0
 40
0.0
 40
1.0
 40
1.0
 40
1.0
 40
2.0
 40
2.0
 40
2.0
 40
2.0
 10
118.61084798177082
 20
172.446149359809
 30
0.0
 10
118.28838704427082
 20
171.8878716362847
 30
0.0
 10
117.57421874999999
 20
171.69632432725692
 30
0.0
 10
117.01611328124999
 20
172.01878526475693
 30
0.0
 10
116.83834635416666
 20
172.12144911024305
 30
0.0
 10
116.6908962673611
 20
172.2687269422743
 30
0.0
 10
116.5885769314236
 20
172.446149359809
 30
0.0
  0
SPLINE
  5
A8
100
AcDbEntity
  8
OBJEKT
 62
     7
100
AcDbSpline
210
0.0
220
0.0
230
1.0
 70
     8
 71
     3
 72
    11
 73
     7
 74
     0
 42
0.00000001
 43
0.00000001
 40
0.0
 40
0.0
 40
0.0
 40
0.0
 40
1.0
 40
1.0
 40
1.0
 40
2.0
 40
2.0
 40
2.0
 40
2.0
 10
123.61863878038193
 20
172.446149359809
 30
0.0
 10
123.29617784288193
 20
171.8878716362847
 30
0.0
 10
122.5820095486111
 20
171.69632432725692
 30
0.0
 10
122.0239040798611
 20
172.01878526475693
 30
0.0
 10
121.84613715277777
 20
172.12144911024305
 30
0.0
 10
121.69903157552082
 20
172.2687269422743
 30
0.0
 10
121.59671223958333
 20
172.446149359809
 30
0.0
  0
LINE
  5
A7
100
AcDbEntity
  8
OBJEKT
 62
     7
100
AcDbLine
 10
138.009492
 20
172.446149
 30
0.0
 11
134.193704
 21
172.446149
 31
0.0
  0
LINE
  5
A6
100
AcDbEntity
  8
OBJEKT
 62
     7
100
AcDbLine
 10
132.171088
 20
172.446149
 30
0.0
 11
129.185224
 21
172.446149
 31
0.0
  0
SPLINE
  5
A5
100
AcDbEntity
  8
OBJEKT
 62
     7
100
AcDbSpline
210
0.0
220
0.0
230
1.0
 70
     8
 71
     3
 72
    11
 73
     7
 74
     0
 42
0.00000001
 43
0.00000001
 40
0.0
 40
0.0
 40
0.0
 40
0.0
 40
1.0
 40
1.0
 40
1.0
 40
2.0
 40
2.0
 40
2.0
 40
2.0
 10
129.18522406684028
 20
172.446149359809
 30
0.0
 10
128.86345214843749
 20
171.8878716362847
 30
0.0
 10
128.14928385416667
 20
171.69632432725692
 30
0.0
 10
127.59048936631943
 20
172.01878526475693
 30
0.0
 10
127.41272243923611
 20
172.12144911024305
 30
0.0
 10
127.26561686197915
 20
172.2687269422743
 30
0.0
 10
127.16329752604166
 20
172.446149359809
 30
0.0
  0
SPLINE
  5
A4
100
AcDbEntity
  8
OBJEKT
 62
     7
100
AcDbSpline
210
0.0
220
0.0
230
1.0
 70
     8
 71
     3
 72
    11
 73
     7
 74
     0
 42
0.00000001
 43
0.00000001
 40
0.0
 40
0.0
 40
0.0
 40
0.0
 40
1.0
 40
1.0
 40
1.0
 40
2.0
 40
2.0
 40
2.0
 40
2.0
 10
134.1937038845486
 20
172.446149359809
 30
0.0
 10
133.87124294704859
 20
171.8878716362847
 30
0.0
 10
133.15707465277777
 20
171.69632432725692
 30
0.0
 10
132.59862467447917
 20
172.01878526475693
 30
0.0
 10
132.42085774739581
 20
172.12144911024305
 30
0.0
 10
132.27340766059027
 20
172.2687269422743
 30
0.0
 10
132.17108832465277
 20
172.446149359809
 30
0.0
  0
LINE
  5
A3
100
AcDbEntity
  8
OBJEKT
 62
     7
100
AcDbLine
 10
143.84755
 20
172.446149
 30
0.0
 11
140.031763
 21
172.446149
 31
0.0
  0
SPLINE
  5
A2
100
AcDbEntity
  8
OBJEKT
 62
     7
100
AcDbSpline
210
0.0
220
0.0
230
1.0
 70
     8
 71
     3
 72
    11
 73
     7
 74
     0
 42
0.00000001
 43
0.00000001
 40
0.0
 40
0.0
 40
0.0
 40
0.0
 40
1.0
 40
1.0
 40
1.0
 40
2.0
 40
2.0
 40
2.0
 40
2.0
 10
140.03176269531249
 20
172.446149359809
 30
0.0
 10
139.70930175781248
 20
171.8878716362847
 30
0.0
 10
138.99513346354166
 20
171.69632432725692
 30
0.0
 10
138.43633897569444
 20
172.01878526475693
 30
0.0
 10
138.25926106770831
 20
172.12144911024305
 30
0.0
 10
138.11181098090276
 20
172.2687269422743
 30
0.0
 10
138.00949164496527
 20
172.446149359809
 30
0.0
  0
SPLINE
  5
A1
100
AcDbEntity
  8
OBJEKT
 62
     7
100
AcDbSpline
210
0.0
220
0.0
230
1.0
 70
     8
 71
     3
 72
    11
 73
     7
 74
     0
 42
0.00000001
 43
0.00000001
 40
0.0
 40
0.0
 40
0.0
 40
0.0
 40
1.0
 40
1.0
 40
1.0
 40
2.0
 40
2.0
 40
2.0
 40
2.0
 10
145.86947699652777
 20
172.446149359809
 30
0.0
 10
145.54701605902775
 20
171.8878716362847
 30
0.0
 10
144.83353678385416
 20
171.69632432725692
 30
0.0
 10
144.27474229600693
 20
172.01878526475693
 30
0.0
 10
144.09697536892361
 20
172.12144911024305
 30
0.0
 10
143.94986979166666
 20
172.2687269422743
 30
0.0
 10
143.84755045572916
 20
172.446149359809
 30
0.0
  0
SPLINE
  5
A0
100
AcDbEntity
  8
OBJEKT
 62
     7
100
AcDbSpline
210
0.0
220
0.0
230
1.0
 70
     8
 71
     3
 72
    11
 73
     7
 74
     0
 42
0.00000001
 43
0.00000001
 40
0.0
 40
0.0
 40
0.0
 40
0.0
 40
1.0
 40
1.0
 40
1.0
 40
2.0
 40
2.0
 40
2.0
 40
2.0
 10
157.54593912760416
 20
172.446149359809
 30
0.0
 10
157.22347819010415
 20
171.8878716362847
 30
0.0
 10
156.50965440538192
 20
171.69632432725692
 30
0.0
 10
155.95120442708333
 20
172.01878526475693
 30
0.0
 10
155.7734375
 20
172.12144911024305
 30
0.0
 10
155.62598741319442
 20
172.2687269422743
 30
0.0
 10
155.52366807725693
 20
172.446149359809
 30
0.0
  0
SPLINE
  5
9F
100
AcDbEntity
  8
OBJEKT
 62
     7
100
AcDbSpline
210
0.0
220
0.0
230
1.0
 70
     8
 71
     3
 72
    11
 73
     7
 74
     0
 42
0.00000001
 43
0.00000001
 40
0.0
 40
0.0
 40
0.0
 40
0.0
 40
1.0
 40
1.0
 40
1.0
 40
2.0
 40
2.0
 40
2.0
 40
2.0
 10
151.70788031684026
 20
172.446149359809
 30
0.0
 10
151.38541937934028
 20
171.8878716362847
 30
0.0
 10
150.67125108506943
 20
171.69632432725692
 30
0.0
 10
150.11280110677083
 20
172.01878526475693
 30
0.0
 10
149.9353786892361
 20
172.12144911024305
 30
0.0
 10
149.78827311197915
 20
172.2687269422743
 30
0.0
 10
149.68526475694443
 20
172.446149359809
 30
0.0
  0
LINE
  5
9E
100
AcDbEntity
  8
OBJEKT
 62
     7
100
AcDbLine
 10
155.523668
 20
172.446149
 30
0.0
 11
151.70788
 21
172.446149
 31
0.0
  0
LINE
  5
9D
100
AcDbEntity
  8
OBJEKT
 62
     7
100
AcDbLine
 10
160.144575
 20
172.446149
 30
0.0
 11
157.545939
 21
172.446149
 31
0.0
  0
LINE
  5
9B
100
AcDbEntity
  8
AM_8
 62
   253
100
AcDbLine
 10
112.553681
 20
174.915594
 30
0.0
 11
75.204367
 21
177.618271
 31
0.0
  0
LINE
  5
9A
100
AcDbEntity
  8
AM_8
 62
   253
100
AcDbLine
 10
121.372781
 20
189.379483
 30
0.0
 11
83.151169
 21
194.624641
 31
0.0
  0
POLYLINE
  5
94
100
AcDbEntity
  8
AM_8
 62
     7
100
AcDb2dPolyline
 66
     1
 10
0.0
 20
0.0
 30
0.0
 70
     1
  0
VERTEX
  5
95
100
AcDbEntity
  8
AM_8
 62
     7
100
AcDbVertex
100
AcDb2dVertex
 10
24.520639
 20
221.677253
 30
0.0
  0
VERTEX
  5
96
100
AcDbEntity
  8
AM_8
 62
     7
100
AcDbVertex
100
AcDb2dVertex
 10
24.520639
 20
77.417497
 30
0.0
  0
VERTEX
  5
97
100
AcDbEntity
  8
AM_8
 62
     7
100
AcDbVertex
100
AcDb2dVertex
 10
186.188463
 20
77.417497
 30
0.0
  0
VERTEX
  5
98
100
AcDbEntity
  8
AM_8
 62
     7
100
AcDbVertex
100
AcDb2dVertex
 10
186.188463
 20
221.677253
 30
0.0
  0
SEQEND
  5
99
100
AcDbEntity
  8
AM_8
 62
     7
  0
POLYLINE
  5
8E
100
AcDbEntity
  8
AM_8
 62
     7
100
AcDb2dPolyline
 66
     1
 10
0.0
 20
0.0
 30
0.0
 70
     1
  0
VERTEX
  5
8F
100
AcDbEntity
  8
AM_8
 62
     7
100
AcDbVertex
100
AcDb2dVertex
 10
167.027875
 20
94.023201
 30
0.0
  0
VERTEX
  5
90
100
AcDbEntity
  8
AM_8
 62
     7
100
AcDbVertex
100
AcDb2dVertex
 10
186.077875
 20
94.023201
 30
0.0
  0
VERTEX
  5
91
100
AcDbEntity
  8
AM_8
 62
     7
100
AcDbVertex
100
AcDb2dVertex
 10
186.077875
 20
77.265568
 30
0.0
  0
VERTEX
  5
92
100
AcDbEntity
  8
AM_8
 62
     7
100
AcDbVertex
100
AcDb2dVertex
 10
167.027875
 20
77.265568
 30
0.0
  0
SEQEND
  5
93
100
AcDbEntity
  8
AM_8
 62
     7
  0
MTEXT
  5
8D
100
AcDbEntity
  8
AM_8
 62
     7
100
AcDbMText
 10
168.174059
 20
91.5667
 30
0.0
 40
9.449404
 41
0.0
 71
     1
 72
     2
  1
\fMyriad Roman|b0|i0;\H9.4494;\C7;\U+0034\U+002E\U+0036
  7
STD
210
0.0
220
0.0
230
1.0
 73
     1
 44
1.0
  0
LINE
  5
8C
100
AcDbEntity
  8
AM_8
 62
   253
100
AcDbLine
 10
121.361068
 20
124.431337
 30
0.0
 11
75.912679
 21
105.131567
 31
0.0
  0
LINE
  5
8B
100
AcDbEntity
  8
AM_8
 62
   253
100
AcDbLine
 10
110.276817
 20
161.480755
 30
0.0
 11
63.250403
 21
151.528563
 31
0.0
  0
LINE
  5
89
100
AcDbEntity
  8
AM_0
 62
     7
100
AcDbLine
 10
160.144575
 20
201.806976
 30
0.0
 11
160.144575
 21
168.505305
 31
0.0
  0
LINE
  5
88
100
AcDbEntity
  8
AM_0
 62
     7
100
AcDbLine
 10
160.144575
 20
124.431337
 30
0.0
 11
160.144575
 21
90.76862
 31
0.0
  0
LINE
  5
87
100
AcDbEntity
  8
AM_0
 62
     7
100
AcDbLine
 10
107.255813
 20
90.76862
 30
0.0
 11
107.255813
 21
124.431337
 31
0.0
  0
LINE
  5
86
100
AcDbEntity
  8
AM_0
 62
     7
100
AcDbLine
 10
107.255813
 20
168.505305
 30
0.0
 11
107.255813
 21
201.806976
 31
0.0
  0
LINE
  5
85
100
AcDbEntity
  8
AM_0
 62
     7
100
AcDbLine
 10
151.329609
 20
201.806976
 30
0.0
 11
151.329609
 21
172.048758
 31
0.0
  0
LINE
  5
84
100
AcDbEntity
  8
AM_0
 62
     7
100
AcDbLine
 10
151.329609
 20
120.888401
 30
0.0
 11
151.329609
 21
91.259201
 31
0.0
  0
LINE
  5
83
100
AcDbEntity
  8
AM_0
 62
     7
100
AcDbLine
 10
116.070435
 20
90.76862
 30
0.0
 11
116.070435
 21
120.490837
 31
0.0
  0
LINE
  5
82
100
AcDbEntity
  8
AM_0
 62
     7
100
AcDbLine
 10
116.070435
 20
172.446149
 30
0.0
 11
116.070435
 21
201.806976
 31
0.0
  0
LINE
  5
81
100
AcDbEntity
  8
AM_0
 62
     7
100
AcDbLine
 10
124.8854
 20
90.76862
 30
0.0
 11
124.8854
 21
120.490837
 31
0.0
  0
LINE
  5
80
100
AcDbEntity
  8
AM_0
 62
     7
100
AcDbLine
 10
124.8854
 20
172.446149
 30
0.0
 11
124.8854
 21
201.806976
 31
0.0
  0
LINE
  5
7F
100
AcDbEntity
  8
AM_0
 62
     7
100
AcDbLine
 10
160.144575
 20
168.507716
 30
0.0
 11
107.255813
 21
168.507716
 31
0.0
  0
LINE
  5
7E
100
AcDbEntity
  8
AM_0
 62
     7
100
AcDbLine
 10
160.144575
 20
124.433748
 30
0.0
 11
107.255813
 21
124.433748
 31
0.0
  0
LINE
  5
7D
100
AcDbEntity
  8
AM_0
 62
     7
100
AcDbLine
 10
160.144575
 20
168.507716
 30
0.0
 11
160.144575
 21
158.588942
 31
0.0
  0
LINE
  5
7C
100
AcDbEntity
  8
AM_0
 62
     7
100
AcDbLine
 10
160.144575
 20
134.348044
 30
0.0
 11
160.144575
 21
124.433748
 31
0.0
  0
LINE
  5
7B
100
AcDbEntity
  8
AM_0
 62
     7
100
AcDbLine
 10
107.255813
 20
168.507716
 30
0.0
 11
107.255813
 21
158.588942
 31
0.0
  0
LINE
  5
7A
100
AcDbEntity
  8
AM_0
 62
     7
100
AcDbLine
 10
107.255813
 20
134.348044
 30
0.0
 11
107.255813
 21
124.433748
 31
0.0
  0
LINE
  5
79
100
AcDbEntity
  8
AM_0
 62
     7
100
AcDbLine
 10
111.662779
 20
124.433748
 30
0.0
 11
120.477745
 21
124.433748
 31
0.0
  0
LINE
  5
78
100
AcDbEntity
  8
AM_0
 62
     7
100
AcDbLine
 10
167.274544
 20
158.588942
 30
0.0
 11
116.077669
 21
158.588942
 31
0.0
  0
LINE
  5
77
100
AcDbEntity
  8
AM_0
 62
     7
100
AcDbLine
 10
108.144303
 20
158.588942
 30
0.0
 11
101.275644
 21
158.588942
 31
0.0
  0
LINE
  5
76
100
AcDbEntity
  8
AM_0
 62
     7
100
AcDbLine
 10
167.274544
 20
134.348044
 30
0.0
 11
116.077669
 21
134.348044
 31
0.0
  0
LINE
  5
75
100
AcDbEntity
  8
AM_0
 62
     7
100
AcDbLine
 10
108.144303
 20
134.348044
 30
0.0
 11
101.275644
 21
134.348044
 31
0.0
  0
SPLINE
  5
74
100
AcDbEntity
  8
AM_0
 62
     7
100
AcDbSpline
210
0.0
220
0.0
230
1.0
 70
     8
 71
     3
 72
     8
 73
     4
 74
     0
 42
0.00000001
 43
0.00000001
 40
0.0
 40
0.0
 40
0.0
 40
0.0
 40
1.0
 40
1.0
 40
1.0
 40
1.0
 10
167.35033637152776
 20
143.77795952690971
 30
0.0
 10
168.80209960937498
 20
147.96392279730901
 30
0.0
 10
169.42876247829861
 20
152.39138726128471
 30
0.0
 10
169.19621853298611
 20
156.81557888454859
 30
0.0
  0
SPLINE
  5
73
100
AcDbEntity
  8
AM_0
 62
     7
100
AcDbSpline
210
0.0
220
0.0
230
1.0
 70
     8
 71
     3
 72
     8
 73
     4
 74
     0
 42
0.00000001
 43
0.00000001
 40
0.0
 40
0.0
 40
0.0
 40
0.0
 40
1.0
 40
1.0
 40
1.0
 40
1.0
 10
165.81451280381944
 20
150.14776882595484
 30
0.0
 10
166.23481445312498
 20
148.00354139539928
 30
0.0
 10
166.74675564236111
 20
145.87808973524304
 30
0.0
 10
167.35033637152776
 20
143.77795952690971
 30
0.0
  0
SPLINE
  5
72
100
AcDbEntity
  8
AM_0
 62
     7
100
AcDbSpline
210
0.0
220
0.0
230
1.0
 70
     8
 71
     3
 72
     8
 73
     4
 74
     0
 42
0.00000001
 43
0.00000001
 40
0.0
 40
0.0
 40
0.0
 40
0.0
 40
1.0
 40
1.0
 40
1.0
 40
1.0
 10
165.35562608506942
 20
156.85261366102429
 30
0.0
 10
165.23160264756942
 20
154.46567925347222
 30
0.0
 10
165.41419270833333
 20
152.07254367404514
 30
0.0
 10
165.8971950954861
 20
149.73177354600693
 30
0.0
  0
SPLINE
  5
71
100
AcDbEntity
  8
AM_0
 62
     7
100
AcDbSpline
210
0.0
220
0.0
230
1.0
 70
     8
 71
     3
 72
     8
 73
     4
 74
     0
 42
0.00000001
 43
0.00000001
 40
0.0
 40
0.0
 40
0.0
 40
0.0
 40
1.0
 40
1.0
 40
1.0
 40
1.0
 10
167.35033637152776
 20
143.77795952690971
 30
0.0
 10
168.23296983506944
 20
148.01180962456596
 30
0.0
 10
168.4861843532986
 20
152.35280219184025
 30
0.0
 10
168.10067816840277
 20
156.66054958767359
 30
0.0
  0
SPLINE
  5
70
100
AcDbEntity
  8
AM_0
 62
     7
100
AcDbSpline
210
0.0
220
0.0
230
1.0
 70
     8
 71
     3
 72
     8
 73
     4
 74
     0
 42
0.00000001
 43
0.00000001
 40
0.0
 40
0.0
 40
0.0
 40
0.0
 40
1.0
 40
1.0
 40
1.0
 40
1.0
 10
166.44806586371527
 20
156.66054958767359
 30
0.0
 10
166.14696451822914
 20
152.34539523654513
 30
0.0
 10
166.45082194010416
 20
148.00922580295136
 30
0.0
 10
167.35033637152776
 20
143.77795952690971
 30
0.0
  0
SPLINE
  5
6F
100
AcDbEntity
  8
AM_0
 62
     7
100
AcDbSpline
210
0.0
220
0.0
230
1.0
 70
     8
 71
     3
 72
    11
 73
     7
 74
     0
 42
0.00000001
 43
0.00000001
 40
0.0
 40
0.0
 40
0.0
 40
0.0
 40
1.0
 40
1.0
 40
1.0
 40
2.0
 40
2.0
 40
2.0
 40
2.0
 10
168.10067816840277
 20
156.66054958767359
 30
0.0
 10
168.10067816840277
 20
157.11685248480902
 30
0.0
 10
167.73067491319443
 20
157.48685574001735
 30
0.0
 10
167.27454427083333
 20
157.48685574001735
 30
0.0
 10
166.8180691189236
 20
157.48685574001735
 30
0.0
 10
166.44806586371527
 20
157.11685248480902
 30
0.0
 10
166.44806586371527
 20
156.66054958767359
 30
0.0
  0
SPLINE
  5
6E
100
AcDbEntity
  8
AM_0
 62
     7
100
AcDbSpline
210
0.0
220
0.0
230
1.0
 70
     8
 71
     3
 72
    11
 73
     7
 74
     0
 42
0.00000001
 43
0.00000001
 40
0.0
 40
0.0
 40
0.0
 40
0.0
 40
1.0
 40
1.0
 40
1.0
 40
2.0
 40
2.0
 40
2.0
 40
2.0
 10
169.20207519531249
 20
156.701373969184
 30
0.0
 10
169.17968207465276
 20
157.76625298394094
 30
0.0
 10
168.29808213975693
 20
158.6108181423611
 30
0.0
 10
167.23354763454859
 20
158.58842502170137
 30
0.0
 10
166.1824490017361
 20
158.56620415581597
 30
0.0
 10
165.34287923177081
 20
157.70596381293402
 30
0.0
 10
165.34597981770833
 20
156.65469292534721
 30
0.0
  0
SPLINE
  5
6D
100
AcDbEntity
  8
AM_0
 62
     7
100
AcDbSpline
210
0.0
220
0.0
230
1.0
 70
     8
 71
     3
 72
     8
 73
     4
 74
     0
 42
0.00000001
 43
0.00000001
 40
0.0
 40
0.0
 40
0.0
 40
0.0
 40
1.0
 40
1.0
 40
1.0
 40
1.0
 10
167.35033637152776
 20
143.77795952690971
 30
0.0
 10
167.86572265624997
 20
141.45975477430554
 30
0.0
 10
168.45173339843748
 20
139.15739746093749
 30
0.0
 10
169.10733506944442
 20
136.87433268229165
 30
0.0
  0
SPLINE
  5
6C
100
AcDbEntity
  8
AM_0
 62
     7
100
AcDbSpline
210
0.0
220
0.0
230
1.0
 70
     8
 71
     3
 72
     8
 73
     4
 74
     0
 42
0.00000001
 43
0.00000001
 40
0.0
 40
0.0
 40
0.0
 40
0.0
 40
1.0
 40
1.0
 40
1.0
 40
1.0
 10
168.38352050781248
 20
134.69944390190972
 30
0.0
 10
168.9667751736111
 20
135.29992404513888
 30
0.0
 10
169.22584635416666
 20
136.14362792968748
 30
0.0
 10
169.08046332465275
 20
136.96735026041665
 30
0.0
  0
SPLINE
  5
6B
100
AcDbEntity
  8
AM_0
 62
     7
100
AcDbSpline
210
0.0
220
0.0
230
1.0
 70
     8
 71
     3
 72
     8
 73
     4
 74
     0
 42
0.00000001
 43
0.00000001
 40
0.0
 40
0.0
 40
0.0
 40
0.0
 40
1.0
 40
1.0
 40
1.0
 40
1.0
 10
167.27454427083333
 20
134.34804416232637
 30
0.0
 10
167.67141927083333
 20
134.34804416232637
 30
0.0
 10
168.05899251302083
 20
134.47103407118055
 30
0.0
 10
168.38352050781248
 20
134.69944390190972
 30
0.0
  0
SPLINE
  5
6A
100
AcDbEntity
  8
AM_0
 62
     7
100
AcDbSpline
210
0.0
220
0.0
230
1.0
 70
     8
 71
     3
 72
     8
 73
     4
 74
     0
 42
0.00000001
 43
0.00000001
 40
0.0
 40
0.0
 40
0.0
 40
0.0
 40
1.0
 40
1.0
 40
1.0
 40
1.0
 10
101.19967990451389
 20
149.15868191189236
 30
0.0
 10
100.68394911024305
 20
151.47723117404513
 30
0.0
 10
100.09793836805555
 20
153.77958848741318
 30
0.0
 10
99.442508951822902
 20
156.06248101128472
 30
0.0
  0
SPLINE
  5
69
100
AcDbEntity
  8
AM_0
 62
     7
100
AcDbSpline
210
0.0
220
0.0
230
1.0
 70
     8
 71
     3
 72
     8
 73
     4
 74
     0
 42
0.00000001
 43
0.00000001
 40
0.0
 40
0.0
 40
0.0
 40
0.0
 40
1.0
 40
1.0
 40
1.0
 40
1.0
 10
100.16615125868054
 20
158.23754204644095
 30
0.0
 10
99.583068847656236
 20
157.63723415798609
 30
0.0
 10
99.323825412326386
 20
156.79335801866318
 30
0.0
 10
99.469036187065967
 20
155.96911892361109
 30
0.0
  0
SPLINE
  5
68
100
AcDbEntity
  8
AM_0
 62
     7
100
AcDbSpline
210
0.0
220
0.0
230
1.0
 70
     8
 71
     3
 72
     8
 73
     4
 74
     0
 42
0.00000001
 43
0.00000001
 40
0.0
 40
0.0
 40
0.0
 40
0.0
 40
1.0
 40
1.0
 40
1.0
 40
1.0
 10
101.27564425998263
 20
158.58894178602429
 30
0.0
 10
100.87825249565971
 20
158.58894178602429
 30
0.0
 10
100.49102376302082
 20
158.46612413194444
 30
0.0
 10
100.16615125868054
 20
158.23754204644095
 30
0.0
  0
SPLINE
  5
67
100
AcDbEntity
  8
AM_0
 62
     7
100
AcDbSpline
210
0.0
220
0.0
230
1.0
 70
     8
 71
     3
 72
     8
 73
     4
 74
     0
 42
0.00000001
 43
0.00000001
 40
0.0
 40
0.0
 40
0.0
 40
0.0
 40
1.0
 40
1.0
 40
1.0
 40
1.0
 10
101.19967990451389
 20
149.15868191189236
 30
0.0
 10
99.747916666666654
 20
144.97306315104166
 30
0.0
 10
99.121081542968739
 20
140.54542643229166
 30
0.0
 10
99.353625488281239
 20
136.12089029947916
 30
0.0
  0
SPLINE
  5
66
100
AcDbEntity
  8
AM_0
 62
     7
100
AcDbSpline
210
0.0
220
0.0
230
1.0
 70
     8
 71
     3
 72
     8
 73
     4
 74
     0
 42
0.00000001
 43
0.00000001
 40
0.0
 40
0.0
 40
0.0
 40
0.0
 40
1.0
 40
1.0
 40
1.0
 40
1.0
 10
103.1942179361979
 20
136.08437228732637
 30
0.0
 10
103.31789686414929
 20
138.47113444010415
 30
0.0
 10
103.13599582248263
 20
140.86444227430553
 30
0.0
 10
102.65264892578124
 20
143.20469563802081
 30
0.0
  0
SPLINE
  5
65
100
AcDbEntity
  8
AM_0
 62
     7
100
AcDbSpline
210
0.0
220
0.0
230
1.0
 70
     8
 71
     3
 72
     8
 73
     4
 74
     0
 42
0.00000001
 43
0.00000001
 40
0.0
 40
0.0
 40
0.0
 40
0.0
 40
1.0
 40
1.0
 40
1.0
 40
1.0
 10
101.19967990451389
 20
149.15868191189236
 30
0.0
 10
100.3165296766493
 20
144.92517632378471
 30
0.0
 10
100.06365966796874
 20
140.58366699218749
 30
0.0
 10
100.44916585286457
 20
136.27591959635416
 30
0.0
  0
SPLINE
  5
64
100
AcDbEntity
  8
AM_0
 62
     7
100
AcDbSpline
210
0.0
220
0.0
230
1.0
 70
     8
 71
     3
 72
     8
 73
     4
 74
     0
 42
0.00000001
 43
0.00000001
 40
0.0
 40
0.0
 40
0.0
 40
0.0
 40
1.0
 40
1.0
 40
1.0
 40
1.0
 10
102.10195041232637
 20
136.27591959635416
 30
0.0
 10
102.40305175781249
 20
140.59159071180554
 30
0.0
 10
102.0991943359375
 20
144.92758789062498
 30
0.0
 10
101.19967990451389
 20
149.15868191189236
 30
0.0
  0
SPLINE
  5
63
100
AcDbEntity
  8
AM_0
 62
     7
100
AcDbSpline
210
0.0
220
0.0
230
1.0
 70
     8
 71
     3
 72
     8
 73
     4
 74
     0
 42
0.00000001
 43
0.00000001
 40
0.0
 40
0.0
 40
0.0
 40
0.0
 40
1.0
 40
1.0
 40
1.0
 40
1.0
 10
102.73533121744791
 20
142.78921712239583
 30
0.0
 10
102.31537407769096
 20
144.93344455295139
 30
0.0
 10
101.80308837890624
 20
147.05872395833333
 30
0.0
 10
101.19967990451389
 20
149.15868191189236
 30
0.0
  0
SPLINE
  5
62
100
AcDbEntity
  8
AM_0
 62
     7
100
AcDbSpline
210
0.0
220
0.0
230
1.0
 70
     8
 71
     3
 72
    11
 73
     7
 74
     0
 42
0.00000001
 43
0.00000001
 40
0.0
 40
0.0
 40
0.0
 40
0.0
 40
1.0
 40
1.0
 40
1.0
 40
2.0
 40
2.0
 40
2.0
 40
2.0
 10
100.44916585286457
 20
136.27591959635416
 30
0.0
 10
100.44916585286457
 20
135.81978895399305
 30
0.0
 10
100.81916910807291
 20
135.45013020833332
 30
0.0
 10
101.27564425998263
 20
135.45013020833332
 30
0.0
 10
101.73194715711804
 20
135.45013020833332
 30
0.0
 10
102.10195041232637
 20
135.81978895399305
 30
0.0
 10
102.10195041232637
 20
136.27591959635416
 30
0.0
  0
SPLINE
  5
61
100
AcDbEntity
  8
AM_0
 62
     7
100
AcDbSpline
210
0.0
220
0.0
230
1.0
 70
     8
 71
     3
 72
    11
 73
     7
 74
     0
 42
0.00000001
 43
0.00000001
 40
0.0
 40
0.0
 40
0.0
 40
0.0
 40
1.0
 40
1.0
 40
1.0
 40
2.0
 40
2.0
 40
2.0
 40
2.0
 10
99.347941080729157
 20
136.23561197916666
 30
0.0
 10
99.370334201388886
 20
135.17073296440972
 30
0.0
 10
100.2517618815104
 20
134.32634006076387
 30
0.0
 10
101.31629638671875
 20
134.348388671875
 30
0.0
 10
102.36756727430554
 20
134.3707817925347
 30
0.0
 10
103.20713704427082
 20
135.23102213541665
 30
0.0
 10
103.20369194878471
 20
136.28212076822916
 30
0.0
  0
LINE
  5
60
100
AcDbEntity
  8
AM_0
 62
     7
100
AcDbLine
 10
160.144575
 20
168.505305
 30
0.0
 11
107.255813
 21
168.505305
 31
0.0
  0
LINE
  5
5F
100
AcDbEntity
  8
AM_0
 62
     7
100
AcDbLine
 10
160.144575
 20
124.42927
 30
0.0
 11
107.255813
 21
124.42927
 31
0.0
  0
LINE
  5
5E
100
AcDbEntity
  8
AM_0
 62
     7
100
AcDbLine
 10
120.477745
 20
124.42927
 30
0.0
 11
111.662779
 21
124.42927
 31
0.0
  0
LINE
  5
5D
100
AcDbEntity
  8
AM_0
 62
     7
100
AcDbLine
 10
160.144575
 20
124.431337
 30
0.0
 11
107.255813
 21
124.431337
 31
0.0
  0
LINE
  5
5C
100
AcDbEntity
  8
AM_0
 62
     7
100
AcDbLine
 10
114.314814
 20
124.431337
 30
0.0
 11
109.907503
 21
124.431337
 31
0.0
  0
LINE
  5
5B
100
AcDbEntity
  8
AM_0
 62
     7
100
AcDbLine
 10
109.907503
 20
168.505305
 30
0.0
 11
109.907503
 21
124.431337
 31
0.0
  0
LINE
  5
5A
100
AcDbEntity
  8
AM_0
 62
     7
100
AcDbLine
 10
108.144303
 20
124.871965
 30
0.0
 11
108.144303
 21
168.064505
 31
0.0
  0
POLYLINE
  5
54
100
AcDbEntity
  8
AM_0
 62
     7
100
AcDb2dPolyline
 66
     1
 10
0.0
 20
0.0
 30
0.0
 70
     1
  0
VERTEX
  5
55
100
AcDbEntity
  8
AM_0
 62
     7
100
AcDbVertex
100
AcDb2dVertex
 10
116.077669
 20
165.73028
 30
0.0
  0
VERTEX
  5
56
100
AcDbEntity
  8
AM_0
 62
     7
100
AcDbVertex
100
AcDb2dVertex
 10
116.077669
 20
161.499014
 30
0.0
  0
VERTEX
  5
57
100
AcDbEntity
  8
AM_0
 62
     7
100
AcDbVertex
100
AcDb2dVertex
 10
116.518297
 20
161.499014
 30
0.0
  0
VERTEX
  5
58
100
AcDbEntity
  8
AM_0
 62
     7
100
AcDbVertex
100
AcDb2dVertex
 10
116.518297
 20
165.73028
 30
0.0
  0
SEQEND
  5
59
100
AcDbEntity
  8
AM_0
 62
     7
  0
LINE
  5
53
100
AcDbEntity
  8
AM_0
 62
     7
100
AcDbLine
 10
114.314814
 20
124.871965
 30
0.0
 11
114.314814
 21
168.064505
 31
0.0
  0
LINE
  5
52
100
AcDbEntity
  8
AM_0
 62
     7
100
AcDbLine
 10
116.077669
 20
168.064505
 30
0.0
 11
116.077669
 21
124.871965
 31
0.0
  0
LINE
  5
51
100
AcDbEntity
  8
AM_0
 62
     7
100
AcDbLine
 10
114.314814
 20
124.431337
 30
0.0
 11
114.314814
 21
168.505305
 31
0.0
  0
LINE
  5
50
100
AcDbEntity
  8
AM_0
 62
     7
100
AcDbLine
 10
116.077669
 20
124.871965
 30
0.0
 11
114.314814
 21
124.871965
 31
0.0
  0
LINE
  5
4F
100
AcDbEntity
  8
AM_0
 62
     7
100
AcDbLine
 10
114.314814
 20
168.064505
 30
0.0
 11
116.077669
 21
168.064505
 31
0.0
  0
LINE
  5
4E
100
AcDbEntity
  8
AM_0
 62
     7
100
AcDbLine
 10
114.314814
 20
168.505305
 30
0.0
 11
109.907503
 21
168.505305
 31
0.0
  0
LINE
  5
4D
100
AcDbEntity
  8
AM_0
 62
     7
100
AcDbLine
 10
109.907503
 20
124.431337
 30
0.0
 11
114.314814
 21
124.431337
 31
0.0
  0
LINE
  5
4C
100
AcDbEntity
  8
AM_0
 62
     7
100
AcDbLine
 10
109.907503
 20
168.064505
 30
0.0
 11
109.907503
 21
124.871965
 31
0.0
  0
LINE
  5
4B
100
AcDbEntity
  8
AM_0
 62
     7
100
AcDbLine
 10
108.144303
 20
168.064505
 30
0.0
 11
109.907503
 21
168.064505
 31
0.0
  0
LINE
  5
4A
100
AcDbEntity
  8
AM_0
 62
     7
100
AcDbLine
 10
109.907503
 20
124.871965
 30
0.0
 11
108.144303
 21
124.871965
 31
0.0
  0
POLYLINE
  5
44
100
AcDbEntity
  8
AM_0
 62
     7
100
AcDb2dPolyline
 66
     1
 10
0.0
 20
0.0
 30
0.0
 70
     1
  0
VERTEX
  5
45
100
AcDbEntity
  8
AM_0
 62
     7
100
AcDbVertex
100
AcDb2dVertex
 10
116.077669
 20
127.206706
 30
0.0
  0
VERTEX
  5
46
100
AcDbEntity
  8
AM_0
 62
     7
100
AcDbVertex
100
AcDb2dVertex
 10
116.077669
 20
131.437627
 30
0.0
  0
VERTEX
  5
47
100
AcDbEntity
  8
AM_0
 62
     7
100
AcDbVertex
100
AcDb2dVertex
 10
116.518297
 20
131.437627
 30
0.0
  0
VERTEX
  5
48
100
AcDbEntity
  8
AM_0
 62
     7
100
AcDbVertex
100
AcDb2dVertex
 10
116.518297
 20
127.206706
 30
0.0
  0
SEQEND
  5
49
100
AcDbEntity
  8
AM_0
 62
     7
  0
LINE
  5
43
100
AcDbEntity
  8
AM_0
 62
     7
100
AcDbLine
 10
114.314814
 20
124.871965
 30
0.0
 11
116.077669
 21
124.871965
 31
0.0
  0
LINE
  5
42
100
AcDbEntity
  8
AM_0
 62
     7
100
AcDbLine
 10
114.314814
 20
124.431337
 30
0.0
 11
109.907503
 21
124.431337
 31
0.0
  0
LINE
  5
41
100
AcDbEntity
  8
AM_0
 62
     7
100
AcDbLine
 10
108.144303
 20
124.871965
 30
0.0
 11
109.907503
 21
124.871965
 31
0.0
  0
LINE
  5
40
100
AcDbEntity
  8
AM_0
 62
     7
100
AcDbLine
 10
151.329609
 20
120.888401
 30
0.0
 11
151.329609
 21
90.76862
 31
0.0
  0
LINE
  5
3F
100
AcDbEntity
  8
AM_0
 62
     7
100
AcDbLine
 10
115.842369
 20
163.614647
 30
0.0
 11
118.369002
 21
163.614647
 31
0.0
  0
LINE
  5
3E
100
AcDbEntity
  8
AM_0
 62
     7
100
AcDbLine
 10
115.842369
 20
129.322339
 30
0.0
 11
118.369002
 21
129.322339
 31
0.0
  0
INSERT
  5
39
100
AcDbEntity
  8
TEXT
 62
     7
100
AcDbBlockReference
  2
AI9-BLK3
 10
92.6499
 20
195.06234
 30
0.0
  0
INSERT
  5
34
100
AcDbEntity
  8
TEXT
 62
     7
100
AcDbBlockReference
  2
AI9-BLK2
 10
70.058428
 20
105.011161
 30
0.0
  0
MTEXT
  5
32
100
AcDbEntity
  8
TEXT
 62
     7
100
AcDbMText
 10
38.930613
 20
175.790303
 30
0.0
 40
5.512152
 41
0.0
 71
     1
 72
     2
  1
\fArial|b0|i0;\H5.5122;\C7;\U+0045\U+006C\U+0065\U+006D\U+0065\U+006E\U+0074\U+0077\U+0061\U+006E\U+0064
  7
STD
210
0.0
220
0.0
230
1.0
 73
     1
 44
1.0
  0
MTEXT
  5
31
100
AcDbEntity
  8
TEXT
 62
     7
100
AcDbMText
 10
38.930613
 20
183.198637
 30
0.0
 40
5.512152
 41
0.0
 71
     1
 72
     2
  1
\fArial|b0|i0;\H5.5122;\C7;\U+0044\U+006F\U+0070\U+0070\U+0065\U+006C\U+002D\U+0020\U+002F
  7
STD
210
0.0
220
0.0
230
1.0
 73
     1
 44
1.0
  0
INSERT
  5
2B
100
AcDbEntity
  8
TEXT
 62
     7
100
AcDbBlockReference
  2
AI9-BLK1
 10
55.727348
 20
147.319862
 30
0.0
  0
ENDSEC
  0
SECTION
  2
OBJECTS
  0
DICTIONARY
  5
19
100
AcDbDictionary
280
     0
281
     1
  3
ACAD_GROUP
350
1A
  3
ACAD_MLINESTYLE
350
1B
  3
ACAD_LAYOUT
350
1E
  3
ACAD_PLOTSETTINGS
350
22
  3
ACAD_PLOTSTYLENAME
350
1F
  3
ACAD_WIPEOUT_VARS
350
23
  0
DICTIONARY
  5
1A
102
{ACAD_REACTORS
330
19
102
}
100
AcDbDictionary
280
     0
281
     1
  0
DICTIONARY
  5
1B
102
{ACAD_REACTORS
330
19
102
}
100
AcDbDictionary
280
     0
281
     1
  3
Standard
350
1C
  0
MLINESTYLE
  5
1C
102
{ACAD_REACTORS
330
1B
102
}
100
AcDbMlineStyle
  2
Standard
 70
     0
  3

 62
     0
 51
90.0
 52
90.0
 71
     2
 49
0.5
 62
   256
  6
ByLayer
 49
-0.5
 62
   256
  6
ByLayer
  0
ACDBDICTIONARYWDFLT
  5
1F
102
{ACAD_REACTORS
330
19
102
}
100
AcDbDictionary
281
     1
  3
Normal
350
1D
100
AcDbDictionaryWithDefault
340
1D
  0
ACDBPLACEHOLDER
  5
1D
102
{ACAD_REACTORS
330
1F
102
}
  0
LAYOUT
  5
20
102
{ACAD_REACTORS
330
1E
102
}
100
AcDbPlotSettings
  1

  2

  4

  6

 40
0.0
 41
0.0
 42
0.0
 43
0.0
 44
0.0
 45
0.0
 46
0.0
 47
0.0
 48
0.0
 49
0.0
140
0.0
141
0.0
142
1.0
143
1.0
 70
  1024
 72
     0
 73
     0
 74
     0
  7

 75
     0
147
1.0
148
0.0
149
0.0
100
AcDbLayout
  1
Model
 70
     0
 71
     0
 10
0.0
 20
0.0
 11
0.0
 21
0.0
 12
0.0
 22
0.0
 32
0.0
 14
0.0
 24
0.0
 34
0.0
 15
0.0
 25
0.0
 35
0.0
146
0.0
 13
0.0
 23
0.0
 33
0.0
 16
0.0
 26
0.0
 36
0.0
 17
0.0
 27
0.0
 37
0.0
 76
     0
330
A
331
0
345
0
346
0
  0
LAYOUT
  5
21
102
{ACAD_REACTORS
330
1E
102
}
100
AcDbPlotSettings
  1

  2

  4

  6

 40
0.0
 41
0.0
 42
0.0
 43
0.0
 44
0.0
 45
0.0
 46
0.0
 47
0.0
 48
0.0
 49
0.0
140
0.0
141
0.0
142
1.0
143
1.0
 70
     0
 72
     0
 73
     0
 74
     0
  7

 75
     0
147
1.0
148
0.0
149
0.0
100
AcDbLayout
  1
Layout1
 70
     0
 71
     0
 10
0.0
 20
0.0
 11
0.0
 21
0.0
 12
0.0
 22
0.0
 32
0.0
 14
0.0
 24
0.0
 34
0.0
 15
0.0
 25
0.0
 35
0.0
146
0.0
 13
0.0
 23
0.0
 33
0.0
 16
0.0
 26
0.0
 36
0.0
 17
0.0
 27
0.0
 37
0.0
 76
     0
330
B
331
0
345
0
346
0
  0
DICTIONARY
  5
1E
102
{ACAD_REACTORS
330
19
102
}
100
AcDbDictionary
280
     0
281
     1
  3
Layout1
350
21
  3
Model
350
20
  0
DICTIONARY
  5
22
102
{ACAD_REACTORS
330
19
102
}
100
AcDbDictionary
280
     0
281
     1
  0
WIPEOUTVARIABLES
  5
23
100
AcDbWipeoutVariables
 70
     1
  0
ENDSEC
  0
EOF
