  0
SECTION
  2
HEADER
  9
$ACADVER
  1
AC1015
  9
$ACADMAINTVER
 70
     6
  9
$DWGCODEPAGE
  3
ANSI_932
  9
$INSBASE
 10
0.0
 20
0.0
 30
0.0
  9
$EXTMIN
 10
19.581406
 20
59.601874
 30
1.000000E+20
  9
$EXTMAX
 10
181.954785
 20
204.567358
 30
-1.000000E+20
  9
$LIMMIN
 10
19.581406
 20
59.601874
  9
$LIMMAX
 10
181.954785
 20
204.567358
  9
$ORTHOMODE
 70
     0
  9
$REGENMODE
 70
     1
  9
$FILLMODE
 70
     1
  9
$QTEXTMODE
 70
     0
  9
$MIRRTEXT
 70
     1
  9
$LTSCALE
 40
1.0
  9
$ATTMODE
 70
     1
  9
$TEXTSIZE
 40
0.2
  9
$TRACEWID
 40
0.05
  9
$TEXTSTYLE
  7
Standard
  9
$CLAYER
  8
0
  9
$CELTYPE
  6
Continuous
  9
$CECOLOR
 62
   256
  9
$CELTSCALE
 40
1.0
  9
$DISPSILH
 70
     0
  9
$DIMSCALE
 40
1.0
  9
$DIMASZ
 40
0.18
  9
$DIMEXO
 40
0.0625
  9
$DIMDLI
 40
0.38
  9
$DIMRND
 40
0.0
  9
$DIMDLE
 40
0.0
  9
$DIMEXE
 40
0.18
  9
$DIMTP
 40
0.0
  9
$DIMTM
 40
0.0
  9
$DIMTXT
 40
0.18
  9
$DIMCEN
 40
0.09
  9
$DIMTSZ
 40
0.0
  9
$DIMTOL
 70
     0
  9
$DIMLIM
 70
     0
  9
$DIMTIH
 70
     1
  9
$DIMTOH
 70
     1
  9
$DIMSE1
 70
     0
  9
$DIMSE2
 70
     0
  9
$DIMTAD
 70
     0
  9
$DIMZIN
 70
     0
  9
$DIMBLK
  1

  9
$DIMASO
 70
     1
  9
$DIMSHO
 70
     1
  9
$DIMPOST
  1

  9
$DIMAPOST
  1

  9
$DIMALT
 70
     0
  9
$DIMALTD
 70
     2
  9
$DIMALTF
 40
25.4
  9
$DIMLFAC
 40
1.0
  9
$DIMTOFL
 70
     0
  9
$DIMTVP
 40
0.0
  9
$DIMTIX
 70
     0
  9
$DIMSOXD
 70
     0
  9
$DIMSAH
 70
     0
  9
$DIMBLK1
  1

  9
$DIMBLK2
  1

  9
$DIMSTYLE
  2
Standard
  9
$DIMCLRD
 70
     0
  9
$DIMCLRE
 70
     0
  9
$DIMCLRT
 70
     0
  9
$DIMTFAC
 40
1.0
  9
$DIMGAP
 40
0.09
  9
$DIMJUST
 70
     0
  9
$DIMSD1
 70
     0
  9
$DIMSD2
 70
     0
  9
$DIMTOLJ
 70
     1
  9
$DIMTZIN
 70
     0
  9
$DIMALTZ
 70
     0
  9
$DIMALTTZ
 70
     0
  9
$DIMUPT
 70
     0
  9
$DIMDEC
 70
     4
  9
$DIMTDEC
 70
     4
  9
$DIMALTU
 70
     2
  9
$DIMALTTD
 70
     2
  9
$DIMTXSTY
  7
Standard
  9
$DIMAUNIT
 70
     0
  9
$DIMADEC
 70
     0
  9
$DIMALTRND
 40
0.0
  9
$DIMAZIN
 70
     0
  9
$DIMDSEP
 70
     0
  9
$DIMATFIT
 70
     3
  9
$DIMFRAC
 70
     0
  9
$DIMLDRBLK
  1

  9
$DIMLUNIT
 70
     2
  9
$DIMLWD
 70
     0
  9
$DIMLWE
 70
     0
  9
$DIMTMOVE
 70
     0
  9
$LUNITS
 70
     2
  9
$LUPREC
 70
     4
  9
$SKETCHINC
 40
0.1
  9
$FILLETRAD
 40
0.0
  9
$AUNITS
 70
     0
  9
$AUPREC
 70
     0
  9
$MENU
  1
acad
  9
$ELEVATION
 40
0.0
  9
$PELEVATION
 40
0.0
  9
$THICKNESS
 40
0.0
  9
$LIMCHECK
 70
     0
  9
$CHAMFERA
 40
0.0
  9
$CHAMFERB
 40
0.0
  9
$CHAMFERC
 40
0.0
  9
$CHAMFERD
 40
0.0
  9
$SKPOLY
 70
     0
  9
$TDCREATE
 40
0.000000000
  9
$TDUCREATE
 40
0.000000000
  9
$TDUPDATE
 40
0.000000000
  9
$TDUUPDATE
 40
0.000000000
  9
$TDINDWG
 40
0.0000000000
  9
$TDUSRTIMER
 40
0.0000000000
  9
$USRTIMER
 70
     1
  9
$ANGBASE
 50
0.0
  9
$ANGDIR
 70
     0
  9
$PDMODE
 70
     0
  9
$PDSIZE
 40
0.0
  9
$PLINEWID
 40
0.0
  9
$SPLFRAME
 70
     0
  9
$SPLINETYPE
 70
     6
  9
$SPLINESEGS
 70
     8
  9
$HANDSEED
  5
194
  9
$SURFTAB1
 70
     6
  9
$SURFTAB2
 70
     6
  9
$SURFTYPE
 70
     6
  9
$SURFU
 70
     6
  9
$SURFV
 70
     6
  9
$UCSBASE
  2

  9
$UCSNAME
  2

  9
$UCSORG
 10
0.0
 20
0.0
 30
0.0
  9
$UCSXDIR
 10
1.0
 20
0.0
 30
0.0
  9
$UCSYDIR
 10
0.0
 20
1.0
 30
0.0
  9
$UCSORTHOREF
  2

  9
$UCSORTHOVIEW
 70
     0
  9
$UCSORGTOP
 10
0.0
 20
0.0
 30
0.0
  9
$UCSORGBOTTOM
 10
0.0
 20
0.0
 30
0.0
  9
$UCSORGLEFT
 10
0.0
 20
0.0
 30
0.0
  9
$UCSORGRIGHT
 10
0.0
 20
0.0
 30
0.0
  9
$UCSORGFRONT
 10
0.0
 20
0.0
 30
0.0
  9
$UCSORGBACK
 10
0.0
 20
0.0
 30
0.0
  9
$PUCSBASE
  2

  9
$PUCSNAME
  2

  9
$PUCSORG
 10
0.0
 20
0.0
 30
0.0
  9
$PUCSXDIR
 10
1.0
 20
0.0
 30
0.0
  9
$PUCSYDIR
 10
0.0
 20
1.0
 30
0.0
  9
$PUCSORTHOREF
  2

  9
$PUCSORTHOVIEW
 70
     0
  9
$PUCSORGTOP
 10
0.0
 20
0.0
 30
0.0
  9
$PUCSORGBOTTOM
 10
0.0
 20
0.0
 30
0.0
  9
$PUCSORGLEFT
 10
0.0
 20
0.0
 30
0.0
  9
$PUCSORGRIGHT
 10
0.0
 20
0.0
 30
0.0
  9
$PUCSORGFRONT
 10
0.0
 20
0.0
 30
0.0
  9
$PUCSORGBACK
 10
0.0
 20
0.0
 30
0.0
  9
$USERI1
 70
     0
  9
$USERI2
 70
     0
  9
$USERI3
 70
     0
  9
$USERI4
 70
     0
  9
$USERI5
 70
     0
  9
$USERR1
 40
0.0
  9
$USERR2
 40
0.0
  9
$USERR3
 40
0.0
  9
$USERR4
 40
0.0
  9
$USERR5
 40
0.0
  9
$WORLDVIEW
 70
     1
  9
$SHADEDGE
 70
     3
  9
$SHADEDIF
 70
    70
  9
$TILEMODE
 70
     1
  9
$MAXACTVP
 70
    16
  9
$PINSBASE
 10
0.0
 20
0.0
 30
0.0
  9
$PLIMCHECK
 70
     0
  9
$PEXTMIN
 10
1.000000E+20
 20
1.000000E+20
 30
1.000000E+20
  9
$PEXTMAX
 10
-1.000000E+20
 20
-1.000000E+20
 30
-1.000000E+20
  9
$PLIMMIN
 10
0.0
 20
0.0
  9
$PLIMMAX
 10
12.0
 20
9.0
  9
$UNITMODE
 70
     0
  9
$VISRETAIN
 70
     0
  9
$PLINEGEN
 70
     1
  9
$PSLTSCALE
 70
     0
  9
$TREEDEPTH
 70
  3020
  9
$CMLSTYLE
  2
Standard
  9
$CMLJUST
 70
     0
  9
$CMLSCALE
 40
1.0
  9
$PROXYGRAPHICS
 70
     0
  9
$MEASUREMENT
 70
     1
  9
$CELWEIGHT
370
     0
  9
$ENDCAPS
280
     0
  9
$JOINSTYLE
280
     0
  9
$LWDISPLAY
290
     0
  9
$INSUNITS
 70
     0
  9
$HYPERLINKBASE
  1

  9
$STYLESHEET
  1

  9
$XEDIT
290
     1
  9
$CEPSNTYPE
380
     0
  9
$PSTYLEMODE
290
     1
  9
$FINGERPRINTGUID
  2

  9
$VERSIONGUID
  2

  9
$EXTNAMES
290
     1
  9
$PSVPSCALE
 40
0.0
  0
ENDSEC
  0
SECTION
  2
CLASSES
  0
CLASS
  1
LWPOLYLINE
  2
AcDbPolyline
  3
AutoCAD 2000
 90
    32768
280
     0
281
     1
  0
CLASS
  1
IMAGE
  2
AcDbRasterImage
  3
ISM
 90
    32895
280
     0
281
     1
  0
CLASS
  1
OLE2FRAME
  2
AcDbOle2Frame
  3
AutoCAD 2000
 90
    32768
280
     0
281
     1
  0
CLASS
  1
HATCH
  2
AcDbHatch
  3
AutoCAD 2000
 90
        0
280
     0
281
     1
  0
CLASS
  1
DICTIONARYVAR
  2
AcDbDictionaryVar
  3
AutoCAD 2000
 90
    32768
280
     0
281
     0
  0
CLASS
  1
RASTERVARIABLES
  2
AcDbRasterVariables
  3
ISM
 90
    32768
280
     0
281
     0
  0
CLASS
  1
IMAGEDEF
  2
AcDbRasterImageDef
  3
ISM
 90
    32768
280
     0
281
     0
  0
CLASS
  1
IMAGEDEF_REACTOR
  2
AcDbRasterImageDefReactor
  3
ISM
 90
    32769
280
     0
281
     0
  0
CLASS
  1
IDBUFFER
  2
AcDbIdBuffer
  3
AutoCAD 2000
 90
    32768
280
     0
281
     0
  0
CLASS
  1
SPATIAL_FILTER
  2
AcDbSpatialFilter
  3
AutoCAD 2000
 90
    32768
280
     0
281
     0
  0
CLASS
  1
XRECORD
  2
AcDbXrecord
  3
AutoCAD 2000
 90
    32768
280
     0
281
     0
  0
CLASS
  1
SORTENTSTABLE
  2
AcDbSortentsTable
  3
AutoCAD 2000
 90
    32768
280
     0
281
     0
  0
CLASS
  1
LAYER_INDEX
  2
AcDbLayerIndex
  3
AutoCAD 2000
 90
    32768
280
     0
281
     0
  0
CLASS
  1
SPATIAL_INDEX
  2
AcDbSpatialIndex
  3
AutoCAD 2000
 90
    32768
280
     0
281
     0
  0
CLASS
  1
OBJECT_PTR
  2
CAseDLPNTableRecord
  3
"ASE-LPNTableRecord"
 90
    32769
280
     0
281
     0
  0
CLASS
  1
LAYOUT
  2
AcDbLayout
  3
AutoCAD 2000
 90
        0
280
     0
281
     0
  0
CLASS
  1
PLOTSETTINGS
  2
AcDbPlotSettings
  3
AutoCAD 2000
 90
    32768
280
     0
281
     0
  0
CLASS
  1
ACDBDICTIONARYWDFLT
  2
AcDbDictionaryWithDefault
  3
AutoCAD 2000
 90
        0
280
     0
281
     0
  0
CLASS
  1
ACDBPLACEHOLDER
  2
AcDbPlaceHolder
  3
AutoCAD 2000
 90
        0
280
     0
281
     0
  0
CLASS
  1
VBA_PROJECT
  2
AcDbVbaProject
  3
acadvba
 90
    32768
280
     0
281
     0
  0
CLASS
  1
WIPEOUT
  2
AcDbWipeout
  3
WipeOut|AutoCAD Express Tool|expresstools@autodesk.com
 90
    32895
280
     0
281
     1
  0
CLASS
  1
WIPEOUTVARIABLES
  2
AcDbWipeoutVariables
  3
WipeOut|AutoCAD Express Tool|expresstools@autodesk.com
 90
        0
280
     0
281
     0
  0
CLASS
  1
RTEXT
  2
RText
  3
RText|AutoCAD Express Tool|expresstools@autodesk.com
 90
    32768
280
     0
281
     1
  0
CLASS
  1
ARCALIGNEDTEXT
  2
AcDbArcAlignedText
  3
ATEXT|AutoCAD Express Tool|expresstools@autodesk.com
 90
    32768
280
     0
281
     1
  0
ENDSEC
  0
SECTION
  2
TABLES
  0
TABLE
  2
VPORT
  5
7
100
AcDbSymbolTable
 70
     1
  0
VPORT
  5
15
100
AcDbSymbolTableRecord
100
AcDbViewportTableRecord
  2
*ACTIVE
 70
     0
 10
0.0
 20
0.0
 11
1.0
 21
1.0
 12
6.591288
 22
4.579184
 13
0.0
 23
0.0
 14
1.0
 24
1.0
 15
0.0
 25
0.0
 16
0.0
 26
0.0
 36
1.0
 17
0.0
 27
0.0
 37
0.0
 40
9.158369
 41
0.688564
 42
50.0
 43
0.0
 44
0.0
 50
0.0
 51
0.0
 71
     0
 72
   100
 73
     1
 74
     1
 75
     0
 76
     0
 77
     0
 78
     0
281
     0
 65
     0
110
0.0
120
0.0
130
0.0
111
1.0
121
0.0
131
0.0
112
0.0
122
1.0
132
0.0
345
0
346
0
 79
     0
146
0.0
  0
ENDTAB
  0
TABLE
  2
LTYPE
  5
4
100
AcDbSymbolTable
 70
     6
  0
LTYPE
  5
11
100
AcDbSymbolTableRecord
100
AcDbLinetypeTableRecord
  2
ByBlock
 70
    64
  3

 72
    65
 73
     0
 40
0.0
  0
LTYPE
  5
12
100
AcDbSymbolTableRecord
100
AcDbLinetypeTableRecord
  2
ByLayer
 70
    64
  3

 72
    65
 73
     0
 40
0.0
  0
LTYPE
  5
13
100
AcDbSymbolTableRecord
100
AcDbLinetypeTableRecord
  2
Continuous
 70
    64
  3
Solid line
 72
    65
 73
     0
 40
0.0
  0
LTYPE
  5
BB
100
AcDbSymbolTableRecord
100
AcDbLinetypeTableRecord
  2
AI9-LType1
 70
    64
  3
Illustrator Dash Style No.1
 72
    65
 73
     4
 40
8.819444
 49
5.644444
 74
     0
 49
-1.411111
 74
     0
 49
0.352778
 74
     0
 49
-1.411111
 74
     0
  0
LTYPE
  5
BD
100
AcDbSymbolTableRecord
100
AcDbLinetypeTableRecord
  2
AI9-LType2
 70
    64
  3
Illustrator Dash Style No.2
 72
    65
 73
     4
 40
5.997222
 49
3.527778
 74
     0
 49
-1.058333
 74
     0
 49
0.352778
 74
     0
 49
-1.058333
 74
     0
  0
LTYPE
  5
190
100
AcDbSymbolTableRecord
100
AcDbLinetypeTableRecord
  2
AI9-LType3
 70
    64
  3
Illustrator Dash Style No.3
 72
    65
 73
     5
 40
9.172222
 49
5.644444
 74
     0
 49
-1.411111
 74
     0
 49
0.352778
 74
     0
 49
-1.411111
 74
     0
 49
0.352778
 74
     0
  0
ENDTAB
  0
TABLE
  2
LAYER
  5
2
100
AcDbSymbolTable
 70
     3
  0
LAYER
  5
14
100
AcDbSymbolTableRecord
100
AcDbLayerTableRecord
  2
0
 70
     0
 62
     7
  6
Continuous
290
     1
370
    -3
390
1D
  0
LAYER
  5
28
100
AcDbSymbolTableRecord
100
AcDbLayerTableRecord
  2
RAHMEN
 70
     0
 62
     1
  6
Continuous
290
     1
370
    -3
390
1D
  0
LAYER
  5
36
100
AcDbSymbolTableRecord
100
AcDbLayerTableRecord
  2
BODEN-3_8
 70
     0
 62
     1
  6
Continuous
290
     1
370
    -3
390
1D
  0
ENDTAB
  0
TABLE
  2
STYLE
  5
3
100
AcDbSymbolTable
 70
     5
  0
STYLE
  5
17
100
AcDbSymbolTableRecord
100
AcDbTextStyleTableRecord
  2
Standard
 70
     0
 40
0.0
 41
1.0
 50
0.0
 71
     0
 42
0.0
  3
txt
  4

  0
STYLE
  5
24
100
AcDbSymbolTableRecord
100
AcDbTextStyleTableRecord
  2
STD
 70
     0
 40
0.0
 41
1.0
 50
0.0
 71
     0
 42
0.0
  3
txt
  4

  0
STYLE
  5
25
100
AcDbSymbolTableRecord
100
AcDbTextStyleTableRecord
  2
TATESTD
 70
     4
 40
0.0
 41
1.0
 50
0.0
 71
     0
 42
0.0
  3
txt
  4

  0
STYLE
  5
26
100
AcDbSymbolTableRecord
100
AcDbTextStyleTableRecord
  2
KANJISTD
 70
     0
 40
0.0
 41
1.0
 50
0.0
 71
     0
 42
0.0
  3
txt
  4
extfont
  0
STYLE
  5
27
100
AcDbSymbolTableRecord
100
AcDbTextStyleTableRecord
  2
KANJITATE
 70
     4
 40
0.0
 41
1.0
 50
0.0
 71
     0
 42
0.0
  3
txt
  4
extfont
  0
ENDTAB
  0
TABLE
  2
VIEW
  5
5
100
AcDbSymbolTable
 70
     0
  0
ENDTAB
  0
TABLE
  2
UCS
  5
6
100
AcDbSymbolTable
 70
     0
  0
ENDTAB
  0
TABLE
  2
APPID
  5
8
100
AcDbSymbolTable
 70
     1
  0
APPID
  5
16
100
AcDbSymbolTableRecord
100
AcDbRegAppTableRecord
  2
ACAD
 70
     0
  0
ENDTAB
  0
TABLE
  2
DIMSTYLE
  5
9
100
AcDbSymbolTable
 70
     1
100
AcDbDimStyleTable
 71
     0
  0
DIMSTYLE
105
18
100
AcDbSymbolTableRecord
100
AcDbDimStyleTableRecord
  2
Standard
 70
     0
  3

  4

 40
1.0
 41
0.18
 42
0.0625
 43
0.38
 44
0.18
 45
0.0
 46
0.0
 47
0.0
 48
0.0
 71
     0
 72
     0
 73
     1
 74
     1
 75
     0
 76
     0
 77
     0
 78
     0
 79
     0
140
0.18
141
0.09
142
0.0
143
25.4
144
1.0
145
0.0
146
1.0
147
0.09
148
0.0
170
     0
171
     2
172
     0
173
     0
174
     0
175
     0
176
     0
177
     0
178
     0
179
     0
271
     4
272
     4
273
     2
274
     2
275
     0
276
     0
277
     2
278
    46
279
     0
280
     0
281
     0
282
     0
283
     1
284
     0
285
     0
286
     0
288
     0
340
17
341
0
342
0
343
0
344
0
371
    -2
372
    -2
  0
ENDTAB
  0
TABLE
  2
BLOCK_RECORD
  5
1
100
AcDbSymbolTable
 70
     1
  0
BLOCK_RECORD
  5
A
100
AcDbSymbolTableRecord
100
AcDbBlockTableRecord
  2
*MODEL_SPACE
340
20
  0
BLOCK_RECORD
  5
B
100
AcDbSymbolTableRecord
100
AcDbBlockTableRecord
  2
*PAPER_SPACE
340
21
  0
BLOCK_RECORD
  5
52
100
AcDbSymbolTableRecord
100
AcDbBlockTableRecord
  2
AI9-BLK1
340
0
102
{BLKREFS
331
53
102
}
  0
ENDTAB
  0
ENDSEC
  0
SECTION
  2
BLOCKS
  0
BLOCK
  5
D
100
AcDbEntity
  8
0
100
AcDbBlockBegin
  2
*MODEL_SPACE
 70
     0
 10
0.0
 20
0.0
 30
0.0
  3
*MODEL_SPACE
  1

  0
ENDBLK
  5
E
100
AcDbEntity
  8
0
100
AcDbBlockEnd
  0
BLOCK
  5
F
100
AcDbEntity
 67
     1
  8
0
100
AcDbBlockBegin
  2
*PAPER_SPACE
 70
     0
 10
0.0
 20
0.0
 30
0.0
  3
*PAPER_SPACE
  1

  0
ENDBLK
  5
10
100
AcDbEntity
 67
     1
  8
0
100
AcDbBlockEnd
  0
BLOCK
  5
54
100
AcDbEntity
  8
BODEN-3_8
 62
     7
100
AcDbBlockBegin
  2
AI9-BLK1
 70
     0
 10
0.0
 20
0.0
 30
0.0
  3
AI9-BLK1
  1

  0
MTEXT
  5
57
100
AcDbEntity
  8
BODEN-3_8
 62
     7
100
AcDbMText
 10
-22.141973
 20
-3.17879
 30
0.0
 40
5.512152
 41
0.0
 71
     1
 72
     2
  1
\fArial|b0|i0;\H5.5122;\C7;\U+0032\U+0030
  7
STD
210
0.0
220
0.0
230
1.0
 73
     1
 44
1.0
  0
MTEXT
  5
56
100
AcDbEntity
  8
BODEN-3_8
 62
     7
100
AcDbMText
 10
-22.141973
 20
4.229543
 30
0.0
 40
5.512152
 41
0.0
 71
     1
 72
     2
  1
\fArial|b0|i0;\H5.5122;\C7;\U+0053\U+0074\U+0061\U+006E\U+0064\U+0061\U+0072\U+0064
  7
STD
210
0.0
220
0.0
230
1.0
 73
     1
 44
1.0
  0
MTEXT
  5
55
100
AcDbEntity
  8
BODEN-3_8
 62
     7
100
AcDbMText
 10
-22.141973
 20
11.637877
 30
0.0
 40
5.512152
 41
0.0
 71
     1
 72
     2
  1
\fArial|b0|i0;\H5.5122;\C7;\U+0046\U+0048\U+0052\U+004B\U+002D
  7
STD
210
0.0
220
0.0
230
1.0
 73
     1
 44
1.0
  0
ENDBLK
  5
58
100
AcDbEntity
  8
BODEN-3_8
100
AcDbBlockEnd
  0
ENDSEC
  0
SECTION
  2
ENTITIES
  0
HATCH
  5
193
100
AcDbEntity
  8
BODEN-3_8
 62
     7
100
AcDbHatch
 10
0.0
 20
0.0
 30
0.0
210
0.0
220
0.0
230
1.0
  2
SOLID
 70
     1
 71
     0
 91
        4
 92
       16
 93
        1
 72
     4
 94
        3
 73
     0
 74
     0
 95
       20
 96
       16
 40
0.0
 40
0.0
 40
0.0
 40
0.0
 40
1.0
 40
1.0
 40
1.0
 40
2.0
 40
2.0
 40
2.0
 40
3.0
 40
3.0
 40
3.0
 40
4.0
 40
4.0
 40
4.0
 40
5.0
 40
5.0
 40
5.0
 40
5.0
 10
121.1154324001736
 20
138.23721245659721
 10
121.1154324001736
 20
138.23721245659721
 10
116.04769694010416
 20
138.23721245659721
 10
116.04769694010416
 20
138.23721245659721
 10
116.04769694010416
 20
138.23721245659721
 10
116.04769694010416
 20
133.67039388020831
 10
116.04769694010416
 20
133.67039388020831
 10
116.04769694010416
 20
133.67039388020831
 10
120.65861273871526
 20
133.67039388020831
 10
120.65861273871526
 20
133.67039388020831
 10
120.65861273871526
 20
133.67039388020831
 10
121.1154324001736
 20
133.67039388020831
 10
121.1154324001736
 20
133.67039388020831
 10
121.1154324001736
 20
133.67039388020831
 10
121.1154324001736
 20
138.23721245659721
 10
121.1154324001736
 20
138.23721245659721
 97
        0
 92
       16
 93
        1
 72
     4
 94
        3
 73
     0
 74
     0
 95
       17
 96
       13
 40
0.0
 40
0.0
 40
0.0
 40
0.0
 40
1.0
 40
1.0
 40
1.0
 40
2.0
 40
2.0
 40
2.0
 40
3.0
 40
3.0
 40
3.0
 40
4.0
 40
4.0
 40
4.0
 40
4.0
 10
116.04769694010416
 20
138.23721245659721
 10
116.04769694010416
 20
138.23721245659721
 10
98.280995008680549
 20
138.23721245659721
 10
98.280995008680549
 20
138.23721245659721
 10
98.280995008680549
 20
138.23721245659721
 10
98.280995008680549
 20
133.67039388020831
 10
98.280995008680549
 20
133.67039388020831
 10
98.280995008680549
 20
133.67039388020831
 10
116.04769694010416
 20
133.67039388020831
 10
116.04769694010416
 20
133.67039388020831
 10
116.04769694010416
 20
133.67039388020831
 10
116.04769694010416
 20
138.23721245659721
 10
116.04769694010416
 20
138.23721245659721
 97
        0
 92
       16
 93
        1
 72
     4
 94
        3
 73
     0
 74
     0
 95
       17
 96
       13
 40
0.0
 40
0.0
 40
0.0
 40
0.0
 40
1.0
 40
1.0
 40
1.0
 40
2.0
 40
2.0
 40
2.0
 40
3.0
 40
3.0
 40
3.0
 40
4.0
 40
4.0
 40
4.0
 40
4.0
 10
98.280995008680549
 20
138.23721245659721
 10
98.280995008680549
 20
138.23721245659721
 10
80.514637586805549
 20
138.23721245659721
 10
80.514637586805549
 20
138.23721245659721
 10
80.514637586805549
 20
138.23721245659721
 10
80.514637586805549
 20
133.67039388020831
 10
80.514637586805549
 20
133.67039388020831
 10
80.514637586805549
 20
133.67039388020831
 10
98.280995008680549
 20
133.67039388020831
 10
98.280995008680549
 20
133.67039388020831
 10
98.280995008680549
 20
133.67039388020831
 10
98.280995008680549
 20
138.23721245659721
 10
98.280995008680549
 20
138.23721245659721
 97
        0
 92
       16
 93
        1
 72
     4
 94
        3
 73
     0
 74
     0
 95
       17
 96
       13
 40
0.0
 40
0.0
 40
0.0
 40
0.0
 40
1.0
 40
1.0
 40
1.0
 40
2.0
 40
2.0
 40
2.0
 40
3.0
 40
3.0
 40
3.0
 40
4.0
 40
4.0
 40
4.0
 40
4.0
 10
80.514637586805549
 20
138.23721245659721
 10
80.514637586805549
 20
138.23721245659721
 10
75.446729871961793
 20
138.23721245659721
 10
75.446729871961793
 20
138.23721245659721
 10
75.446729871961793
 20
138.23721245659721
 10
75.446729871961793
 20
133.67039388020831
 10
75.446729871961793
 20
133.67039388020831
 10
75.446729871961793
 20
133.67039388020831
 10
80.514637586805549
 20
133.67039388020831
 10
80.514637586805549
 20
133.67039388020831
 10
80.514637586805549
 20
133.67039388020831
 10
80.514637586805549
 20
138.23721245659721
 10
80.514637586805549
 20
138.23721245659721
 97
        0
 75
     0
 76
     1
 98
        1
 10
0.0
 20
0.0
  0
LINE
  5
192
100
AcDbEntity
  8
BODEN-3_8
  6
AI9-LType3
 62
     7
100
AcDbLine
 10
41.195246
 20
184.029077
 30
0.0
 11
41.195246
 21
128.085205
 31
0.0
  0
LINE
  5
191
100
AcDbEntity
  8
BODEN-3_8
  6
AI9-LType3
 62
     7
100
AcDbLine
 10
155.366916
 20
184.029077
 30
0.0
 11
155.366916
 21
128.085205
 31
0.0
  0
HATCH
  5
18F
100
AcDbEntity
  8
BODEN-3_8
 62
   154
100
AcDbHatch
 10
0.0
 20
0.0
 30
0.0
210
0.0
220
0.0
230
1.0
  2
SOLID
 70
     1
 71
     0
 91
        1
 92
        1
 93
        1
 72
     4
 94
        3
 73
     0
 74
     0
 95
       23
 96
       19
 40
0.0
 40
0.0
 40
0.0
 40
0.0
 40
1.0
 40
1.0
 40
1.0
 40
2.0
 40
2.0
 40
2.0
 40
3.0
 40
3.0
 40
3.0
 40
4.0
 40
4.0
 40
4.0
 40
5.0
 40
5.0
 40
5.0
 40
6.0
 40
6.0
 40
6.0
 40
6.0
 10
148.76886935763886
 20
110.65164388020833
 10
148.76886935763886
 20
110.65164388020833
 10
148.36441514756942
 20
110.90106879340277
 10
147.81423339843749
 20
111.16427408854166
 10
143.27945421006942
 20
113.33330620659721
 10
144.3853298611111
 20
108.93805338541665
 10
139.89671495225693
 20
111.70033094618054
 10
139.26350640190972
 20
112.0896267361111
 10
138.67921820746525
 20
111.1408474392361
 10
139.31242675781249
 20
110.75086263020832
 10
139.31242675781249
 20
110.75086263020832
 10
139.71688096788193
 20
110.50143771701389
 10
140.26637369791666
 20
110.23892144097221
 10
144.79564073350693
 20
108.0712673611111
 10
143.69527723524305
 20
112.45825195312499
 10
148.18492567274305
 20
109.7021755642361
 10
148.81778971354166
 20
109.31287977430554
 10
149.4017333984375
 20
110.26234809027777
 10
148.76886935763886
 20
110.65164388020833
 97
        0
 75
     0
 76
     1
 98
        1
 10
0.0
 20
0.0
  0
HATCH
  5
18E
100
AcDbEntity
  8
BODEN-3_8
 62
   154
100
AcDbHatch
 10
0.0
 20
0.0
 30
0.0
210
0.0
220
0.0
230
1.0
  2
SOLID
 70
     1
 71
     0
 91
        1
 92
        1
 93
        1
 72
     4
 94
        3
 73
     0
 74
     0
 95
       23
 96
       19
 40
0.0
 40
0.0
 40
0.0
 40
0.0
 40
1.0
 40
1.0
 40
1.0
 40
2.0
 40
2.0
 40
2.0
 40
3.0
 40
3.0
 40
3.0
 40
4.0
 40
4.0
 40
4.0
 40
5.0
 40
5.0
 40
5.0
 40
6.0
 40
6.0
 40
6.0
 40
6.0
 10
148.76886935763886
 20
105.40820855034721
 10
148.76886935763886
 20
105.40820855034721
 10
148.36441514756942
 20
105.65763346354166
 10
147.81423339843749
 20
105.92083875868055
 10
143.27945421006942
 20
108.0898708767361
 10
144.3853298611111
 20
103.69461805555555
 10
139.89671495225693
 20
106.45689561631943
 10
139.26350640190972
 20
106.84688042534721
 10
138.67921820746525
 20
105.897412109375
 10
139.31242675781249
 20
105.50742730034722
 10
139.31242675781249
 20
105.50742730034722
 10
139.71688096788193
 20
105.25869140624999
 10
140.26637369791666
 20
104.99548611111111
 10
144.79564073350693
 20
102.82714301215277
 10
143.69527723524305
 20
107.21481662326389
 10
148.18492567274305
 20
104.45874023437499
 10
148.81778971354166
 20
104.06944444444443
 10
149.4017333984375
 20
105.01891276041665
 10
148.76886935763886
 20
105.40820855034721
 97
        0
 75
     0
 76
     1
 98
        1
 10
0.0
 20
0.0
  0
HATCH
  5
18D
100
AcDbEntity
  8
BODEN-3_8
 62
   154
100
AcDbHatch
 10
0.0
 20
0.0
 30
0.0
210
0.0
220
0.0
230
1.0
  2
SOLID
 70
     1
 71
     0
 91
        1
 92
        1
 93
        1
 72
     4
 94
        3
 73
     0
 74
     0
 95
       23
 96
       19
 40
0.0
 40
0.0
 40
0.0
 40
0.0
 40
1.0
 40
1.0
 40
1.0
 40
2.0
 40
2.0
 40
2.0
 40
3.0
 40
3.0
 40
3.0
 40
4.0
 40
4.0
 40
4.0
 40
5.0
 40
5.0
 40
5.0
 40
6.0
 40
6.0
 40
6.0
 40
6.0
 10
148.76886935763886
 20
108.02992621527777
 10
148.76886935763886
 20
108.02992621527777
 10
148.36441514756942
 20
108.27935112847221
 10
147.81423339843749
 20
108.54186740451388
 10
143.27945421006942
 20
110.71158854166666
 10
144.3853298611111
 20
106.31633572048609
 10
139.89671495225693
 20
109.07861328124999
 10
139.26350640190972
 20
109.46859809027777
 10
138.67921820746525
 20
108.51912977430554
 10
139.31242675781249
 20
108.12914496527777
 10
139.31242675781249
 20
108.12914496527777
 10
139.71688096788193
 20
107.88040907118055
 10
140.26637369791666
 20
107.61720377604166
 10
144.79564073350693
 20
105.44954969618054
 10
143.69527723524305
 20
109.83653428819443
 10
148.18492567274305
 20
107.08045789930554
 10
148.81778971354166
 20
106.69116210937499
 10
149.4017333984375
 20
107.64063042534721
 10
148.76886935763886
 20
108.02992621527777
 97
        0
 75
     0
 76
     1
 98
        1
 10
0.0
 20
0.0
  0
HATCH
  5
18C
100
AcDbEntity
  8
BODEN-3_8
 62
   154
100
AcDbHatch
 10
0.0
 20
0.0
 30
0.0
210
0.0
220
0.0
230
1.0
  2
SOLID
 70
     1
 71
     0
 91
        1
 92
        1
 93
        1
 72
     4
 94
        3
 73
     0
 74
     0
 95
       23
 96
       19
 40
0.0
 40
0.0
 40
0.0
 40
0.0
 40
1.0
 40
1.0
 40
1.0
 40
2.0
 40
2.0
 40
2.0
 40
3.0
 40
3.0
 40
3.0
 40
4.0
 40
4.0
 40
4.0
 40
5.0
 40
5.0
 40
5.0
 40
6.0
 40
6.0
 40
6.0
 40
6.0
 10
148.76886935763886
 20
113.26853841145832
 10
148.76886935763886
 20
113.26853841145832
 10
148.36441514756942
 20
113.51796332465277
 10
147.81423339843749
 20
113.78116861979166
 10
143.27945421006942
 20
115.95020073784721
 10
144.3853298611111
 20
111.55494791666666
 10
139.89671495225693
 20
114.31791449652776
 10
139.26350640190972
 20
114.70721028645832
 10
138.67921820746525
 20
113.75774197048609
 10
139.31242675781249
 20
113.36844618055555
 10
139.31242675781249
 20
113.36844618055555
 10
139.71688096788193
 20
113.11902126736111
 10
140.26637369791666
 20
112.85581597222222
 10
144.79564073350693
 20
110.68816189236109
 10
143.69527723524305
 20
115.07514648437498
 10
148.18492567274305
 20
112.31975911458332
 10
148.81778971354166
 20
111.92977430555554
 10
149.4017333984375
 20
112.87993164062499
 10
148.76886935763886
 20
113.26853841145832
 97
        0
 75
     0
 76
     1
 98
        1
 10
0.0
 20
0.0
  0
LINE
  5
18B
100
AcDbEntity
  8
BODEN-3_8
 62
     7
100
AcDbLine
 10
97.810739
 20
190.638321
 30
0.0
 11
97.286396
 21
191.162664
 31
0.0
  0
LINE
  5
18A
100
AcDbEntity
  8
BODEN-3_8
 62
     7
100
AcDbLine
 10
100.536844
 20
189.930698
 30
0.0
 11
100.502737
 21
189.964632
 31
0.0
  0
LINE
  5
189
100
AcDbEntity
  8
BODEN-3_8
 62
     7
100
AcDbLine
 10
95.000575
 20
190.925814
 30
0.0
 11
94.206481
 21
191.720081
 31
0.0
  0
LINE
  5
188
100
AcDbEntity
  8
BODEN-3_8
 62
     7
100
AcDbLine
 10
94.846235
 20
188.565062
 30
0.0
 11
94.274349
 21
189.136948
 31
0.0
  0
LINE
  5
187
100
AcDbEntity
  8
BODEN-3_8
 62
     7
100
AcDbLine
 10
90.830632
 20
188.031761
 30
0.0
 11
89.816223
 21
189.04617
 31
0.0
  0
LINE
  5
186
100
AcDbEntity
  8
BODEN-3_8
 62
     7
100
AcDbLine
 10
90.351763
 20
188.005923
 30
0.0
 11
89.295152
 21
189.062534
 31
0.0
  0
LINE
  5
185
100
AcDbEntity
  8
BODEN-3_8
 62
     7
100
AcDbLine
 10
90.858881
 20
191.030889
 30
0.0
 11
89.849124
 21
192.040819
 31
0.0
  0
LINE
  5
184
100
AcDbEntity
  8
BODEN-3_8
 62
     7
100
AcDbLine
 10
90.366922
 20
191.018315
 30
0.0
 11
89.342006
 21
192.043231
 31
0.0
  0
LINE
  5
183
100
AcDbEntity
  8
BODEN-3_8
 62
     7
100
AcDbLine
 10
89.865316
 20
187.987836
 30
0.0
 11
88.768397
 21
189.084927
 31
0.0
  0
LINE
  5
182
100
AcDbEntity
  8
BODEN-3_8
 62
     7
100
AcDbLine
 10
89.370945
 20
187.977673
 30
0.0
 11
88.235269
 21
189.113349
 31
0.0
  0
LINE
  5
181
100
AcDbEntity
  8
BODEN-3_8
 62
     7
100
AcDbLine
 10
88.867961
 20
187.976123
 30
0.0
 11
87.697317
 21
189.146766
 31
0.0
  0
LINE
  5
180
100
AcDbEntity
  8
BODEN-3_8
 62
     7
100
AcDbLine
 10
88.356019
 20
187.98353
 30
0.0
 11
85.796658
 21
190.542891
 31
0.0
  0
LINE
  5
17F
100
AcDbEntity
  8
BODEN-3_8
 62
     7
100
AcDbLine
 10
87.834776
 20
188.000066
 30
0.0
 11
85.725
 21
190.109843
 31
0.0
  0
LINE
  5
17E
100
AcDbEntity
  8
BODEN-3_8
 62
     7
100
AcDbLine
 10
87.275465
 20
188.054843
 30
0.0
 11
85.77237
 21
189.557939
 31
0.0
  0
LINE
  5
17D
100
AcDbEntity
  8
BODEN-3_8
 62
     7
100
AcDbLine
 10
89.879957
 20
191.000745
 30
0.0
 11
88.842122
 21
192.038407
 31
0.0
  0
LINE
  5
17C
100
AcDbEntity
  8
BODEN-3_8
 62
     7
100
AcDbLine
 10
89.398161
 20
190.978007
 30
0.0
 11
88.349129
 21
192.027039
 31
0.0
  0
LINE
  5
17B
100
AcDbEntity
  8
BODEN-3_8
 62
     7
100
AcDbLine
 10
88.921015
 20
190.950446
 30
0.0
 11
87.862682
 21
192.008952
 31
0.0
  0
LINE
  5
17A
100
AcDbEntity
  8
BODEN-3_8
 62
     7
100
AcDbLine
 10
88.448692
 20
190.918407
 30
0.0
 11
87.393115
 21
191.973812
 31
0.0
  0
LINE
  5
179
100
AcDbEntity
  8
BODEN-3_8
 62
     7
100
AcDbLine
 10
87.980849
 20
190.881544
 30
0.0
 11
86.997102
 21
191.865291
 31
0.0
  0
LINE
  5
178
100
AcDbEntity
  8
BODEN-3_8
 62
     7
100
AcDbLine
 10
87.521962
 20
190.835725
 30
0.0
 11
86.661032
 21
191.696826
 31
0.0
  0
LINE
  5
177
100
AcDbEntity
  8
BODEN-3_8
 62
     7
100
AcDbLine
 10
87.183309
 20
190.669843
 30
0.0
 11
86.374056
 21
191.479268
 31
0.0
  0
LINE
  5
176
100
AcDbEntity
  8
BODEN-3_8
 62
     7
100
AcDbLine
 10
86.957311
 20
190.391307
 30
0.0
 11
86.132727
 21
191.216063
 31
0.0
  0
LINE
  5
175
100
AcDbEntity
  8
BODEN-3_8
 62
     7
100
AcDbLine
 10
86.864293
 20
189.979963
 30
0.0
 11
85.938079
 21
190.906005
 31
0.0
  0
LINE
  5
174
100
AcDbEntity
  8
BODEN-3_8
 62
     7
100
AcDbLine
 10
94.418009
 20
188.480657
 30
0.0
 11
93.791691
 21
189.107148
 31
0.0
  0
LINE
  5
173
100
AcDbEntity
  8
BODEN-3_8
 62
     7
100
AcDbLine
 10
93.990818
 20
188.403315
 30
0.0
 11
93.312134
 21
189.082343
 31
0.0
  0
LINE
  5
172
100
AcDbEntity
  8
BODEN-3_8
 62
     7
100
AcDbLine
 10
93.558114
 20
188.331485
 30
0.0
 11
92.827753
 21
189.062189
 31
0.0
  0
LINE
  5
171
100
AcDbEntity
  8
BODEN-3_8
 62
     7
100
AcDbLine
 10
93.119553
 20
188.265683
 30
0.0
 11
92.33855
 21
189.046686
 31
0.0
  0
LINE
  5
170
100
AcDbEntity
  8
BODEN-3_8
 62
     7
100
AcDbLine
 10
92.674791
 20
188.205739
 30
0.0
 11
91.844523
 21
189.036179
 31
0.0
  0
LINE
  5
16F
100
AcDbEntity
  8
BODEN-3_8
 62
     7
100
AcDbLine
 10
92.223828
 20
188.15234
 30
0.0
 11
91.345329
 21
189.030667
 31
0.0
  0
LINE
  5
16E
100
AcDbEntity
  8
BODEN-3_8
 62
     7
100
AcDbLine
 10
91.766319
 20
188.105314
 30
0.0
 11
90.841139
 21
189.030495
 31
0.0
  0
LINE
  5
16D
100
AcDbEntity
  8
BODEN-3_8
 62
     7
100
AcDbLine
 10
91.301921
 20
188.065007
 30
0.0
 11
90.331437
 21
189.03549
 31
0.0
  0
LINE
  5
16C
100
AcDbEntity
  8
BODEN-3_8
 62
     7
100
AcDbLine
 10
92.881325
 20
191.026755
 30
0.0
 11
91.955111
 21
191.952969
 31
0.0
  0
LINE
  5
16B
100
AcDbEntity
  8
BODEN-3_8
 62
     7
100
AcDbLine
 10
93.401706
 20
191.01108
 30
0.0
 11
92.502881
 21
191.909561
 31
0.0
  0
LINE
  5
16A
100
AcDbEntity
  8
BODEN-3_8
 62
     7
100
AcDbLine
 10
93.928117
 20
190.989376
 30
0.0
 11
93.06047
 21
191.856851
 31
0.0
  0
LINE
  5
169
100
AcDbEntity
  8
BODEN-3_8
 62
     7
100
AcDbLine
 10
94.460729
 20
190.960954
 30
0.0
 11
93.628049
 21
191.793806
 31
0.0
  0
LINE
  5
168
100
AcDbEntity
  8
BODEN-3_8
 62
     7
100
AcDbLine
 10
92.367144
 20
191.036229
 30
0.0
 11
91.416125
 21
191.98742
 31
0.0
  0
LINE
  5
167
100
AcDbEntity
  8
BODEN-3_8
 62
     7
100
AcDbLine
 10
91.85882
 20
191.040019
 30
0.0
 11
90.885753
 21
192.013258
 31
0.0
  0
LINE
  5
166
100
AcDbEntity
  8
BODEN-3_8
 62
     7
100
AcDbLine
 10
91.356181
 20
191.038296
 30
0.0
 11
90.363477
 21
192.030828
 31
0.0
  0
LINE
  5
165
100
AcDbEntity
  8
BODEN-3_8
 62
     7
100
AcDbLine
 10
99.346219
 20
189.607548
 30
0.0
 11
99.226674
 21
189.727093
 31
0.0
  0
LINE
  5
164
100
AcDbEntity
  8
BODEN-3_8
 62
     7
100
AcDbLine
 10
99.600122
 20
190.362713
 30
0.0
 11
99.327271
 21
190.635565
 31
0.0
  0
LINE
  5
163
100
AcDbEntity
  8
BODEN-3_8
 62
     7
100
AcDbLine
 10
95.258957
 20
188.649122
 30
0.0
 11
94.737714
 21
189.170193
 31
0.0
  0
LINE
  5
162
100
AcDbEntity
  8
BODEN-3_8
 62
     7
100
AcDbLine
 10
95.676158
 20
188.736628
 30
0.0
 11
95.204525
 21
189.208261
 31
0.0
  0
LINE
  5
161
100
AcDbEntity
  8
BODEN-3_8
 62
     7
100
AcDbLine
 10
96.091637
 20
188.825856
 30
0.0
 11
95.666857
 21
189.250292
 31
0.0
  0
LINE
  5
160
100
AcDbEntity
  8
BODEN-3_8
 62
     7
100
AcDbLine
 10
96.504704
 20
188.916979
 30
0.0
 11
96.125054
 21
189.296628
 31
0.0
  0
LINE
  5
15F
100
AcDbEntity
  8
BODEN-3_8
 62
     7
100
AcDbLine
 10
96.916393
 20
189.010168
 30
0.0
 11
96.579462
 21
189.346754
 31
0.0
  0
LINE
  5
15E
100
AcDbEntity
  8
BODEN-3_8
 62
     7
100
AcDbLine
 10
97.32567
 20
189.105081
 30
0.0
 11
97.030081
 21
189.401015
 31
0.0
  0
LINE
  5
15D
100
AcDbEntity
  8
BODEN-3_8
 62
     7
100
AcDbLine
 10
97.733569
 20
189.201888
 30
0.0
 11
97.476565
 21
189.459064
 31
0.0
  0
LINE
  5
15C
100
AcDbEntity
  8
BODEN-3_8
 62
     7
100
AcDbLine
 10
98.139402
 20
189.30059
 30
0.0
 11
97.919604
 21
189.520732
 31
0.0
  0
LINE
  5
15B
100
AcDbEntity
  8
BODEN-3_8
 62
     7
100
AcDbLine
 10
98.543511
 20
189.401187
 30
0.0
 11
98.35851
 21
189.585844
 31
0.0
  0
LINE
  5
15A
100
AcDbEntity
  8
BODEN-3_8
 62
     7
100
AcDbLine
 10
98.945554
 20
189.503506
 30
0.0
 11
98.794659
 21
189.654746
 31
0.0
  0
LINE
  5
159
100
AcDbEntity
  8
BODEN-3_8
 62
     7
100
AcDbLine
 10
98.99413
 20
190.464171
 30
0.0
 11
98.627227
 21
190.830901
 31
0.0
  0
LINE
  5
158
100
AcDbEntity
  8
BODEN-3_8
 62
     7
100
AcDbLine
 10
95.547312
 20
190.883611
 30
0.0
 11
94.795936
 21
191.634987
 31
0.0
  0
LINE
  5
157
100
AcDbEntity
  8
BODEN-3_8
 62
     7
100
AcDbLine
 10
96.101283
 20
190.834174
 30
0.0
 11
95.397795
 21
191.537663
 31
0.0
  0
LINE
  5
156
100
AcDbEntity
  8
BODEN-3_8
 62
     7
100
AcDbLine
 10
96.662834
 20
190.777158
 30
0.0
 11
96.013089
 21
191.427247
 31
0.0
  0
LINE
  5
155
100
AcDbEntity
  8
BODEN-3_8
 62
     7
100
AcDbLine
 10
97.232652
 20
190.711873
 30
0.0
 11
96.642163
 21
191.302535
 31
0.0
  0
LINE
  5
154
100
AcDbEntity
  8
BODEN-3_8
 62
     7
100
AcDbLine
 10
98.397784
 20
190.555983
 30
0.0
 11
97.947854
 21
191.005912
 31
0.0
  0
LINE
  5
153
100
AcDbEntity
  8
BODEN-3_8
 62
     7
100
AcDbLine
 10
99.744816
 20
189.713657
 30
0.0
 11
99.655244
 21
189.802885
 31
0.0
  0
LINE
  5
152
100
AcDbEntity
  8
BODEN-3_8
 62
     7
100
AcDbLine
 10
100.216794
 20
190.250747
 30
0.0
 11
100.050052
 21
190.417662
 31
0.0
  0
LINE
  5
151
100
AcDbEntity
  8
BODEN-3_8
 62
     7
100
AcDbLine
 10
100.141691
 20
189.821144
 30
0.0
 11
100.080713
 21
189.882122
 31
0.0
  0
LINE
  5
150
100
AcDbEntity
  8
BODEN-3_8
 62
     7
100
AcDbLine
 10
100.930273
 20
190.041802
 30
0.0
 11
100.921661
 21
190.050415
 31
0.0
  0
LINE
  5
14F
100
AcDbEntity
  8
BODEN-3_8
 62
     7
100
AcDbLine
 10
100.844491
 20
190.127585
 30
0.0
 11
100.797982
 21
190.174094
 31
0.0
  0
LINE
  5
14E
100
AcDbEntity
  8
BODEN-3_8
 62
     7
100
AcDbLine
 10
103.680838
 20
115.952268
 30
0.0
 11
104.607224
 21
115.026226
 31
0.0
  0
LINE
  5
14D
100
AcDbEntity
  8
BODEN-3_8
 62
     7
100
AcDbLine
 10
103.160628
 20
115.968115
 30
0.0
 11
104.059109
 21
115.069634
 31
0.0
  0
LINE
  5
14C
100
AcDbEntity
  8
BODEN-3_8
 62
     7
100
AcDbLine
 10
103.887199
 20
118.773112
 30
0.0
 11
104.717467
 21
117.942844
 31
0.0
  0
LINE
  5
14B
100
AcDbEntity
  8
BODEN-3_8
 62
     7
100
AcDbLine
 10
98.422588
 20
117.678261
 30
0.0
 11
98.64273
 21
117.458464
 31
0.0
  0
LINE
  5
14A
100
AcDbEntity
  8
BODEN-3_8
 62
     7
100
AcDbLine
 10
103.442782
 20
118.713167
 30
0.0
 11
104.22344
 21
117.932509
 31
0.0
  0
LINE
  5
149
100
AcDbEntity
  8
BODEN-3_8
 62
     7
100
AcDbLine
 10
96.817174
 20
117.265538
 30
0.0
 11
96.906746
 21
117.175966
 31
0.0
  0
LINE
  5
148
100
AcDbEntity
  8
BODEN-3_8
 62
     7
100
AcDbLine
 10
99.23632
 20
117.873942
 30
0.0
 11
99.532254
 21
117.578353
 31
0.0
  0
LINE
  5
147
100
AcDbEntity
  8
BODEN-3_8
 62
     7
100
AcDbLine
 10
98.828421
 20
117.777479
 30
0.0
 11
99.085425
 21
117.520475
 31
0.0
  0
LINE
  5
146
100
AcDbEntity
  8
BODEN-3_8
 62
     7
100
AcDbLine
 10
97.616436
 20
117.475689
 30
0.0
 11
97.767676
 21
117.324105
 31
0.0
  0
LINE
  5
145
100
AcDbEntity
  8
BODEN-3_8
 62
     7
100
AcDbLine
 10
98.018823
 20
117.577664
 30
0.0
 11
98.20348
 21
117.393007
 31
0.0
  0
LINE
  5
144
100
AcDbEntity
  8
BODEN-3_8
 62
     7
100
AcDbLine
 10
96.961868
 20
116.616482
 30
0.0
 11
97.23472
 21
116.343631
 31
0.0
  0
LINE
  5
143
100
AcDbEntity
  8
BODEN-3_8
 62
     7
100
AcDbLine
 10
97.216116
 20
117.371647
 30
0.0
 11
97.335316
 21
117.251758
 31
0.0
  0
LINE
  5
142
100
AcDbEntity
  8
BODEN-3_8
 62
     7
100
AcDbLine
 10
96.420299
 20
117.158051
 30
0.0
 11
96.481622
 21
117.096729
 31
0.0
  0
LINE
  5
141
100
AcDbEntity
  8
BODEN-3_8
 62
     7
100
AcDbLine
 10
97.568205
 20
116.515196
 30
0.0
 11
97.934763
 21
116.147949
 31
0.0
  0
LINE
  5
140
100
AcDbEntity
  8
BODEN-3_8
 62
     7
100
AcDbLine
 10
96.025491
 20
117.048497
 30
0.0
 11
96.059253
 21
117.014735
 31
0.0
  0
LINE
  5
13F
100
AcDbEntity
  8
BODEN-3_8
 62
     7
100
AcDbLine
 10
107.164174
 20
116.001188
 30
0.0
 11
108.212861
 21
114.951812
 31
0.0
  0
LINE
  5
13E
100
AcDbEntity
  8
BODEN-3_8
 62
     7
100
AcDbLine
 10
95.632061
 20
116.937565
 30
0.0
 11
95.640329
 21
116.928608
 31
0.0
  0
LINE
  5
13D
100
AcDbEntity
  8
BODEN-3_8
 62
     7
100
AcDbLine
 10
96.345196
 20
116.728792
 30
0.0
 11
96.512283
 21
116.561361
 31
0.0
  0
LINE
  5
13C
100
AcDbEntity
  8
BODEN-3_8
 62
     7
100
AcDbLine
 10
98.751251
 20
116.340875
 30
0.0
 11
99.275594
 21
115.816531
 31
0.0
  0
LINE
  5
13B
100
AcDbEntity
  8
BODEN-3_8
 62
     7
100
AcDbLine
 10
95.717499
 20
116.851438
 30
0.0
 11
95.764353
 21
116.805273
 31
0.0
  0
LINE
  5
13A
100
AcDbEntity
  8
BODEN-3_8
 62
     7
100
AcDbLine
 10
101.303377
 20
118.330073
 30
0.0
 11
101.824276
 21
117.809174
 31
0.0
  0
LINE
  5
139
100
AcDbEntity
  8
BODEN-3_8
 62
     7
100
AcDbLine
 10
102.634218
 20
115.990164
 30
0.0
 11
103.501693
 21
115.122
 31
0.0
  0
LINE
  5
138
100
AcDbEntity
  8
BODEN-3_8
 62
     7
100
AcDbLine
 10
98.164206
 20
116.422868
 30
0.0
 11
98.61448
 21
115.972938
 31
0.0
  0
LINE
  5
137
100
AcDbEntity
  8
BODEN-3_8
 62
     7
100
AcDbLine
 10
100.885832
 20
118.242567
 30
0.0
 11
101.35781
 21
117.770589
 31
0.0
  0
LINE
  5
136
100
AcDbEntity
  8
BODEN-3_8
 62
     7
100
AcDbLine
 10
100.057286
 20
118.062044
 30
0.0
 11
100.436936
 21
117.682395
 31
0.0
  0
LINE
  5
135
100
AcDbEntity
  8
BODEN-3_8
 62
     7
100
AcDbLine
 10
100.470698
 20
118.152995
 30
0.0
 11
100.895478
 21
117.728559
 31
0.0
  0
LINE
  5
134
100
AcDbEntity
  8
BODEN-3_8
 62
     7
100
AcDbLine
 10
104.796015
 20
118.873709
 30
0.0
 11
105.721023
 21
117.948356
 31
0.0
  0
LINE
  5
133
100
AcDbEntity
  8
BODEN-3_8
 62
     7
100
AcDbLine
 10
99.645942
 20
117.969027
 30
0.0
 11
99.982528
 21
117.632096
 31
0.0
  0
LINE
  5
132
100
AcDbEntity
  8
BODEN-3_8
 62
     7
100
AcDbLine
 10
102.143981
 20
118.498193
 30
0.0
 11
102.770299
 21
117.871875
 31
0.0
  0
LINE
  5
131
100
AcDbEntity
  8
BODEN-3_8
 62
     7
100
AcDbLine
 10
102.571172
 20
118.576053
 30
0.0
 11
103.250201
 21
117.89668
 31
0.0
  0
LINE
  5
130
100
AcDbEntity
  8
BODEN-3_8
 62
     7
100
AcDbLine
 10
103.003876
 20
118.647711
 30
0.0
 11
103.734581
 21
117.916661
 31
0.0
  0
LINE
  5
12F
100
AcDbEntity
  8
BODEN-3_8
 62
     7
100
AcDbLine
 10
101.7161
 20
118.414133
 30
0.0
 11
102.287986
 21
117.842247
 31
0.0
  0
LINE
  5
12E
100
AcDbEntity
  8
BODEN-3_8
 62
     7
100
AcDbLine
 10
102.101261
 20
116.018414
 30
0.0
 11
102.934285
 21
115.18539
 31
0.0
  0
LINE
  5
12D
100
AcDbEntity
  8
BODEN-3_8
 62
     7
100
AcDbLine
 10
101.561759
 20
116.053554
 30
0.0
 11
102.355854
 21
115.259115
 31
0.0
  0
LINE
  5
12C
100
AcDbEntity
  8
BODEN-3_8
 62
     7
100
AcDbLine
 10
101.014678
 20
116.095584
 30
0.0
 11
101.766398
 21
115.343864
 31
0.0
  0
LINE
  5
12B
100
AcDbEntity
  8
BODEN-3_8
 62
     7
100
AcDbLine
 10
100.460707
 20
116.145193
 30
0.0
 11
101.164195
 21
115.441705
 31
0.0
  0
LINE
  5
12A
100
AcDbEntity
  8
BODEN-3_8
 62
     7
100
AcDbLine
 10
99.899156
 20
116.202382
 30
0.0
 11
100.549246
 21
115.551948
 31
0.0
  0
LINE
  5
129
100
AcDbEntity
  8
BODEN-3_8
 62
     7
100
AcDbLine
 10
99.329338
 20
116.26715
 30
0.0
 11
99.920171
 21
115.67666
 31
0.0
  0
LINE
  5
128
100
AcDbEntity
  8
BODEN-3_8
 62
     7
100
AcDbLine
 10
107.694029
 20
119.003244
 30
0.0
 11
108.864673
 21
117.832601
 31
0.0
  0
LINE
  5
127
100
AcDbEntity
  8
BODEN-3_8
 62
     7
100
AcDbLine
 10
108.205971
 20
118.995665
 30
0.0
 11
110.765677
 21
116.435959
 31
0.0
  0
LINE
  5
126
100
AcDbEntity
  8
BODEN-3_8
 62
     7
100
AcDbLine
 10
108.113642
 20
116.060444
 30
0.0
 11
109.169219
 21
115.005556
 31
0.0
  0
LINE
  5
125
100
AcDbEntity
  8
BODEN-3_8
 62
     7
100
AcDbLine
 10
108.581486
 20
116.097651
 30
0.0
 11
109.565061
 21
115.113732
 31
0.0
  0
LINE
  5
124
100
AcDbEntity
  8
BODEN-3_8
 62
     7
100
AcDbLine
 10
104.19519
 20
115.942622
 30
0.0
 11
105.146037
 21
114.991775
 31
0.0
  0
LINE
  5
123
100
AcDbEntity
  8
BODEN-3_8
 62
     7
100
AcDbLine
 10
104.703342
 20
115.939176
 30
0.0
 11
105.676581
 21
114.965592
 31
0.0
  0
LINE
  5
122
100
AcDbEntity
  8
BODEN-3_8
 62
     7
100
AcDbLine
 10
105.205981
 20
115.940554
 30
0.0
 11
106.198858
 21
114.948367
 31
0.0
  0
LINE
  5
121
100
AcDbEntity
  8
BODEN-3_8
 62
     7
100
AcDbLine
 10
105.703453
 20
115.948134
 30
0.0
 11
106.713211
 21
114.938032
 31
0.0
  0
LINE
  5
120
100
AcDbEntity
  8
BODEN-3_8
 62
     7
100
AcDbLine
 10
106.195413
 20
115.960536
 30
0.0
 11
107.219984
 21
114.935965
 31
0.0
  0
LINE
  5
11F
100
AcDbEntity
  8
BODEN-3_8
 62
     7
100
AcDbLine
 10
106.682205
 20
115.978451
 30
0.0
 11
107.720212
 21
114.940788
 31
0.0
  0
LINE
  5
11E
100
AcDbEntity
  8
BODEN-3_8
 62
     7
100
AcDbLine
 10
105.260414
 20
118.914361
 30
0.0
 11
106.230553
 21
117.943533
 31
0.0
  0
LINE
  5
11D
100
AcDbEntity
  8
BODEN-3_8
 62
     7
100
AcDbLine
 10
104.338506
 20
118.826855
 30
0.0
 11
105.217006
 21
117.948356
 31
0.0
  0
LINE
  5
11C
100
AcDbEntity
  8
BODEN-3_8
 62
     7
100
AcDbLine
 10
105.731703
 20
118.947434
 30
0.0
 11
106.745939
 21
117.933198
 31
0.0
  0
LINE
  5
11B
100
AcDbEntity
  8
BODEN-3_8
 62
     7
100
AcDbLine
 10
107.191045
 20
119.001177
 30
0.0
 11
108.326893
 21
117.865674
 31
0.0
  0
LINE
  5
11A
100
AcDbEntity
  8
BODEN-3_8
 62
     7
100
AcDbLine
 10
106.210571
 20
118.972928
 30
0.0
 11
107.266838
 21
117.916661
 31
0.0
  0
LINE
  5
119
100
AcDbEntity
  8
BODEN-3_8
 62
     7
100
AcDbLine
 10
109.040373
 20
116.143126
 30
0.0
 11
109.901302
 21
115.282541
 31
0.0
  0
LINE
  5
118
100
AcDbEntity
  8
BODEN-3_8
 62
     7
100
AcDbLine
 10
107.640975
 20
116.028749
 30
0.0
 11
108.699653
 21
114.970416
 31
0.0
  0
LINE
  5
117
100
AcDbEntity
  8
BODEN-3_8
 62
     7
100
AcDbLine
 10
106.696674
 20
118.991531
 30
0.0
 11
107.793937
 21
117.893924
 31
0.0
  0
LINE
  5
116
100
AcDbEntity
  8
BODEN-3_8
 62
     7
100
AcDbLine
 10
109.697697
 20
116.999577
 30
0.0
 11
110.624083
 21
116.072846
 31
0.0
  0
LINE
  5
115
100
AcDbEntity
  8
BODEN-3_8
 62
     7
100
AcDbLine
 10
108.727558
 20
118.979129
 30
0.0
 11
110.83699
 21
116.869352
 31
0.0
  0
LINE
  5
114
100
AcDbEntity
  8
BODEN-3_8
 62
     7
100
AcDbLine
 10
109.286697
 20
118.924007
 30
0.0
 11
110.789792
 21
117.421257
 31
0.0
  0
LINE
  5
113
100
AcDbEntity
  8
BODEN-3_8
 62
     7
100
AcDbLine
 10
109.605024
 20
116.587543
 30
0.0
 11
110.429435
 21
115.763477
 31
0.0
  0
LINE
  5
112
100
AcDbEntity
  8
BODEN-3_8
 62
     7
100
AcDbLine
 10
109.378681
 20
116.30918
 30
0.0
 11
110.188279
 21
115.499582
 31
0.0
  0
LINE
  5
111
100
AcDbEntity
  8
BODEN-3_8
 62
     7
100
AcDbLine
 10
72.596086
 20
128.085205
 30
0.0
 11
71.36343
 21
129.31786
 31
0.0
  0
LINE
  5
110
100
AcDbEntity
  8
BODEN-3_8
 62
     7
100
AcDbLine
 10
75.159409
 20
128.085205
 30
0.0
 11
71.36343
 21
131.881011
 31
0.0
  0
LINE
  5
10F
100
AcDbEntity
  8
BODEN-3_8
 62
     7
100
AcDbLine
 10
75.44673
 20
130.361035
 30
0.0
 11
71.967356
 21
133.840582
 31
0.0
  0
LINE
  5
10E
100
AcDbEntity
  8
BODEN-3_8
 62
     7
100
AcDbLine
 10
75.44673
 20
132.924186
 30
0.0
 11
71.36343
 21
137.007313
 31
0.0
  0
LINE
  5
10D
100
AcDbEntity
  8
BODEN-3_8
 62
     7
100
AcDbLine
 10
75.44673
 20
135.487337
 30
0.0
 11
71.963394
 21
138.971018
 31
0.0
  0
LINE
  5
10C
100
AcDbEntity
  8
BODEN-3_8
 62
     7
100
AcDbLine
 10
75.44673
 20
138.050488
 30
0.0
 11
71.36343
 21
142.133615
 31
0.0
  0
LINE
  5
10B
100
AcDbEntity
  8
BODEN-3_8
 62
     7
100
AcDbLine
 10
75.44673
 20
140.613639
 30
0.0
 11
71.810259
 21
144.250282
 31
0.0
  0
LINE
  5
10A
100
AcDbEntity
  8
BODEN-3_8
 62
     7
100
AcDbLine
 10
75.44673
 20
143.17679
 30
0.0
 11
71.36343
 21
147.260262
 31
0.0
  0
LINE
  5
109
100
AcDbEntity
  8
BODEN-3_8
 62
     7
100
AcDbLine
 10
75.44673
 20
145.739941
 30
0.0
 11
71.786833
 21
149.400183
 31
0.0
  0
LINE
  5
108
100
AcDbEntity
  8
BODEN-3_8
 62
     7
100
AcDbLine
 10
75.44673
 20
148.303437
 30
0.0
 11
71.36343
 21
152.386736
 31
0.0
  0
LINE
  5
107
100
AcDbEntity
  8
BODEN-3_8
 62
     7
100
AcDbLine
 10
75.44673
 20
150.86676
 30
0.0
 11
71.36343
 21
154.949887
 31
0.0
  0
LINE
  5
106
100
AcDbEntity
  8
BODEN-3_8
 62
     7
100
AcDbLine
 10
75.44673
 20
153.429911
 30
0.0
 11
71.36343
 21
157.513211
 31
0.0
  0
LINE
  5
105
100
AcDbEntity
  8
BODEN-3_8
 62
     7
100
AcDbLine
 10
75.44673
 20
155.993062
 30
0.0
 11
71.36343
 21
160.076534
 31
0.0
  0
LINE
  5
104
100
AcDbEntity
  8
BODEN-3_8
 62
     7
100
AcDbLine
 10
75.44673
 20
158.556213
 30
0.0
 11
71.964427
 21
162.038516
 31
0.0
  0
LINE
  5
103
100
AcDbEntity
  8
BODEN-3_8
 62
     7
100
AcDbLine
 10
75.44673
 20
161.119537
 30
0.0
 11
71.36343
 21
165.202836
 31
0.0
  0
LINE
  5
102
100
AcDbEntity
  8
BODEN-3_8
 62
     7
100
AcDbLine
 10
75.44673
 20
163.68286
 30
0.0
 11
71.701739
 21
167.427851
 31
0.0
  0
LINE
  5
101
100
AcDbEntity
  8
BODEN-3_8
 62
     7
100
AcDbLine
 10
75.44673
 20
166.246011
 30
0.0
 11
71.36343
 21
170.32931
 31
0.0
  0
LINE
  5
100
100
AcDbEntity
  8
BODEN-3_8
 62
     7
100
AcDbLine
 10
75.44673
 20
168.809162
 30
0.0
 11
71.36343
 21
172.892634
 31
0.0
  0
LINE
  5
FF
100
AcDbEntity
  8
BODEN-3_8
 62
     7
100
AcDbLine
 10
75.44673
 20
171.372485
 30
0.0
 11
71.36343
 21
175.455785
 31
0.0
  0
LINE
  5
FE
100
AcDbEntity
  8
BODEN-3_8
 62
     7
100
AcDbLine
 10
75.44673
 20
173.935636
 30
0.0
 11
71.36343
 21
178.018936
 31
0.0
  0
LINE
  5
FD
100
AcDbEntity
  8
BODEN-3_8
 62
     7
100
AcDbLine
 10
75.44673
 20
176.49896
 30
0.0
 11
71.36343
 21
180.582087
 31
0.0
  0
LINE
  5
FC
100
AcDbEntity
  8
BODEN-3_8
 62
     7
100
AcDbLine
 10
75.44673
 20
179.062111
 30
0.0
 11
71.955987
 21
182.553026
 31
0.0
  0
LINE
  5
FB
100
AcDbEntity
  8
BODEN-3_8
 62
     7
100
AcDbLine
 10
75.44673
 20
181.625262
 30
0.0
 11
73.042914
 21
184.029077
 31
0.0
  0
LINE
  5
FA
100
AcDbEntity
  8
BODEN-3_8
 62
     7
100
AcDbLine
 10
121.297333
 20
128.085205
 30
0.0
 11
121.115432
 21
128.267106
 31
0.0
  0
LINE
  5
F9
100
AcDbEntity
  8
BODEN-3_8
 62
     7
100
AcDbLine
 10
123.860484
 20
128.085205
 30
0.0
 11
121.115432
 21
130.830257
 31
0.0
  0
LINE
  5
F8
100
AcDbEntity
  8
BODEN-3_8
 62
     7
100
AcDbLine
 10
125.19856
 20
129.310281
 30
0.0
 11
121.115432
 21
133.393408
 31
0.0
  0
LINE
  5
F7
100
AcDbEntity
  8
BODEN-3_8
 62
     7
100
AcDbLine
 10
125.19856
 20
131.873432
 30
0.0
 11
121.115432
 21
135.956559
 31
0.0
  0
LINE
  5
F6
100
AcDbEntity
  8
BODEN-3_8
 62
     7
100
AcDbLine
 10
124.918818
 20
134.716325
 30
0.0
 11
121.115432
 21
138.51971
 31
0.0
  0
LINE
  5
F5
100
AcDbEntity
  8
BODEN-3_8
 62
     7
100
AcDbLine
 10
125.19856
 20
136.999734
 30
0.0
 11
121.115432
 21
141.083206
 31
0.0
  0
LINE
  5
F4
100
AcDbEntity
  8
BODEN-3_8
 62
     7
100
AcDbLine
 10
124.88919
 20
139.872255
 30
0.0
 11
121.115432
 21
143.646357
 31
0.0
  0
LINE
  5
F3
100
AcDbEntity
  8
BODEN-3_8
 62
     7
100
AcDbLine
 10
125.19856
 20
142.126036
 30
0.0
 11
121.115432
 21
146.209852
 31
0.0
  0
LINE
  5
F2
100
AcDbEntity
  8
BODEN-3_8
 62
     7
100
AcDbLine
 10
124.656302
 20
145.232134
 30
0.0
 11
121.115432
 21
148.772831
 31
0.0
  0
LINE
  5
F1
100
AcDbEntity
  8
BODEN-3_8
 62
     7
100
AcDbLine
 10
125.19856
 20
147.253027
 30
0.0
 11
121.115432
 21
151.335982
 31
0.0
  0
LINE
  5
F0
100
AcDbEntity
  8
BODEN-3_8
 62
     7
100
AcDbLine
 10
124.641143
 20
150.373423
 30
0.0
 11
121.115432
 21
153.899306
 31
0.0
  0
LINE
  5
EF
100
AcDbEntity
  8
BODEN-3_8
 62
     7
100
AcDbLine
 10
125.19856
 20
152.379157
 30
0.0
 11
121.115432
 21
156.462629
 31
0.0
  0
LINE
  5
EE
100
AcDbEntity
  8
BODEN-3_8
 62
     7
100
AcDbLine
 10
125.19856
 20
154.942308
 30
0.0
 11
121.115432
 21
159.02578
 31
0.0
  0
LINE
  5
ED
100
AcDbEntity
  8
BODEN-3_8
 62
     7
100
AcDbLine
 10
125.19856
 20
157.505632
 30
0.0
 11
121.115432
 21
161.588931
 31
0.0
  0
LINE
  5
EC
100
AcDbEntity
  8
BODEN-3_8
 62
     7
100
AcDbLine
 10
125.19856
 20
160.068955
 30
0.0
 11
121.115432
 21
164.152082
 31
0.0
  0
LINE
  5
EB
100
AcDbEntity
  8
BODEN-3_8
 62
     7
100
AcDbLine
 10
124.895391
 20
162.935447
 30
0.0
 11
121.115432
 21
166.715405
 31
0.0
  0
LINE
  5
EA
100
AcDbEntity
  8
BODEN-3_8
 62
     7
100
AcDbLine
 10
125.19856
 20
165.195257
 30
0.0
 11
121.115432
 21
169.278729
 31
0.0
  0
LINE
  5
E9
100
AcDbEntity
  8
BODEN-3_8
 62
     7
100
AcDbLine
 10
124.605314
 20
168.351998
 30
0.0
 11
121.115432
 21
171.84188
 31
0.0
  0
LINE
  5
E8
100
AcDbEntity
  8
BODEN-3_8
 62
     7
100
AcDbLine
 10
125.19856
 20
170.321731
 30
0.0
 11
121.115432
 21
174.405031
 31
0.0
  0
LINE
  5
E7
100
AcDbEntity
  8
BODEN-3_8
 62
     7
100
AcDbLine
 10
125.19856
 20
172.885055
 30
0.0
 11
121.115432
 21
176.968354
 31
0.0
  0
LINE
  5
E6
100
AcDbEntity
  8
BODEN-3_8
 62
     7
100
AcDbLine
 10
125.19856
 20
175.448206
 30
0.0
 11
121.115432
 21
179.531505
 31
0.0
  0
LINE
  5
E5
100
AcDbEntity
  8
BODEN-3_8
 62
     7
100
AcDbLine
 10
125.19856
 20
178.011357
 30
0.0
 11
121.115432
 21
182.094828
 31
0.0
  0
LINE
  5
E4
100
AcDbEntity
  8
BODEN-3_8
 62
     7
100
AcDbLine
 10
125.19856
 20
180.57468
 30
0.0
 11
121.744507
 21
184.029077
 31
0.0
  0
LINE
  5
E3
100
AcDbEntity
  8
BODEN-3_8
 62
     7
100
AcDbLine
 10
125.028372
 20
183.308535
 30
0.0
 11
124.307658
 21
184.029077
 31
0.0
  0
LINE
  5
E2
100
AcDbEntity
  8
BODEN-3_8
 62
     7
100
AcDbLine
 10
41.195246
 20
166.321286
 30
0.0
 11
58.903209
 21
184.029077
 31
0.0
  0
LINE
  5
E1
100
AcDbEntity
  8
BODEN-3_8
 62
     7
100
AcDbLine
 10
41.195246
 20
145.815734
 30
0.0
 11
71.36343
 21
175.983573
 31
0.0
  0
LINE
  5
E0
100
AcDbEntity
  8
BODEN-3_8
 62
     7
100
AcDbLine
 10
43.970615
 20
128.085205
 30
0.0
 11
71.968389
 21
156.082635
 31
0.0
  0
LINE
  5
DF
100
AcDbEntity
  8
BODEN-3_8
 62
     7
100
AcDbLine
 10
64.476512
 20
128.085205
 30
0.0
 11
71.36343
 21
134.971951
 31
0.0
  0
LINE
  5
DE
100
AcDbEntity
  8
BODEN-3_8
 62
     7
100
AcDbLine
 10
124.667326
 20
167.770121
 30
0.0
 11
140.926109
 21
184.029077
 31
0.0
  0
LINE
  5
DD
100
AcDbEntity
  8
BODEN-3_8
 62
     7
100
AcDbLine
 10
125.19856
 20
147.795974
 30
0.0
 11
155.366916
 21
177.963814
 31
0.0
  0
LINE
  5
DC
100
AcDbEntity
  8
BODEN-3_8
 62
     7
100
AcDbLine
 10
125.993688
 20
128.085205
 30
0.0
 11
155.366916
 21
157.458089
 31
0.0
  0
LINE
  5
DB
100
AcDbEntity
  8
BODEN-3_8
 62
     7
100
AcDbLine
 10
146.499585
 20
128.085205
 30
0.0
 11
155.366916
 21
136.952192
 31
0.0
  0
LINE
  5
DA
100
AcDbEntity
  8
BODEN-3_8
 62
     7
100
AcDbLine
 10
41.195246
 20
176.574063
 30
0.0
 11
44.185761
 21
179.564578
 31
0.0
  0
LINE
  5
D9
100
AcDbEntity
  8
BODEN-3_8
 62
     7
100
AcDbLine
 10
46.748912
 20
182.127729
 30
0.0
 11
48.65026
 21
184.029077
 31
0.0
  0
LINE
  5
D8
100
AcDbEntity
  8
BODEN-3_8
 62
     7
100
AcDbLine
 10
41.622438
 20
156.49553
 30
0.0
 11
46.748912
 21
161.622004
 31
0.0
  0
LINE
  5
D7
100
AcDbEntity
  8
BODEN-3_8
 62
     7
100
AcDbLine
 10
49.312063
 20
164.185155
 30
0.0
 11
54.438538
 21
169.311629
 31
0.0
  0
LINE
  5
D6
100
AcDbEntity
  8
BODEN-3_8
 62
     7
100
AcDbLine
 10
57.001861
 20
171.874953
 30
0.0
 11
62.128163
 21
177.001255
 31
0.0
  0
LINE
  5
D5
100
AcDbEntity
  8
BODEN-3_8
 62
     7
100
AcDbLine
 10
64.691486
 20
179.564578
 30
0.0
 11
69.155986
 21
184.029077
 31
0.0
  0
LINE
  5
D4
100
AcDbEntity
  8
BODEN-3_8
 62
     7
100
AcDbLine
 10
41.195246
 20
135.56244
 30
0.0
 11
41.622438
 21
135.989632
 31
0.0
  0
LINE
  5
D3
100
AcDbEntity
  8
BODEN-3_8
 62
     7
100
AcDbLine
 10
44.185761
 20
138.552783
 30
0.0
 11
49.312063
 21
143.67943
 31
0.0
  0
LINE
  5
D2
100
AcDbEntity
  8
BODEN-3_8
 62
     7
100
AcDbLine
 10
51.875387
 20
146.242581
 30
0.0
 11
57.001861
 21
151.369055
 31
0.0
  0
LINE
  5
D1
100
AcDbEntity
  8
BODEN-3_8
 62
     7
100
AcDbLine
 10
59.565012
 20
153.932206
 30
0.0
 11
64.691486
 21
159.058853
 31
0.0
  0
LINE
  5
D0
100
AcDbEntity
  8
BODEN-3_8
 62
     7
100
AcDbLine
 10
67.254637
 20
161.622004
 30
0.0
 11
71.36343
 21
165.730625
 31
0.0
  0
LINE
  5
CF
100
AcDbEntity
  8
BODEN-3_8
 62
     7
100
AcDbLine
 10
54.438538
 20
128.300179
 30
0.0
 11
59.565012
 21
133.426481
 31
0.0
  0
LINE
  5
CE
100
AcDbEntity
  8
BODEN-3_8
 62
     7
100
AcDbLine
 10
62.128163
 20
135.989632
 30
0.0
 11
67.254637
 21
141.115934
 31
0.0
  0
LINE
  5
CD
100
AcDbEntity
  8
BODEN-3_8
 62
     7
100
AcDbLine
 10
69.817961
 20
143.67943
 30
0.0
 11
71.720515
 21
145.582156
 31
0.0
  0
LINE
  5
CC
100
AcDbEntity
  8
BODEN-3_8
 62
     7
100
AcDbLine
 10
126.208662
 20
179.564578
 30
0.0
 11
130.673505
 21
184.029077
 31
0.0
  0
LINE
  5
CB
100
AcDbEntity
  8
BODEN-3_8
 62
     7
100
AcDbLine
 10
125.19856
 20
158.048579
 30
0.0
 11
126.208662
 21
159.058853
 31
0.0
  0
LINE
  5
CA
100
AcDbEntity
  8
BODEN-3_8
 62
     7
100
AcDbLine
 10
128.772157
 20
161.622004
 30
0.0
 11
133.898459
 21
166.748306
 31
0.0
  0
LINE
  5
C9
100
AcDbEntity
  8
BODEN-3_8
 62
     7
100
AcDbLine
 10
136.461955
 20
169.311629
 30
0.0
 11
141.588257
 21
174.438104
 31
0.0
  0
LINE
  5
C8
100
AcDbEntity
  8
BODEN-3_8
 62
     7
100
AcDbLine
 10
144.151408
 20
177.001255
 30
0.0
 11
149.27771
 21
182.127729
 31
0.0
  0
LINE
  5
C7
100
AcDbEntity
  8
BODEN-3_8
 62
     7
100
AcDbLine
 10
125.19856
 20
137.542681
 30
0.0
 11
128.772157
 21
141.115934
 31
0.0
  0
LINE
  5
C6
100
AcDbEntity
  8
BODEN-3_8
 62
     7
100
AcDbLine
 10
131.335308
 20
143.67943
 30
0.0
 11
136.461955
 21
148.805904
 31
0.0
  0
LINE
  5
C5
100
AcDbEntity
  8
BODEN-3_8
 62
     7
100
AcDbLine
 10
139.025106
 20
151.369055
 30
0.0
 11
144.151408
 21
156.49553
 31
0.0
  0
LINE
  5
C4
100
AcDbEntity
  8
BODEN-3_8
 62
     7
100
AcDbLine
 10
146.714559
 20
159.058853
 30
0.0
 11
151.841206
 21
164.185155
 31
0.0
  0
LINE
  5
C3
100
AcDbEntity
  8
BODEN-3_8
 62
     7
100
AcDbLine
 10
154.404357
 20
166.748306
 30
0.0
 11
155.366916
 21
167.710866
 31
0.0
  0
LINE
  5
C2
100
AcDbEntity
  8
BODEN-3_8
 62
     7
100
AcDbLine
 10
136.246981
 20
128.085205
 30
0.0
 11
139.025106
 21
130.86333
 31
0.0
  0
LINE
  5
C1
100
AcDbEntity
  8
BODEN-3_8
 62
     7
100
AcDbLine
 10
141.588257
 20
133.426481
 30
0.0
 11
146.714559
 21
138.552783
 31
0.0
  0
LINE
  5
C0
100
AcDbEntity
  8
BODEN-3_8
 62
     7
100
AcDbLine
 10
149.27771
 20
141.115934
 30
0.0
 11
154.404357
 21
146.242581
 31
0.0
  0
LINE
  5
BF
100
AcDbEntity
  8
BODEN-3_8
  6
AI9-LType2
 62
     7
100
AcDbLine
 10
80.426443
 20
129.75332
 30
0.0
 11
80.426443
 21
143.24707
 31
0.0
  0
LINE
  5
BE
100
AcDbEntity
  8
BODEN-3_8
  6
AI9-LType2
 62
     7
100
AcDbLine
 10
116.047697
 20
129.841515
 30
0.0
 11
116.047697
 21
143.048633
 31
0.0
  0
LINE
  5
BC
100
AcDbEntity
  8
BODEN-3_8
  6
AI9-LType1
 62
     7
100
AcDbLine
 10
98.280995
 20
194.344038
 30
0.0
 11
98.280995
 21
112.786225
 31
0.0
  0
SPLINE
  5
BA
100
AcDbEntity
  8
BODEN-3_8
 62
     7
100
AcDbSpline
210
0.0
220
0.0
230
1.0
 70
     8
 71
     3
 72
    11
 73
     7
 74
     0
 42
0.00000001
 43
0.00000001
 40
0.0
 40
0.0
 40
0.0
 40
0.0
 40
1.0
 40
1.0
 40
1.0
 40
2.0
 40
2.0
 40
2.0
 40
2.0
 10
125.19855957031248
 20
169.23325330946179
 30
0.0
 10
124.62012803819444
 20
168.89907904730902
 30
0.0
 10
124.42169053819444
 20
168.15924479166665
 30
0.0
 10
124.75586480034721
 20
167.58064100477429
 30
0.0
 10
124.86197374131943
 20
167.39667290581596
 30
0.0
 10
125.01459147135415
 20
167.24405517578123
 30
0.0
 10
125.19855957031248
 20
167.13777398003469
 30
0.0
  0
LINE
  5
B9
100
AcDbEntity
  8
BODEN-3_8
 62
     7
100
AcDbLine
 10
125.19856
 20
161.088359
 30
0.0
 11
125.19856
 21
157.134595
 31
0.0
  0
SPLINE
  5
B8
100
AcDbEntity
  8
BODEN-3_8
 62
     7
100
AcDbSpline
210
0.0
220
0.0
230
1.0
 70
     8
 71
     3
 72
    11
 73
     7
 74
     0
 42
0.00000001
 43
0.00000001
 40
0.0
 40
0.0
 40
0.0
 40
0.0
 40
1.0
 40
1.0
 40
1.0
 40
2.0
 40
2.0
 40
2.0
 40
2.0
 10
125.19855957031248
 20
163.1840101453993
 30
0.0
 10
124.62012803819444
 20
162.84983588324653
 30
0.0
 10
124.42169053819444
 20
162.10982937282984
 30
0.0
 10
124.75586480034721
 20
161.53122558593748
 30
0.0
 10
124.86197374131943
 20
161.34725748697915
 30
0.0
 10
125.01459147135415
 20
161.19446750217011
 30
0.0
 10
125.19855957031248
 20
161.08835856119791
 30
0.0
  0
SPLINE
  5
B7
100
AcDbEntity
  8
BODEN-3_8
 62
     7
100
AcDbSpline
210
0.0
220
0.0
230
1.0
 70
     8
 71
     3
 72
    11
 73
     7
 74
     0
 42
0.00000001
 43
0.00000001
 40
0.0
 40
0.0
 40
0.0
 40
0.0
 40
1.0
 40
1.0
 40
1.0
 40
2.0
 40
2.0
 40
2.0
 40
2.0
 10
125.19855957031248
 20
151.08517930772567
 30
0.0
 10
124.62012803819444
 20
150.7510050455729
 30
0.0
 10
124.42169053819444
 20
150.01117078993053
 30
0.0
 10
124.75586480034721
 20
149.43256700303817
 30
0.0
 10
124.86197374131943
 20
149.24859890407984
 30
0.0
 10
125.01459147135415
 20
149.09580891927081
 30
0.0
 10
125.19855957031248
 20
148.9895277235243
 30
0.0
  0
LINE
  5
B6
100
AcDbEntity
  8
BODEN-3_8
 62
     7
100
AcDbLine
 10
125.19856
 20
167.137774
 30
0.0
 11
125.19856
 21
163.18401
 31
0.0
  0
SPLINE
  5
B5
100
AcDbEntity
  8
BODEN-3_8
 62
     7
100
AcDbSpline
210
0.0
220
0.0
230
1.0
 70
     8
 71
     3
 72
    11
 73
     7
 74
     0
 42
0.00000001
 43
0.00000001
 40
0.0
 40
0.0
 40
0.0
 40
0.0
 40
1.0
 40
1.0
 40
1.0
 40
2.0
 40
2.0
 40
2.0
 40
2.0
 10
125.19855957031248
 20
175.2826687282986
 30
0.0
 10
124.62012803819444
 20
174.94866672092013
 30
0.0
 10
124.42169053819444
 20
174.20866021050347
 30
0.0
 10
124.75586480034721
 20
173.62988416883678
 30
0.0
 10
124.86197374131943
 20
173.44591606987845
 30
0.0
 10
125.01459147135415
 20
173.29329833984374
 30
0.0
 10
125.19855957031248
 20
173.18718939887151
 30
0.0
  0
LINE
  5
B4
100
AcDbEntity
  8
BODEN-3_8
 62
     7
100
AcDbLine
 10
125.19856
 20
184.029077
 30
0.0
 11
125.19856
 21
183.427563
 31
0.0
  0
LINE
  5
B3
100
AcDbEntity
  8
BODEN-3_8
 62
     7
100
AcDbLine
 10
125.19856
 20
173.187189
 30
0.0
 11
125.19856
 21
169.233253
 31
0.0
  0
SPLINE
  5
B2
100
AcDbEntity
  8
BODEN-3_8
 62
     7
100
AcDbSpline
210
0.0
220
0.0
230
1.0
 70
     8
 71
     3
 72
    11
 73
     7
 74
     0
 42
0.00000001
 43
0.00000001
 40
0.0
 40
0.0
 40
0.0
 40
0.0
 40
1.0
 40
1.0
 40
1.0
 40
2.0
 40
2.0
 40
2.0
 40
2.0
 10
125.19855957031248
 20
157.13459472656248
 30
0.0
 10
124.62012803819444
 20
156.80059271918401
 30
0.0
 10
124.42169053819444
 20
156.06058620876735
 30
0.0
 10
124.75586480034721
 20
155.48181016710069
 30
0.0
 10
124.86197374131943
 20
155.29784206814236
 30
0.0
 10
125.01459147135415
 20
155.14522433810762
 30
0.0
 10
125.19855957031248
 20
155.03911539713539
 30
0.0
  0
LINE
  5
B1
100
AcDbEntity
  8
BODEN-3_8
 62
     7
100
AcDbLine
 10
125.19856
 20
155.039115
 30
0.0
 11
125.19856
 21
151.085179
 31
0.0
  0
LINE
  5
B0
100
AcDbEntity
  8
BODEN-3_8
 62
     7
100
AcDbLine
 10
125.19856
 20
143.800353
 30
0.0
 11
125.19856
 21
140.127881
 31
0.0
  0
LINE
  5
AF
100
AcDbEntity
  8
BODEN-3_8
 62
     7
100
AcDbLine
 10
125.19856
 20
148.989528
 30
0.0
 11
125.19856
 21
145.896349
 31
0.0
  0
SPLINE
  5
AE
100
AcDbEntity
  8
BODEN-3_8
 62
     7
100
AcDbSpline
210
0.0
220
0.0
230
1.0
 70
     8
 71
     3
 72
    11
 73
     7
 74
     0
 42
0.00000001
 43
0.00000001
 40
0.0
 40
0.0
 40
0.0
 40
0.0
 40
1.0
 40
1.0
 40
1.0
 40
2.0
 40
2.0
 40
2.0
 40
2.0
 10
125.19855957031248
 20
140.12788085937498
 30
0.0
 10
124.62012803819444
 20
139.79370659722221
 30
0.0
 10
124.42169053819444
 20
139.05370008680555
 30
0.0
 10
124.75586480034721
 20
138.47492404513886
 30
0.0
 10
124.86197374131943
 20
138.29164496527775
 30
0.0
 10
125.01459147135415
 20
138.13868272569442
 30
0.0
 10
125.19855957031248
 20
138.03257378472222
 30
0.0
  0
SPLINE
  5
AD
100
AcDbEntity
  8
BODEN-3_8
 62
     7
100
AcDbSpline
210
0.0
220
0.0
230
1.0
 70
     8
 71
     3
 72
    11
 73
     7
 74
     0
 42
0.00000001
 43
0.00000001
 40
0.0
 40
0.0
 40
0.0
 40
0.0
 40
1.0
 40
1.0
 40
1.0
 40
2.0
 40
2.0
 40
2.0
 40
2.0
 10
125.19855957031248
 20
145.89634874131943
 30
0.0
 10
124.62012803819444
 20
145.56217447916666
 30
0.0
 10
124.42169053819444
 20
144.82216796874999
 30
0.0
 10
124.75586480034721
 20
144.24339192708331
 30
0.0
 10
124.86197374131943
 20
144.05942382812498
 30
0.0
 10
125.01459147135415
 20
143.90646158854165
 30
0.0
 10
125.19855957031248
 20
143.80035264756944
 30
0.0
  0
SPLINE
  5
AC
100
AcDbEntity
  8
BODEN-3_8
 62
     7
100
AcDbSpline
210
0.0
220
0.0
230
1.0
 70
     8
 71
     3
 72
    11
 73
     7
 74
     0
 42
0.00000001
 43
0.00000001
 40
0.0
 40
0.0
 40
0.0
 40
0.0
 40
1.0
 40
1.0
 40
1.0
 40
2.0
 40
2.0
 40
2.0
 40
2.0
 10
125.19855957031248
 20
134.93887803819445
 30
0.0
 10
124.62012803819444
 20
134.60470377604165
 30
0.0
 10
124.42169053819444
 20
133.86469726562498
 30
0.0
 10
124.75586480034721
 20
133.28592122395833
 30
0.0
 10
124.86197374131943
 20
133.10195312499999
 30
0.0
 10
125.01459147135415
 20
132.94967990451389
 30
0.0
 10
125.19855957031248
 20
132.84357096354165
 30
0.0
  0
LINE
  5
AB
100
AcDbEntity
  8
BODEN-3_8
 62
     7
100
AcDbLine
 10
125.19856
 20
128.085205
 30
0.0
 11
125.19856
 21
132.843571
 31
0.0
  0
LINE
  5
AA
100
AcDbEntity
  8
BODEN-3_8
 62
     7
100
AcDbLine
 10
125.19856
 20
138.032574
 30
0.0
 11
125.19856
 21
134.938878
 31
0.0
  0
SPLINE
  5
A9
100
AcDbEntity
  8
BODEN-3_8
 62
     7
100
AcDbSpline
210
0.0
220
0.0
230
1.0
 70
     8
 71
     3
 72
    11
 73
     7
 74
     0
 42
0.00000001
 43
0.00000001
 40
0.0
 40
0.0
 40
0.0
 40
0.0
 40
1.0
 40
1.0
 40
1.0
 40
2.0
 40
2.0
 40
2.0
 40
2.0
 10
125.19855957031248
 20
183.42756347656248
 30
0.0
 10
124.62012803819444
 20
183.09356146918401
 30
0.0
 10
124.42169053819444
 20
182.35355495876735
 30
0.0
 10
124.75586480034721
 20
181.77477891710069
 30
0.0
 10
124.86197374131943
 20
181.59098307291666
 30
0.0
 10
125.01459147135415
 20
181.43819308810762
 30
0.0
 10
125.19855957031248
 20
181.33208414713539
 30
0.0
  0
LINE
  5
A8
100
AcDbEntity
  8
BODEN-3_8
 62
     7
100
AcDbLine
 10
125.19856
 20
181.332084
 30
0.0
 11
125.19856
 21
175.282669
 31
0.0
  0
SPLINE
  5
A7
100
AcDbEntity
  8
BODEN-3_8
 62
     7
100
AcDbSpline
210
0.0
220
0.0
230
1.0
 70
     8
 71
     3
 72
    11
 73
     7
 74
     0
 42
0.00000001
 43
0.00000001
 40
0.0
 40
0.0
 40
0.0
 40
0.0
 40
1.0
 40
1.0
 40
1.0
 40
2.0
 40
2.0
 40
2.0
 40
2.0
 10
71.3634304470486
 20
167.13777398003469
 30
0.0
 10
71.942206488715271
 20
167.47177598741317
 30
0.0
 10
72.140299479166657
 20
168.21178249782986
 30
0.0
 10
71.806297471788184
 20
168.79055853949652
 30
0.0
 10
71.700016276041666
 20
168.97435438368055
 30
0.0
 10
71.547398546006931
 20
169.12714436848958
 30
0.0
 10
71.3634304470486
 20
169.23325330946179
 30
0.0
  0
LINE
  5
A6
100
AcDbEntity
  8
BODEN-3_8
 62
     7
100
AcDbLine
 10
71.36343
 20
161.088359
 30
0.0
 11
71.36343
 21
157.134595
 31
0.0
  0
SPLINE
  5
A5
100
AcDbEntity
  8
BODEN-3_8
 62
     7
100
AcDbSpline
210
0.0
220
0.0
230
1.0
 70
     8
 71
     3
 72
    11
 73
     7
 74
     0
 42
0.00000001
 43
0.00000001
 40
0.0
 40
0.0
 40
0.0
 40
0.0
 40
1.0
 40
1.0
 40
1.0
 40
2.0
 40
2.0
 40
2.0
 40
2.0
 10
71.3634304470486
 20
161.08835856119791
 30
0.0
 10
71.942206488715271
 20
161.42253282335068
 30
0.0
 10
72.140299479166657
 20
162.16253933376734
 30
0.0
 10
71.806297471788184
 20
162.7409708658854
 30
0.0
 10
71.700016276041666
 20
162.92493896484373
 30
0.0
 10
71.547398546006931
 20
163.07772894965277
 30
0.0
 10
71.3634304470486
 20
163.1840101453993
 30
0.0
  0
SPLINE
  5
A4
100
AcDbEntity
  8
BODEN-3_8
 62
     7
100
AcDbSpline
210
0.0
220
0.0
230
1.0
 70
     8
 71
     3
 72
    11
 73
     7
 74
     0
 42
0.00000001
 43
0.00000001
 40
0.0
 40
0.0
 40
0.0
 40
0.0
 40
1.0
 40
1.0
 40
1.0
 40
2.0
 40
2.0
 40
2.0
 40
2.0
 10
71.3634304470486
 20
148.9895277235243
 30
0.0
 10
71.942206488715271
 20
149.32370198567708
 30
0.0
 10
72.140299479166657
 20
150.06370849609374
 30
0.0
 10
71.806297471788184
 20
150.6424845377604
 30
0.0
 10
71.700016276041666
 20
150.82628038194443
 30
0.0
 10
71.547398546006931
 20
150.97907036675346
 30
0.0
 10
71.3634304470486
 20
151.08517930772567
 30
0.0
  0
LINE
  5
A3
100
AcDbEntity
  8
BODEN-3_8
 62
     7
100
AcDbLine
 10
71.36343
 20
167.137774
 30
0.0
 11
71.36343
 21
163.18401
 31
0.0
  0
SPLINE
  5
A2
100
AcDbEntity
  8
BODEN-3_8
 62
     7
100
AcDbSpline
210
0.0
220
0.0
230
1.0
 70
     8
 71
     3
 72
    11
 73
     7
 74
     0
 42
0.00000001
 43
0.00000001
 40
0.0
 40
0.0
 40
0.0
 40
0.0
 40
1.0
 40
1.0
 40
1.0
 40
2.0
 40
2.0
 40
2.0
 40
2.0
 10
71.3634304470486
 20
173.18718939887151
 30
0.0
 10
71.942206488715271
 20
173.52119140624998
 30
0.0
 10
72.140299479166657
 20
174.26102566189235
 30
0.0
 10
71.806297471788184
 20
174.839801703559
 30
0.0
 10
71.700016276041666
 20
175.02376980251734
 30
0.0
 10
71.547398546006931
 20
175.17638753255207
 30
0.0
 10
71.3634304470486
 20
175.2826687282986
 30
0.0
  0
LINE
  5
A1
100
AcDbEntity
  8
BODEN-3_8
 62
     7
100
AcDbLine
 10
71.36343
 20
184.029077
 30
0.0
 11
71.36343
 21
183.427563
 31
0.0
  0
LINE
  5
A0
100
AcDbEntity
  8
BODEN-3_8
 62
     7
100
AcDbLine
 10
71.36343
 20
181.332084
 30
0.0
 11
71.36343
 21
175.282669
 31
0.0
  0
LINE
  5
9F
100
AcDbEntity
  8
BODEN-3_8
 62
     7
100
AcDbLine
 10
71.36343
 20
173.187189
 30
0.0
 11
71.36343
 21
169.233253
 31
0.0
  0
SPLINE
  5
9E
100
AcDbEntity
  8
BODEN-3_8
 62
     7
100
AcDbSpline
210
0.0
220
0.0
230
1.0
 70
     8
 71
     3
 72
    11
 73
     7
 74
     0
 42
0.00000001
 43
0.00000001
 40
0.0
 40
0.0
 40
0.0
 40
0.0
 40
1.0
 40
1.0
 40
1.0
 40
2.0
 40
2.0
 40
2.0
 40
2.0
 10
71.3634304470486
 20
155.03911539713539
 30
0.0
 10
71.942206488715271
 20
155.37311740451386
 30
0.0
 10
72.140299479166657
 20
156.11295166015623
 30
0.0
 10
71.806297471788184
 20
156.69172770182291
 30
0.0
 10
71.700016276041666
 20
156.87569580078124
 30
0.0
 10
71.547398546006931
 20
157.02831353081595
 30
0.0
 10
71.3634304470486
 20
157.13459472656248
 30
0.0
  0
LINE
  5
9D
100
AcDbEntity
  8
BODEN-3_8
 62
     7
100
AcDbLine
 10
71.36343
 20
155.039115
 30
0.0
 11
71.36343
 21
151.085179
 31
0.0
  0
LINE
  5
9C
100
AcDbEntity
  8
BODEN-3_8
 62
     7
100
AcDbLine
 10
71.36343
 20
143.800353
 30
0.0
 11
71.36343
 21
140.127881
 31
0.0
  0
LINE
  5
9B
100
AcDbEntity
  8
BODEN-3_8
 62
     7
100
AcDbLine
 10
71.36343
 20
148.989528
 30
0.0
 11
71.36343
 21
145.896349
 31
0.0
  0
SPLINE
  5
9A
100
AcDbEntity
  8
BODEN-3_8
 62
     7
100
AcDbSpline
210
0.0
220
0.0
230
1.0
 70
     8
 71
     3
 72
    11
 73
     7
 74
     0
 42
0.00000001
 43
0.00000001
 40
0.0
 40
0.0
 40
0.0
 40
0.0
 40
1.0
 40
1.0
 40
1.0
 40
2.0
 40
2.0
 40
2.0
 40
2.0
 10
71.3634304470486
 20
138.03257378472222
 30
0.0
 10
71.942206488715271
 20
138.36674804687499
 30
0.0
 10
72.140299479166657
 20
139.10675455729165
 30
0.0
 10
71.806297471788184
 20
139.68484157986109
 30
0.0
 10
71.700016276041666
 20
139.86880967881945
 30
0.0
 10
71.547398546006931
 20
140.02177191840278
 30
0.0
 10
71.3634304470486
 20
140.12788085937498
 30
0.0
  0
SPLINE
  5
99
100
AcDbEntity
  8
BODEN-3_8
 62
     7
100
AcDbSpline
210
0.0
220
0.0
230
1.0
 70
     8
 71
     3
 72
    11
 73
     7
 74
     0
 42
0.00000001
 43
0.00000001
 40
0.0
 40
0.0
 40
0.0
 40
0.0
 40
1.0
 40
1.0
 40
1.0
 40
2.0
 40
2.0
 40
2.0
 40
2.0
 10
71.3634304470486
 20
143.80035264756944
 30
0.0
 10
71.942206488715271
 20
144.13452690972221
 30
0.0
 10
72.140299479166657
 20
144.87453342013887
 30
0.0
 10
71.806297471788184
 20
145.45330946180553
 30
0.0
 10
71.700016276041666
 20
145.63727756076386
 30
0.0
 10
71.547398546006931
 20
145.7898952907986
 30
0.0
 10
71.3634304470486
 20
145.89634874131943
 30
0.0
  0
SPLINE
  5
98
100
AcDbEntity
  8
BODEN-3_8
 62
     7
100
AcDbSpline
210
0.0
220
0.0
230
1.0
 70
     8
 71
     3
 72
    11
 73
     7
 74
     0
 42
0.00000001
 43
0.00000001
 40
0.0
 40
0.0
 40
0.0
 40
0.0
 40
1.0
 40
1.0
 40
1.0
 40
2.0
 40
2.0
 40
2.0
 40
2.0
 10
71.3634304470486
 20
132.84357096354165
 30
0.0
 10
71.942206488715271
 20
133.17774522569442
 30
0.0
 10
72.140299479166657
 20
133.91706271701386
 30
0.0
 10
71.806297471788184
 20
134.49583875868055
 30
0.0
 10
71.700016276041666
 20
134.67980685763888
 30
0.0
 10
71.547398546006931
 20
134.83276909722221
 30
0.0
 10
71.3634304470486
 20
134.93887803819445
 30
0.0
  0
LINE
  5
97
100
AcDbEntity
  8
BODEN-3_8
 62
     7
100
AcDbLine
 10
71.36343
 20
128.085205
 30
0.0
 11
71.36343
 21
132.843571
 31
0.0
  0
LINE
  5
96
100
AcDbEntity
  8
BODEN-3_8
 62
     7
100
AcDbLine
 10
71.36343
 20
138.032574
 30
0.0
 11
71.36343
 21
134.938878
 31
0.0
  0
SPLINE
  5
95
100
AcDbEntity
  8
BODEN-3_8
 62
     7
100
AcDbSpline
210
0.0
220
0.0
230
1.0
 70
     8
 71
     3
 72
    11
 73
     7
 74
     0
 42
0.00000001
 43
0.00000001
 40
0.0
 40
0.0
 40
0.0
 40
0.0
 40
1.0
 40
1.0
 40
1.0
 40
2.0
 40
2.0
 40
2.0
 40
2.0
 10
71.3634304470486
 20
181.33208414713539
 30
0.0
 10
71.942206488715271
 20
181.66608615451386
 30
0.0
 10
72.140299479166657
 20
182.40609266493053
 30
0.0
 10
71.806297471788184
 20
182.98469645182291
 30
0.0
 10
71.700016276041666
 20
183.16866455078124
 30
0.0
 10
71.547398546006931
 20
183.32128228081595
 30
0.0
 10
71.3634304470486
 20
183.42756347656248
 30
0.0
  0
LINE
  5
94
100
AcDbEntity
  8
BODEN-3_8
 62
     7
100
AcDbLine
 10
72.978663
 20
133.507785
 30
0.0
 11
67.229316
 21
90.989106
 31
0.0
  0
LINE
  5
93
100
AcDbEntity
  8
BODEN-3_8
 62
     7
100
AcDbLine
 10
116.047697
 20
133.572553
 30
0.0
 11
130.947735
 21
95.006087
 31
0.0
  0
MTEXT
  5
92
100
AcDbEntity
  8
BODEN-3_8
 62
     7
100
AcDbMText
 10
41.498931
 20
91.884486
 30
0.0
 40
5.512152
 41
0.0
 71
     1
 72
     2
  1
\fArial|b0|i0;\H5.5122;\C7;\U+0046\U+0075\U+0074\U+0074\U+0065\U+0072\U+0072\U+006F\U+0068\U+0072
  7
STD
210
0.0
220
0.0
230
1.0
 73
     1
 44
1.0
  0
LINE
  5
91
100
AcDbEntity
  8
BODEN-3_8
 62
     7
100
AcDbLine
 10
41.195246
 20
184.029077
 30
0.0
 11
85.722244
 21
184.029077
 31
0.0
  0
LINE
  5
90
100
AcDbEntity
  8
BODEN-3_8
 62
     7
100
AcDbLine
 10
110.840091
 20
184.029077
 30
0.0
 11
155.366916
 21
184.029077
 31
0.0
  0
LINE
  5
8F
100
AcDbEntity
  8
BODEN-3_8
 62
     7
100
AcDbLine
 10
155.366916
 20
128.085205
 30
0.0
 11
110.840091
 21
128.085205
 31
0.0
  0
LINE
  5
8E
100
AcDbEntity
  8
BODEN-3_8
 62
     7
100
AcDbLine
 10
85.722244
 20
128.085205
 30
0.0
 11
41.195246
 21
128.085205
 31
0.0
  0
LINE
  5
8D
100
AcDbEntity
  8
BODEN-3_8
 62
     7
100
AcDbLine
 10
121.115432
 20
178.896057
 30
0.0
 11
121.115432
 21
128.085205
 31
0.0
  0
LINE
  5
8C
100
AcDbEntity
  8
BODEN-3_8
 62
     7
100
AcDbLine
 10
85.722244
 20
131.843804
 30
0.0
 11
85.722244
 21
116.97615
 31
0.0
  0
LINE
  5
8B
100
AcDbEntity
  8
BODEN-3_8
 62
     7
100
AcDbLine
 10
85.722244
 20
190.0027
 30
0.0
 11
85.722244
 21
140.064491
 31
0.0
  0
LINE
  5
8A
100
AcDbEntity
  8
BODEN-3_8
 62
     7
100
AcDbLine
 10
110.840091
 20
190.0027
 30
0.0
 11
110.840091
 21
140.064491
 31
0.0
  0
LINE
  5
89
100
AcDbEntity
  8
BODEN-3_8
 62
     7
100
AcDbLine
 10
110.840091
 20
131.843804
 30
0.0
 11
110.840091
 21
116.97615
 31
0.0
  0
SPLINE
  5
88
100
AcDbEntity
  8
BODEN-3_8
 62
     7
100
AcDbSpline
210
0.0
220
0.0
230
1.0
 70
     8
 71
     3
 72
     8
 73
     4
 74
     0
 42
0.00000001
 43
0.00000001
 40
0.0
 40
0.0
 40
0.0
 40
0.0
 40
1.0
 40
1.0
 40
1.0
 40
1.0
 10
101.06876627604166
 20
190.08142089843747
 30
0.0
 10
96.731391059027771
 20
191.5857218424479
 30
0.0
 10
92.143901909722217
 20
192.23512234157985
 30
0.0
 10
87.559513346354166
 20
191.99431016710068
 30
0.0
  0
SPLINE
  5
87
100
AcDbEntity
  8
BODEN-3_8
 62
     7
100
AcDbSpline
210
0.0
220
0.0
230
1.0
 70
     8
 71
     3
 72
     8
 73
     4
 74
     0
 42
0.00000001
 43
0.00000001
 40
0.0
 40
0.0
 40
0.0
 40
0.0
 40
1.0
 40
1.0
 40
1.0
 40
1.0
 10
94.468652343749994
 20
188.49030354817705
 30
0.0
 10
96.690738932291652
 20
188.9254191080729
 30
0.0
 10
98.892499457465263
 20
189.45613606770831
 30
0.0
 10
101.06876627604166
 20
190.08142089843747
 30
0.0
  0
SPLINE
  5
86
100
AcDbEntity
  8
BODEN-3_8
 62
     7
100
AcDbSpline
210
0.0
220
0.0
230
1.0
 70
     8
 71
     3
 72
     8
 73
     4
 74
     0
 42
0.00000001
 43
0.00000001
 40
0.0
 40
0.0
 40
0.0
 40
0.0
 40
1.0
 40
1.0
 40
1.0
 40
1.0
 10
87.521272786458326
 20
188.01470811631944
 30
0.0
 10
89.994679090711799
 20
187.88637830946178
 30
0.0
 10
92.474114312065964
 20
188.07499728732637
 30
0.0
 10
94.899633789062491
 20
188.57591417100693
 30
0.0
  0
SPLINE
  5
85
100
AcDbEntity
  8
BODEN-3_8
 62
     7
100
AcDbSpline
210
0.0
220
0.0
230
1.0
 70
     8
 71
     3
 72
     8
 73
     4
 74
     0
 42
0.00000001
 43
0.00000001
 40
0.0
 40
0.0
 40
0.0
 40
0.0
 40
1.0
 40
1.0
 40
1.0
 40
1.0
 10
101.06876627604166
 20
190.08142089843747
 30
0.0
 10
96.681781684027769
 20
190.9964382595486
 30
0.0
 10
92.183692762586801
 20
191.25843777126735
 30
0.0
 10
87.720227050781247
 20
190.85915120442706
 30
0.0
  0
SPLINE
  5
84
100
AcDbEntity
  8
BODEN-3_8
 62
     7
100
AcDbSpline
210
0.0
220
0.0
230
1.0
 70
     8
 71
     3
 72
     8
 73
     4
 74
     0
 42
0.00000001
 43
0.00000001
 40
0.0
 40
0.0
 40
0.0
 40
0.0
 40
1.0
 40
1.0
 40
1.0
 40
1.0
 10
87.720227050781247
 20
189.14659423828124
 30
0.0
 10
92.191444227430551
 20
188.83446858723957
 30
0.0
 10
96.68453776041666
 20
189.14935031467013
 30
0.0
 10
101.06876627604166
 20
190.08142089843747
 30
0.0
  0
SPLINE
  5
83
100
AcDbEntity
  8
BODEN-3_8
 62
     7
100
AcDbSpline
210
0.0
220
0.0
230
1.0
 70
     8
 71
     3
 72
    11
 73
     7
 74
     0
 42
0.00000001
 43
0.00000001
 40
0.0
 40
0.0
 40
0.0
 40
0.0
 40
1.0
 40
1.0
 40
1.0
 40
2.0
 40
2.0
 40
2.0
 40
2.0
 10
87.720227050781247
 20
190.85915120442706
 30
0.0
 10
87.247387695312497
 20
190.85915120442706
 30
0.0
 10
86.86394856770832
 20
190.4757120768229
 30
0.0
 10
86.86394856770832
 20
190.00270046657985
 30
0.0
 10
86.86394856770832
 20
189.5298611111111
 30
0.0
 10
87.247387695312497
 20
189.14659423828124
 30
0.0
 10
87.720227050781247
 20
189.14659423828124
 30
0.0
  0
SPLINE
  5
82
100
AcDbEntity
  8
BODEN-3_8
 62
     7
100
AcDbSpline
210
0.0
220
0.0
230
1.0
 70
     8
 71
     3
 72
    11
 73
     7
 74
     0
 42
0.00000001
 43
0.00000001
 40
0.0
 40
0.0
 40
0.0
 40
0.0
 40
1.0
 40
1.0
 40
1.0
 40
2.0
 40
2.0
 40
2.0
 40
2.0
 10
87.678024631076383
 20
192.00033908420136
 30
0.0
 10
86.574732801649304
 20
191.97708468967011
 30
0.0
 10
85.699334038628464
 20
191.06378987630205
 30
0.0
 10
85.722588433159714
 20
189.96049804687499
 30
0.0
 10
85.745670572916666
 20
188.87133110894095
 30
0.0
 10
86.636916775173603
 20
188.00144449869791
 30
0.0
 10
87.726428222656239
 20
188.00488959418402
 30
0.0
  0
SPLINE
  5
81
100
AcDbEntity
  8
BODEN-3_8
 62
     7
100
AcDbSpline
210
0.0
220
0.0
230
1.0
 70
     8
 71
     3
 72
     8
 73
     4
 74
     0
 42
0.00000001
 43
0.00000001
 40
0.0
 40
0.0
 40
0.0
 40
0.0
 40
1.0
 40
1.0
 40
1.0
 40
1.0
 10
101.06876627604166
 20
190.08142089843747
 30
0.0
 10
103.47103135850693
 20
190.615582953559
 30
0.0
 10
105.85675998263888
 20
191.22295328776039
 30
0.0
 10
108.22216254340277
 20
191.9023261176215
 30
0.0
  0
LINE
  5
80
100
AcDbEntity
  8
BODEN-3_8
 62
     7
100
AcDbLine
 10
75.44673
 20
133.670394
 30
0.0
 11
121.115432
 21
133.670394
 31
0.0
  0
SPLINE
  5
7F
100
AcDbEntity
  8
BODEN-3_8
 62
     7
100
AcDbSpline
210
0.0
220
0.0
230
1.0
 70
     8
 71
     3
 72
     8
 73
     4
 74
     0
 42
0.00000001
 43
0.00000001
 40
0.0
 40
0.0
 40
0.0
 40
0.0
 40
1.0
 40
1.0
 40
1.0
 40
1.0
 10
95.493568250868051
 20
116.89760199652777
 30
0.0
 10
99.830598958333326
 20
115.39347330729166
 30
0.0
 10
104.41843261718749
 20
114.7437282986111
 30
0.0
 10
109.00247667100693
 20
114.98488498263887
 30
0.0
  0
SPLINE
  5
7E
100
AcDbEntity
  8
BODEN-3_8
 62
     7
100
AcDbSpline
210
0.0
220
0.0
230
1.0
 70
     8
 71
     3
 72
     8
 73
     4
 74
     0
 42
0.00000001
 43
0.00000001
 40
0.0
 40
0.0
 40
0.0
 40
0.0
 40
1.0
 40
1.0
 40
1.0
 40
1.0
 10
95.493568250868051
 20
116.89760199652777
 30
0.0
 10
93.090958658854163
 20
116.36361219618054
 30
0.0
 10
90.705402289496519
 20
115.75658637152777
 30
0.0
 10
88.339827473958323
 20
115.07652452256943
 30
0.0
  0
SPLINE
  5
7D
100
AcDbEntity
  8
BODEN-3_8
 62
     7
100
AcDbSpline
210
0.0
220
0.0
230
1.0
 70
     8
 71
     3
 72
     8
 73
     4
 74
     0
 42
0.00000001
 43
0.00000001
 40
0.0
 40
0.0
 40
0.0
 40
0.0
 40
1.0
 40
1.0
 40
1.0
 40
1.0
 10
110.47628851996527
 20
191.15232883029512
 30
0.0
 10
109.8541042751736
 20
191.7562540690104
 30
0.0
 10
108.97973904079861
 20
192.02497151692705
 30
0.0
 10
108.12535536024305
 20
191.87442084418402
 30
0.0
  0
LINE
  5
7C
100
AcDbEntity
  8
BODEN-3_8
 62
     7
100
AcDbLine
 10
120.658613
 20
131.843804
 30
0.0
 11
75.903377
 21
131.843804
 31
0.0
  0
SPLINE
  5
7B
100
AcDbEntity
  8
BODEN-3_8
 62
     7
100
AcDbSpline
210
0.0
220
0.0
230
1.0
 70
     8
 71
     3
 72
     8
 73
     4
 74
     0
 42
0.00000001
 43
0.00000001
 40
0.0
 40
0.0
 40
0.0
 40
0.0
 40
1.0
 40
1.0
 40
1.0
 40
1.0
 10
110.84009060329861
 20
190.00270046657985
 30
0.0
 10
110.84009060329861
 20
190.41438937717012
 30
0.0
 10
110.7129665798611
 20
190.81574300130205
 30
0.0
 10
110.47628851996527
 20
191.15232883029512
 30
0.0
  0
SPLINE
  5
7A
100
AcDbEntity
  8
BODEN-3_8
 62
     7
100
AcDbSpline
210
0.0
220
0.0
230
1.0
 70
     8
 71
     3
 72
     8
 73
     4
 74
     0
 42
0.00000001
 43
0.00000001
 40
0.0
 40
0.0
 40
0.0
 40
0.0
 40
1.0
 40
1.0
 40
1.0
 40
1.0
 10
85.722243923611103
 20
116.9761501736111
 30
0.0
 10
85.722243923611103
 20
116.56480577256943
 30
0.0
 10
85.849367947048606
 20
116.16310763888887
 30
0.0
 10
86.086046006944443
 20
115.82686631944443
 30
0.0
  0
SPLINE
  5
79
100
AcDbEntity
  8
BODEN-3_8
 62
     7
100
AcDbSpline
210
0.0
220
0.0
230
1.0
 70
     8
 71
     3
 72
     8
 73
     4
 74
     0
 42
0.00000001
 43
0.00000001
 40
0.0
 40
0.0
 40
0.0
 40
0.0
 40
1.0
 40
1.0
 40
1.0
 40
1.0
 10
86.086046006944443
 20
115.82686631944443
 30
0.0
 10
86.708230251736097
 20
115.22259657118055
 30
0.0
 10
87.582595486111103
 20
114.95387912326387
 30
0.0
 10
88.436634657118049
 20
115.10477430555555
 30
0.0
  0
SPLINE
  5
78
100
AcDbEntity
  8
BODEN-3_8
 62
     7
100
AcDbSpline
210
0.0
220
0.0
230
1.0
 70
     8
 71
     3
 72
     8
 73
     4
 74
     0
 42
0.00000001
 43
0.00000001
 40
0.0
 40
0.0
 40
0.0
 40
0.0
 40
1.0
 40
1.0
 40
1.0
 40
1.0
 10
108.84193522135416
 20
117.83260091145833
 30
0.0
 10
104.37054578993055
 20
118.14472656249998
 30
0.0
 10
99.877796766493049
 20
117.82984483506944
 30
0.0
 10
95.493568250868051
 20
116.89760199652777
 30
0.0
  0
SPLINE
  5
77
100
AcDbEntity
  8
BODEN-3_8
 62
     7
100
AcDbSpline
210
0.0
220
0.0
230
1.0
 70
     8
 71
     3
 72
     8
 73
     4
 74
     0
 42
0.00000001
 43
0.00000001
 40
0.0
 40
0.0
 40
0.0
 40
0.0
 40
1.0
 40
1.0
 40
1.0
 40
1.0
 10
109.04071723090277
 20
118.96465928819444
 30
0.0
 10
106.5674831814236
 20
119.09281684027776
 30
0.0
 10
104.08804796006943
 20
118.90402560763887
 30
0.0
 10
101.66270073784722
 20
118.40310872395833
 30
0.0
  0
SPLINE
  5
76
100
AcDbEntity
  8
BODEN-3_8
 62
     7
100
AcDbSpline
210
0.0
220
0.0
230
1.0
 70
     8
 71
     3
 72
     8
 73
     4
 74
     0
 42
0.00000001
 43
0.00000001
 40
0.0
 40
0.0
 40
0.0
 40
0.0
 40
1.0
 40
1.0
 40
1.0
 40
1.0
 10
95.493568250868051
 20
116.89760199652777
 30
0.0
 10
99.88055284288194
 20
115.98258463541666
 30
0.0
 10
104.37846950954861
 20
115.72075737847221
 30
0.0
 10
108.84193522135416
 20
116.1203884548611
 30
0.0
  0
SPLINE
  5
75
100
AcDbEntity
  8
BODEN-3_8
 62
     7
100
AcDbSpline
210
0.0
220
0.0
230
1.0
 70
     8
 71
     3
 72
     8
 73
     4
 74
     0
 42
0.00000001
 43
0.00000001
 40
0.0
 40
0.0
 40
0.0
 40
0.0
 40
1.0
 40
1.0
 40
1.0
 40
1.0
 10
102.0933376736111
 20
118.48854709201387
 30
0.0
 10
99.871595594618043
 20
118.05377604166665
 30
0.0
 10
97.66949055989582
 20
117.52323133680555
 30
0.0
 10
95.493568250868051
 20
116.89760199652777
 30
0.0
  0
POLYLINE
  5
6F
100
AcDbEntity
  8
BODEN-3_8
 62
     7
100
AcDb2dPolyline
 66
     1
 10
0.0
 20
0.0
 30
0.0
 70
     1
  0
VERTEX
  5
70
100
AcDbEntity
  8
BODEN-3_8
 62
     7
100
AcDbVertex
100
AcDb2dVertex
 10
78.322523
 20
140.064491
 30
0.0
  0
VERTEX
  5
71
100
AcDbEntity
  8
BODEN-3_8
 62
     7
100
AcDbVertex
100
AcDb2dVertex
 10
82.70658
 20
140.064491
 30
0.0
  0
VERTEX
  5
72
100
AcDbEntity
  8
BODEN-3_8
 62
     7
100
AcDbVertex
100
AcDb2dVertex
 10
82.70658
 20
140.520622
 30
0.0
  0
VERTEX
  5
73
100
AcDbEntity
  8
BODEN-3_8
 62
     7
100
AcDbVertex
100
AcDb2dVertex
 10
78.322523
 20
140.520622
 30
0.0
  0
SEQEND
  5
74
100
AcDbEntity
  8
BODEN-3_8
 62
     7
  0
SPLINE
  5
6E
100
AcDbEntity
  8
BODEN-3_8
 62
     7
100
AcDbSpline
210
0.0
220
0.0
230
1.0
 70
     8
 71
     3
 72
    11
 73
     7
 74
     0
 42
0.00000001
 43
0.00000001
 40
0.0
 40
0.0
 40
0.0
 40
0.0
 40
1.0
 40
1.0
 40
1.0
 40
2.0
 40
2.0
 40
2.0
 40
2.0
 10
108.84193522135416
 20
116.1203884548611
 30
0.0
 10
109.31494683159721
 20
116.1203884548611
 30
0.0
 10
109.69838595920137
 20
116.50348307291665
 30
0.0
 10
109.69838595920137
 20
116.9761501736111
 30
0.0
 10
109.69838595920137
 20
117.44950629340276
 30
0.0
 10
109.31494683159721
 20
117.83260091145833
 30
0.0
 10
108.84193522135416
 20
117.83260091145833
 30
0.0
  0
SPLINE
  5
6D
100
AcDbEntity
  8
BODEN-3_8
 62
     7
100
AcDbSpline
210
0.0
220
0.0
230
1.0
 70
     8
 71
     3
 72
    11
 73
     7
 74
     0
 42
0.00000001
 43
0.00000001
 40
0.0
 40
0.0
 40
0.0
 40
0.0
 40
1.0
 40
1.0
 40
1.0
 40
2.0
 40
2.0
 40
2.0
 40
2.0
 10
108.88430989583333
 20
114.97868381076388
 30
0.0
 10
109.98742947048611
 20
115.00211046006943
 30
0.0
 10
110.86282823350693
 20
115.91506076388887
 30
0.0
 10
110.83940158420138
 20
117.01886935763888
 30
0.0
 10
110.81666395399304
 20
118.10751953124999
 30
0.0
 10
109.92507324218749
 20
118.97775065104166
 30
0.0
 10
108.83573404947916
 20
118.97430555555555
 30
0.0
  0
LINE
  5
6C
100
AcDbEntity
  8
BODEN-3_8
 62
     7
100
AcDbLine
 10
120.658613
 20
138.237212
 30
0.0
 11
75.903377
 21
138.237212
 31
0.0
  0
LINE
  5
6B
100
AcDbEntity
  8
BODEN-3_8
 62
     7
100
AcDbLine
 10
75.903377
 20
140.064491
 30
0.0
 11
120.658613
 21
140.064491
 31
0.0
  0
LINE
  5
6A
100
AcDbEntity
  8
BODEN-3_8
 62
     7
100
AcDbLine
 10
121.115432
 20
138.237212
 30
0.0
 11
75.44673
 21
138.237212
 31
0.0
  0
LINE
  5
69
100
AcDbEntity
  8
BODEN-3_8
 62
     7
100
AcDbLine
 10
120.658613
 20
140.064491
 30
0.0
 11
120.658613
 21
138.237212
 31
0.0
  0
LINE
  5
68
100
AcDbEntity
  8
BODEN-3_8
 62
     7
100
AcDbLine
 10
75.903377
 20
138.237212
 30
0.0
 11
75.903377
 21
140.064491
 31
0.0
  0
LINE
  5
67
100
AcDbEntity
  8
BODEN-3_8
 62
     7
100
AcDbLine
 10
75.44673
 20
138.237212
 30
0.0
 11
75.44673
 21
133.670394
 31
0.0
  0
LINE
  5
66
100
AcDbEntity
  8
BODEN-3_8
 62
     7
100
AcDbLine
 10
121.115432
 20
133.670394
 30
0.0
 11
121.115432
 21
138.237212
 31
0.0
  0
LINE
  5
65
100
AcDbEntity
  8
BODEN-3_8
 62
     7
100
AcDbLine
 10
75.903377
 20
133.670394
 30
0.0
 11
120.658613
 21
133.670394
 31
0.0
  0
LINE
  5
64
100
AcDbEntity
  8
BODEN-3_8
 62
     7
100
AcDbLine
 10
75.903377
 20
131.843804
 30
0.0
 11
75.903377
 21
133.670394
 31
0.0
  0
LINE
  5
63
100
AcDbEntity
  8
BODEN-3_8
 62
     7
100
AcDbLine
 10
120.658613
 20
133.670394
 30
0.0
 11
120.658613
 21
131.843804
 31
0.0
  0
POLYLINE
  5
5D
100
AcDbEntity
  8
BODEN-3_8
 62
     7
100
AcDb2dPolyline
 66
     1
 10
0.0
 20
0.0
 30
0.0
 70
     1
  0
VERTEX
  5
5E
100
AcDbEntity
  8
BODEN-3_8
 62
     7
100
AcDbVertex
100
AcDb2dVertex
 10
118.239811
 20
140.064491
 30
0.0
  0
VERTEX
  5
5F
100
AcDbEntity
  8
BODEN-3_8
 62
     7
100
AcDbVertex
100
AcDb2dVertex
 10
113.855583
 20
140.064491
 30
0.0
  0
VERTEX
  5
60
100
AcDbEntity
  8
BODEN-3_8
 62
     7
100
AcDbVertex
100
AcDb2dVertex
 10
113.855583
 20
140.520622
 30
0.0
  0
VERTEX
  5
61
100
AcDbEntity
  8
BODEN-3_8
 62
     7
100
AcDbVertex
100
AcDb2dVertex
 10
118.239811
 20
140.520622
 30
0.0
  0
SEQEND
  5
62
100
AcDbEntity
  8
BODEN-3_8
 62
     7
  0
LINE
  5
5C
100
AcDbEntity
  8
BODEN-3_8
 62
     7
100
AcDbLine
 10
121.115432
 20
184.029077
 30
0.0
 11
121.115432
 21
128.085205
 31
0.0
  0
LINE
  5
5B
100
AcDbEntity
  8
BODEN-3_8
 62
     7
100
AcDbLine
 10
120.658613
 20
138.237212
 30
0.0
 11
120.658613
 21
140.064491
 31
0.0
  0
LINE
  5
5A
100
AcDbEntity
  8
BODEN-3_8
 62
     7
100
AcDbLine
 10
121.115432
 20
138.237212
 30
0.0
 11
121.115432
 21
133.670394
 31
0.0
  0
LINE
  5
59
100
AcDbEntity
  8
BODEN-3_8
 62
     7
100
AcDbLine
 10
120.658613
 20
131.843804
 30
0.0
 11
120.658613
 21
133.670394
 31
0.0
  0
INSERT
  5
53
100
AcDbEntity
  8
BODEN-3_8
 62
     7
100
AcDbBlockReference
  2
AI9-BLK1
 10
139.390286
 20
82.485232
 30
0.0
  0
LINE
  5
51
100
AcDbEntity
  8
BODEN-3_8
 62
     7
100
AcDbLine
 10
75.44673
 20
178.896057
 30
0.0
 11
75.44673
 21
128.085205
 31
0.0
  0
LINE
  5
50
100
AcDbEntity
  8
BODEN-3_8
 62
     7
100
AcDbLine
 10
75.903377
 20
140.064491
 30
0.0
 11
75.903377
 21
138.237212
 31
0.0
  0
LINE
  5
4F
100
AcDbEntity
  8
BODEN-3_8
 62
     7
100
AcDbLine
 10
75.44673
 20
133.670394
 30
0.0
 11
75.44673
 21
138.237212
 31
0.0
  0
LINE
  5
4E
100
AcDbEntity
  8
BODEN-3_8
 62
     7
100
AcDbLine
 10
75.903377
 20
133.670394
 30
0.0
 11
75.903377
 21
131.843804
 31
0.0
  0
LINE
  5
4D
100
AcDbEntity
  8
BODEN-3_8
 62
     7
100
AcDbLine
 10
75.44673
 20
184.029077
 30
0.0
 11
75.44673
 21
128.085205
 31
0.0
  0
LINE
  5
4C
100
AcDbEntity
  8
BODEN-3_8
 62
     7
100
AcDbLine
 10
75.903377
 20
138.237212
 30
0.0
 11
75.903377
 21
140.064491
 31
0.0
  0
LINE
  5
4B
100
AcDbEntity
  8
BODEN-3_8
 62
     7
100
AcDbLine
 10
75.44673
 20
138.237212
 30
0.0
 11
75.44673
 21
133.670394
 31
0.0
  0
LINE
  5
4A
100
AcDbEntity
  8
BODEN-3_8
 62
     7
100
AcDbLine
 10
75.903377
 20
131.843804
 30
0.0
 11
75.903377
 21
133.670394
 31
0.0
  0
SPLINE
  5
49
100
AcDbEntity
  8
BODEN-3_8
 62
     7
100
AcDbSpline
210
0.0
220
0.0
230
1.0
 70
     8
 71
     3
 72
     8
 73
     4
 74
     0
 42
0.00000001
 43
0.00000001
 40
0.0
 40
0.0
 40
0.0
 40
0.0
 40
1.0
 40
1.0
 40
1.0
 40
1.0
 10
79.544326443142353
 20
142.14463975694443
 30
0.0
 10
80.149457465277777
 20
142.35823567708331
 30
0.0
 10
80.809710015190959
 20
142.35823567708331
 30
0.0
 10
81.414841037326383
 20
142.14463975694443
 30
0.0
  0
LINE
  5
48
100
AcDbEntity
  8
BODEN-3_8
 62
     7
100
AcDbLine
 10
79.076655
 20
142.305181
 30
0.0
 11
81.882685
 21
142.305181
 31
0.0
  0
LINE
  5
47
100
AcDbEntity
  8
BODEN-3_8
 62
     7
100
AcDbLine
 10
78.608983
 20
140.699767
 30
0.0
 11
78.608983
 21
142.14464
 31
0.0
  0
LINE
  5
46
100
AcDbEntity
  8
BODEN-3_8
 62
     7
100
AcDbLine
 10
79.544326
 20
140.699767
 30
0.0
 11
79.544326
 21
142.14464
 31
0.0
  0
SPLINE
  5
45
100
AcDbEntity
  8
BODEN-3_8
 62
     7
100
AcDbSpline
210
0.0
220
0.0
230
1.0
 70
     8
 71
     3
 72
     8
 73
     4
 74
     0
 42
0.00000001
 43
0.00000001
 40
0.0
 40
0.0
 40
0.0
 40
0.0
 40
1.0
 40
1.0
 40
1.0
 40
1.0
 10
78.608983018663181
 20
142.14463975694443
 30
0.0
 10
78.884073893229157
 20
142.35823567708331
 30
0.0
 10
79.269235568576377
 20
142.35823567708331
 30
0.0
 10
79.544326443142353
 20
142.14463975694443
 30
0.0
  0
SPLINE
  5
44
100
AcDbEntity
  8
BODEN-3_8
 62
     7
100
AcDbSpline
210
0.0
220
0.0
230
1.0
 70
     8
 71
     3
 72
     8
 73
     4
 74
     0
 42
0.00000001
 43
0.00000001
 40
0.0
 40
0.0
 40
0.0
 40
0.0
 40
1.0
 40
1.0
 40
1.0
 40
1.0
 10
81.414841037326383
 20
142.14463975694443
 30
0.0
 10
81.690104166666657
 20
142.35823567708331
 30
0.0
 10
82.075265842013877
 20
142.35823567708331
 30
0.0
 10
82.350184461805554
 20
142.14463975694443
 30
0.0
  0
LINE
  5
43
100
AcDbEntity
  8
BODEN-3_8
 62
     7
100
AcDbLine
 10
81.414841
 20
140.699767
 30
0.0
 11
81.414841
 21
142.14464
 31
0.0
  0
LINE
  5
42
100
AcDbEntity
  8
BODEN-3_8
 62
     7
100
AcDbLine
 10
82.350184
 20
140.699767
 30
0.0
 11
82.350184
 21
142.14464
 31
0.0
  0
SPLINE
  5
41
100
AcDbEntity
  8
BODEN-3_8
 62
     7
100
AcDbSpline
210
0.0
220
0.0
230
1.0
 70
     8
 71
     3
 72
     8
 73
     4
 74
     0
 42
0.00000001
 43
0.00000001
 40
0.0
 40
0.0
 40
0.0
 40
0.0
 40
1.0
 40
1.0
 40
1.0
 40
1.0
 10
117.03988444010416
 20
140.88580186631944
 30
0.0
 10
116.43458116319444
 20
140.67220594618055
 30
0.0
 10
115.77415635850693
 20
140.67220594618055
 30
0.0
 10
115.16919759114582
 20
140.88580186631944
 30
0.0
  0
SPLINE
  5
40
100
AcDbEntity
  8
BODEN-3_8
 62
     7
100
AcDbSpline
210
0.0
220
0.0
230
1.0
 70
     8
 71
     3
 72
     8
 73
     4
 74
     0
 42
0.00000001
 43
0.00000001
 40
0.0
 40
0.0
 40
0.0
 40
0.0
 40
1.0
 40
1.0
 40
1.0
 40
1.0
 10
115.16919759114582
 20
142.33067491319443
 30
0.0
 10
115.77415635850693
 20
142.54495985243054
 30
0.0
 10
116.43458116319444
 20
142.54495985243054
 30
0.0
 10
117.03988444010416
 20
142.33067491319443
 30
0.0
  0
LINE
  5
3F
100
AcDbEntity
  8
BODEN-3_8
 62
     7
100
AcDbLine
 10
114.701354
 20
142.491216
 30
0.0
 11
117.507384
 21
142.491216
 31
0.0
  0
LINE
  5
3E
100
AcDbEntity
  8
BODEN-3_8
 62
     7
100
AcDbLine
 10
114.233854
 20
140.885802
 30
0.0
 11
114.233854
 21
142.330675
 31
0.0
  0
LINE
  5
3D
100
AcDbEntity
  8
BODEN-3_8
 62
     7
100
AcDbLine
 10
115.169198
 20
140.885802
 30
0.0
 11
115.169198
 21
142.330675
 31
0.0
  0
SPLINE
  5
3C
100
AcDbEntity
  8
BODEN-3_8
 62
     7
100
AcDbSpline
210
0.0
220
0.0
230
1.0
 70
     8
 71
     3
 72
     8
 73
     4
 74
     0
 42
0.00000001
 43
0.00000001
 40
0.0
 40
0.0
 40
0.0
 40
0.0
 40
1.0
 40
1.0
 40
1.0
 40
1.0
 10
114.23385416666666
 20
142.33067491319443
 30
0.0
 10
114.50877278645832
 20
142.54495985243054
 30
0.0
 10
114.89427897135415
 20
142.54495985243054
 30
0.0
 10
115.16919759114582
 20
142.33067491319443
 30
0.0
  0
SPLINE
  5
3B
100
AcDbEntity
  8
BODEN-3_8
 62
     7
100
AcDbSpline
210
0.0
220
0.0
230
1.0
 70
     8
 71
     3
 72
     8
 73
     4
 74
     0
 42
0.00000001
 43
0.00000001
 40
0.0
 40
0.0
 40
0.0
 40
0.0
 40
1.0
 40
1.0
 40
1.0
 40
1.0
 10
115.16919759114582
 20
140.88580186631944
 30
0.0
 10
114.89427897135415
 20
140.67220594618055
 30
0.0
 10
114.50877278645832
 20
140.67220594618055
 30
0.0
 10
114.23385416666666
 20
140.88580186631944
 30
0.0
  0
SPLINE
  5
3A
100
AcDbEntity
  8
BODEN-3_8
 62
     7
100
AcDbSpline
210
0.0
220
0.0
230
1.0
 70
     8
 71
     3
 72
     8
 73
     4
 74
     0
 42
0.00000001
 43
0.00000001
 40
0.0
 40
0.0
 40
0.0
 40
0.0
 40
1.0
 40
1.0
 40
1.0
 40
1.0
 10
117.97522786458332
 20
140.88580186631944
 30
0.0
 10
117.69996473524304
 20
140.67220594618055
 30
0.0
 10
117.31480305989582
 20
140.67220594618055
 30
0.0
 10
117.03988444010416
 20
140.88580186631944
 30
0.0
  0
SPLINE
  5
39
100
AcDbEntity
  8
BODEN-3_8
 62
     7
100
AcDbSpline
210
0.0
220
0.0
230
1.0
 70
     8
 71
     3
 72
     8
 73
     4
 74
     0
 42
0.00000001
 43
0.00000001
 40
0.0
 40
0.0
 40
0.0
 40
0.0
 40
1.0
 40
1.0
 40
1.0
 40
1.0
 10
117.03988444010416
 20
142.33067491319443
 30
0.0
 10
117.31480305989582
 20
142.54495985243054
 30
0.0
 10
117.69996473524304
 20
142.54495985243054
 30
0.0
 10
117.97522786458332
 20
142.33067491319443
 30
0.0
  0
LINE
  5
38
100
AcDbEntity
  8
BODEN-3_8
 62
     7
100
AcDbLine
 10
117.039884
 20
140.885802
 30
0.0
 11
117.039884
 21
142.330675
 31
0.0
  0
LINE
  5
37
100
AcDbEntity
  8
BODEN-3_8
 62
     7
100
AcDbLine
 10
117.975228
 20
140.885802
 30
0.0
 11
117.975228
 21
142.330675
 31
0.0
  0
POLYLINE
  5
30
100
AcDbEntity
  8
RAHMEN
 62
     7
100
AcDb2dPolyline
 66
     1
 10
0.0
 20
0.0
 30
0.0
 70
     1
  0
VERTEX
  5
31
100
AcDbEntity
  8
RAHMEN
 62
     7
100
AcDbVertex
100
AcDb2dVertex
 10
19.934184
 20
204.214581
 30
0.0
  0
VERTEX
  5
32
100
AcDbEntity
  8
RAHMEN
 62
     7
100
AcDbVertex
100
AcDb2dVertex
 10
19.934184
 20
59.954652
 30
0.0
  0
VERTEX
  5
33
100
AcDbEntity
  8
RAHMEN
 62
     7
100
AcDbVertex
100
AcDb2dVertex
 10
181.602007
 20
59.954652
 30
0.0
  0
VERTEX
  5
34
100
AcDbEntity
  8
RAHMEN
 62
     7
100
AcDbVertex
100
AcDb2dVertex
 10
181.602007
 20
204.214581
 30
0.0
  0
SEQEND
  5
35
100
AcDbEntity
  8
RAHMEN
 62
     7
  0
POLYLINE
  5
2A
100
AcDbEntity
  8
RAHMEN
 62
     7
100
AcDb2dPolyline
 66
     1
 10
0.0
 20
0.0
 30
0.0
 70
     1
  0
VERTEX
  5
2B
100
AcDbEntity
  8
RAHMEN
 62
     7
100
AcDbVertex
100
AcDb2dVertex
 10
162.44142
 20
76.560701
 30
0.0
  0
VERTEX
  5
2C
100
AcDbEntity
  8
RAHMEN
 62
     7
100
AcDbVertex
100
AcDb2dVertex
 10
181.49142
 20
76.560701
 30
0.0
  0
VERTEX
  5
2D
100
AcDbEntity
  8
RAHMEN
 62
     7
100
AcDbVertex
100
AcDb2dVertex
 10
181.49142
 20
59.954652
 30
0.0
  0
VERTEX
  5
2E
100
AcDbEntity
  8
RAHMEN
 62
     7
100
AcDbVertex
100
AcDb2dVertex
 10
162.44142
 20
59.954652
 30
0.0
  0
SEQEND
  5
2F
100
AcDbEntity
  8
RAHMEN
 62
     7
  0
MTEXT
  5
29
100
AcDbEntity
  8
RAHMEN
 62
     7
100
AcDbMText
 10
163.587603
 20
74.103856
 30
0.0
 40
9.449404
 41
0.0
 71
     1
 72
     2
  1
\fMyriad Roman|b0|i0;\H9.4494;\C7;\U+0034\U+002E\U+0038
  7
STD
210
0.0
220
0.0
230
1.0
 73
     1
 44
1.0
  0
ENDSEC
  0
SECTION
  2
OBJECTS
  0
DICTIONARY
  5
19
100
AcDbDictionary
280
     0
281
     1
  3
ACAD_GROUP
350
1A
  3
ACAD_MLINESTYLE
350
1B
  3
ACAD_LAYOUT
350
1E
  3
ACAD_PLOTSETTINGS
350
22
  3
ACAD_PLOTSTYLENAME
350
1F
  3
ACAD_WIPEOUT_VARS
350
23
  0
DICTIONARY
  5
1A
102
{ACAD_REACTORS
330
19
102
}
100
AcDbDictionary
280
     0
281
     1
  0
DICTIONARY
  5
1B
102
{ACAD_REACTORS
330
19
102
}
100
AcDbDictionary
280
     0
281
     1
  3
Standard
350
1C
  0
MLINESTYLE
  5
1C
102
{ACAD_REACTORS
330
1B
102
}
100
AcDbMlineStyle
  2
Standard
 70
     0
  3

 62
     0
 51
90.0
 52
90.0
 71
     2
 49
0.5
 62
   256
  6
ByLayer
 49
-0.5
 62
   256
  6
ByLayer
  0
ACDBDICTIONARYWDFLT
  5
1F
102
{ACAD_REACTORS
330
19
102
}
100
AcDbDictionary
281
     1
  3
Normal
350
1D
100
AcDbDictionaryWithDefault
340
1D
  0
ACDBPLACEHOLDER
  5
1D
102
{ACAD_REACTORS
330
1F
102
}
  0
LAYOUT
  5
20
102
{ACAD_REACTORS
330
1E
102
}
100
AcDbPlotSettings
  1

  2

  4

  6

 40
0.0
 41
0.0
 42
0.0
 43
0.0
 44
0.0
 45
0.0
 46
0.0
 47
0.0
 48
0.0
 49
0.0
140
0.0
141
0.0
142
1.0
143
1.0
 70
  1024
 72
     0
 73
     0
 74
     0
  7

 75
     0
147
1.0
148
0.0
149
0.0
100
AcDbLayout
  1
Model
 70
     0
 71
     0
 10
0.0
 20
0.0
 11
0.0
 21
0.0
 12
0.0
 22
0.0
 32
0.0
 14
0.0
 24
0.0
 34
0.0
 15
0.0
 25
0.0
 35
0.0
146
0.0
 13
0.0
 23
0.0
 33
0.0
 16
0.0
 26
0.0
 36
0.0
 17
0.0
 27
0.0
 37
0.0
 76
     0
330
A
331
0
345
0
346
0
  0
LAYOUT
  5
21
102
{ACAD_REACTORS
330
1E
102
}
100
AcDbPlotSettings
  1

  2

  4

  6

 40
0.0
 41
0.0
 42
0.0
 43
0.0
 44
0.0
 45
0.0
 46
0.0
 47
0.0
 48
0.0
 49
0.0
140
0.0
141
0.0
142
1.0
143
1.0
 70
     0
 72
     0
 73
     0
 74
     0
  7

 75
     0
147
1.0
148
0.0
149
0.0
100
AcDbLayout
  1
Layout1
 70
     0
 71
     0
 10
0.0
 20
0.0
 11
0.0
 21
0.0
 12
0.0
 22
0.0
 32
0.0
 14
0.0
 24
0.0
 34
0.0
 15
0.0
 25
0.0
 35
0.0
146
0.0
 13
0.0
 23
0.0
 33
0.0
 16
0.0
 26
0.0
 36
0.0
 17
0.0
 27
0.0
 37
0.0
 76
     0
330
B
331
0
345
0
346
0
  0
DICTIONARY
  5
1E
102
{ACAD_REACTORS
330
19
102
}
100
AcDbDictionary
280
     0
281
     1
  3
Layout1
350
21
  3
Model
350
20
  0
DICTIONARY
  5
22
102
{ACAD_REACTORS
330
19
102
}
100
AcDbDictionary
280
     0
281
     1
  0
WIPEOUTVARIABLES
  5
23
100
AcDbWipeoutVariables
 70
     1
  0
ENDSEC
  0
EOF
