  0
SECTION
  2
HEADER
  9
$ACADVER
  1
AC1015
  9
$ACADMAINTVER
 70
     6
  9
$DWGCODEPAGE
  3
ANSI_932
  9
$INSBASE
 10
0.0
 20
0.0
 30
0.0
  9
$EXTMIN
 10
24.167862
 20
76.91279
 30
1.000000E+20
  9
$EXTMAX
 10
186.541241
 20
222.030031
 30
-1.000000E+20
  9
$LIMMIN
 10
24.167862
 20
76.91279
  9
$LIMMAX
 10
186.541241
 20
222.030031
  9
$ORTHOMODE
 70
     0
  9
$REGENMODE
 70
     1
  9
$FILLMODE
 70
     1
  9
$QTEXTMODE
 70
     0
  9
$MIRRTEXT
 70
     1
  9
$LTSCALE
 40
1.0
  9
$ATTMODE
 70
     1
  9
$TEXTSIZE
 40
0.2
  9
$TRACEWID
 40
0.05
  9
$TEXTSTYLE
  7
Standard
  9
$CLAYER
  8
0
  9
$CELTYPE
  6
Continuous
  9
$CECOLOR
 62
   256
  9
$CELTSCALE
 40
1.0
  9
$DISPSILH
 70
     0
  9
$DIMSCALE
 40
1.0
  9
$DIMASZ
 40
0.18
  9
$DIMEXO
 40
0.0625
  9
$DIMDLI
 40
0.38
  9
$DIMRND
 40
0.0
  9
$DIMDLE
 40
0.0
  9
$DIMEXE
 40
0.18
  9
$DIMTP
 40
0.0
  9
$DIMTM
 40
0.0
  9
$DIMTXT
 40
0.18
  9
$DIMCEN
 40
0.09
  9
$DIMTSZ
 40
0.0
  9
$DIMTOL
 70
     0
  9
$DIMLIM
 70
     0
  9
$DIMTIH
 70
     1
  9
$DIMTOH
 70
     1
  9
$DIMSE1
 70
     0
  9
$DIMSE2
 70
     0
  9
$DIMTAD
 70
     0
  9
$DIMZIN
 70
     0
  9
$DIMBLK
  1

  9
$DIMASO
 70
     1
  9
$DIMSHO
 70
     1
  9
$DIMPOST
  1

  9
$DIMAPOST
  1

  9
$DIMALT
 70
     0
  9
$DIMALTD
 70
     2
  9
$DIMALTF
 40
25.4
  9
$DIMLFAC
 40
1.0
  9
$DIMTOFL
 70
     0
  9
$DIMTVP
 40
0.0
  9
$DIMTIX
 70
     0
  9
$DIMSOXD
 70
     0
  9
$DIMSAH
 70
     0
  9
$DIMBLK1
  1

  9
$DIMBLK2
  1

  9
$DIMSTYLE
  2
Standard
  9
$DIMCLRD
 70
     0
  9
$DIMCLRE
 70
     0
  9
$DIMCLRT
 70
     0
  9
$DIMTFAC
 40
1.0
  9
$DIMGAP
 40
0.09
  9
$DIMJUST
 70
     0
  9
$DIMSD1
 70
     0
  9
$DIMSD2
 70
     0
  9
$DIMTOLJ
 70
     1
  9
$DIMTZIN
 70
     0
  9
$DIMALTZ
 70
     0
  9
$DIMALTTZ
 70
     0
  9
$DIMUPT
 70
     0
  9
$DIMDEC
 70
     4
  9
$DIMTDEC
 70
     4
  9
$DIMALTU
 70
     2
  9
$DIMALTTD
 70
     2
  9
$DIMTXSTY
  7
Standard
  9
$DIMAUNIT
 70
     0
  9
$DIMADEC
 70
     0
  9
$DIMALTRND
 40
0.0
  9
$DIMAZIN
 70
     0
  9
$DIMDSEP
 70
     0
  9
$DIMATFIT
 70
     3
  9
$DIMFRAC
 70
     0
  9
$DIMLDRBLK
  1

  9
$DIMLUNIT
 70
     2
  9
$DIMLWD
 70
     0
  9
$DIMLWE
 70
     0
  9
$DIMTMOVE
 70
     0
  9
$LUNITS
 70
     2
  9
$LUPREC
 70
     4
  9
$SKETCHINC
 40
0.1
  9
$FILLETRAD
 40
0.0
  9
$AUNITS
 70
     0
  9
$AUPREC
 70
     0
  9
$MENU
  1
acad
  9
$ELEVATION
 40
0.0
  9
$PELEVATION
 40
0.0
  9
$THICKNESS
 40
0.0
  9
$LIMCHECK
 70
     0
  9
$CHAMFERA
 40
0.0
  9
$CHAMFERB
 40
0.0
  9
$CHAMFERC
 40
0.0
  9
$CHAMFERD
 40
0.0
  9
$SKPOLY
 70
     0
  9
$TDCREATE
 40
0.000000000
  9
$TDUCREATE
 40
0.000000000
  9
$TDUPDATE
 40
0.000000000
  9
$TDUUPDATE
 40
0.000000000
  9
$TDINDWG
 40
0.0000000000
  9
$TDUSRTIMER
 40
0.0000000000
  9
$USRTIMER
 70
     1
  9
$ANGBASE
 50
0.0
  9
$ANGDIR
 70
     0
  9
$PDMODE
 70
     0
  9
$PDSIZE
 40
0.0
  9
$PLINEWID
 40
0.0
  9
$SPLFRAME
 70
     0
  9
$SPLINETYPE
 70
     6
  9
$SPLINESEGS
 70
     8
  9
$HANDSEED
  5
248
  9
$SURFTAB1
 70
     6
  9
$SURFTAB2
 70
     6
  9
$SURFTYPE
 70
     6
  9
$SURFU
 70
     6
  9
$SURFV
 70
     6
  9
$UCSBASE
  2

  9
$UCSNAME
  2

  9
$UCSORG
 10
0.0
 20
0.0
 30
0.0
  9
$UCSXDIR
 10
1.0
 20
0.0
 30
0.0
  9
$UCSYDIR
 10
0.0
 20
1.0
 30
0.0
  9
$UCSORTHOREF
  2

  9
$UCSORTHOVIEW
 70
     0
  9
$UCSORGTOP
 10
0.0
 20
0.0
 30
0.0
  9
$UCSORGBOTTOM
 10
0.0
 20
0.0
 30
0.0
  9
$UCSORGLEFT
 10
0.0
 20
0.0
 30
0.0
  9
$UCSORGRIGHT
 10
0.0
 20
0.0
 30
0.0
  9
$UCSORGFRONT
 10
0.0
 20
0.0
 30
0.0
  9
$UCSORGBACK
 10
0.0
 20
0.0
 30
0.0
  9
$PUCSBASE
  2

  9
$PUCSNAME
  2

  9
$PUCSORG
 10
0.0
 20
0.0
 30
0.0
  9
$PUCSXDIR
 10
1.0
 20
0.0
 30
0.0
  9
$PUCSYDIR
 10
0.0
 20
1.0
 30
0.0
  9
$PUCSORTHOREF
  2

  9
$PUCSORTHOVIEW
 70
     0
  9
$PUCSORGTOP
 10
0.0
 20
0.0
 30
0.0
  9
$PUCSORGBOTTOM
 10
0.0
 20
0.0
 30
0.0
  9
$PUCSORGLEFT
 10
0.0
 20
0.0
 30
0.0
  9
$PUCSORGRIGHT
 10
0.0
 20
0.0
 30
0.0
  9
$PUCSORGFRONT
 10
0.0
 20
0.0
 30
0.0
  9
$PUCSORGBACK
 10
0.0
 20
0.0
 30
0.0
  9
$USERI1
 70
     0
  9
$USERI2
 70
     0
  9
$USERI3
 70
     0
  9
$USERI4
 70
     0
  9
$USERI5
 70
     0
  9
$USERR1
 40
0.0
  9
$USERR2
 40
0.0
  9
$USERR3
 40
0.0
  9
$USERR4
 40
0.0
  9
$USERR5
 40
0.0
  9
$WORLDVIEW
 70
     1
  9
$SHADEDGE
 70
     3
  9
$SHADEDIF
 70
    70
  9
$TILEMODE
 70
     1
  9
$MAXACTVP
 70
    16
  9
$PINSBASE
 10
0.0
 20
0.0
 30
0.0
  9
$PLIMCHECK
 70
     0
  9
$PEXTMIN
 10
1.000000E+20
 20
1.000000E+20
 30
1.000000E+20
  9
$PEXTMAX
 10
-1.000000E+20
 20
-1.000000E+20
 30
-1.000000E+20
  9
$PLIMMIN
 10
0.0
 20
0.0
  9
$PLIMMAX
 10
12.0
 20
9.0
  9
$UNITMODE
 70
     0
  9
$VISRETAIN
 70
     0
  9
$PLINEGEN
 70
     1
  9
$PSLTSCALE
 70
     0
  9
$TREEDEPTH
 70
  3020
  9
$CMLSTYLE
  2
Standard
  9
$CMLJUST
 70
     0
  9
$CMLSCALE
 40
1.0
  9
$PROXYGRAPHICS
 70
     0
  9
$MEASUREMENT
 70
     1
  9
$CELWEIGHT
370
     0
  9
$ENDCAPS
280
     0
  9
$JOINSTYLE
280
     0
  9
$LWDISPLAY
290
     0
  9
$INSUNITS
 70
     0
  9
$HYPERLINKBASE
  1

  9
$STYLESHEET
  1

  9
$XEDIT
290
     1
  9
$CEPSNTYPE
380
     0
  9
$PSTYLEMODE
290
     1
  9
$FINGERPRINTGUID
  2

  9
$VERSIONGUID
  2

  9
$EXTNAMES
290
     1
  9
$PSVPSCALE
 40
0.0
  0
ENDSEC
  0
SECTION
  2
CLASSES
  0
CLASS
  1
LWPOLYLINE
  2
AcDbPolyline
  3
AutoCAD 2000
 90
    32768
280
     0
281
     1
  0
CLASS
  1
IMAGE
  2
AcDbRasterImage
  3
ISM
 90
    32895
280
     0
281
     1
  0
CLASS
  1
OLE2FRAME
  2
AcDbOle2Frame
  3
AutoCAD 2000
 90
    32768
280
     0
281
     1
  0
CLASS
  1
HATCH
  2
AcDbHatch
  3
AutoCAD 2000
 90
        0
280
     0
281
     1
  0
CLASS
  1
DICTIONARYVAR
  2
AcDbDictionaryVar
  3
AutoCAD 2000
 90
    32768
280
     0
281
     0
  0
CLASS
  1
RASTERVARIABLES
  2
AcDbRasterVariables
  3
ISM
 90
    32768
280
     0
281
     0
  0
CLASS
  1
IMAGEDEF
  2
AcDbRasterImageDef
  3
ISM
 90
    32768
280
     0
281
     0
  0
CLASS
  1
IMAGEDEF_REACTOR
  2
AcDbRasterImageDefReactor
  3
ISM
 90
    32769
280
     0
281
     0
  0
CLASS
  1
IDBUFFER
  2
AcDbIdBuffer
  3
AutoCAD 2000
 90
    32768
280
     0
281
     0
  0
CLASS
  1
SPATIAL_FILTER
  2
AcDbSpatialFilter
  3
AutoCAD 2000
 90
    32768
280
     0
281
     0
  0
CLASS
  1
XRECORD
  2
AcDbXrecord
  3
AutoCAD 2000
 90
    32768
280
     0
281
     0
  0
CLASS
  1
SORTENTSTABLE
  2
AcDbSortentsTable
  3
AutoCAD 2000
 90
    32768
280
     0
281
     0
  0
CLASS
  1
LAYER_INDEX
  2
AcDbLayerIndex
  3
AutoCAD 2000
 90
    32768
280
     0
281
     0
  0
CLASS
  1
SPATIAL_INDEX
  2
AcDbSpatialIndex
  3
AutoCAD 2000
 90
    32768
280
     0
281
     0
  0
CLASS
  1
OBJECT_PTR
  2
CAseDLPNTableRecord
  3
"ASE-LPNTableRecord"
 90
    32769
280
     0
281
     0
  0
CLASS
  1
LAYOUT
  2
AcDbLayout
  3
AutoCAD 2000
 90
        0
280
     0
281
     0
  0
CLASS
  1
PLOTSETTINGS
  2
AcDbPlotSettings
  3
AutoCAD 2000
 90
    32768
280
     0
281
     0
  0
CLASS
  1
ACDBDICTIONARYWDFLT
  2
AcDbDictionaryWithDefault
  3
AutoCAD 2000
 90
        0
280
     0
281
     0
  0
CLASS
  1
ACDBPLACEHOLDER
  2
AcDbPlaceHolder
  3
AutoCAD 2000
 90
        0
280
     0
281
     0
  0
CLASS
  1
VBA_PROJECT
  2
AcDbVbaProject
  3
acadvba
 90
    32768
280
     0
281
     0
  0
CLASS
  1
WIPEOUT
  2
AcDbWipeout
  3
WipeOut|AutoCAD Express Tool|expresstools@autodesk.com
 90
    32895
280
     0
281
     1
  0
CLASS
  1
WIPEOUTVARIABLES
  2
AcDbWipeoutVariables
  3
WipeOut|AutoCAD Express Tool|expresstools@autodesk.com
 90
        0
280
     0
281
     0
  0
CLASS
  1
RTEXT
  2
RText
  3
RText|AutoCAD Express Tool|expresstools@autodesk.com
 90
    32768
280
     0
281
     1
  0
CLASS
  1
ARCALIGNEDTEXT
  2
AcDbArcAlignedText
  3
ATEXT|AutoCAD Express Tool|expresstools@autodesk.com
 90
    32768
280
     0
281
     1
  0
ENDSEC
  0
SECTION
  2
TABLES
  0
TABLE
  2
VPORT
  5
7
100
AcDbSymbolTable
 70
     1
  0
VPORT
  5
15
100
AcDbSymbolTableRecord
100
AcDbViewportTableRecord
  2
*ACTIVE
 70
     0
 10
0.0
 20
0.0
 11
1.0
 21
1.0
 12
6.591288
 22
4.579184
 13
0.0
 23
0.0
 14
1.0
 24
1.0
 15
0.0
 25
0.0
 16
0.0
 26
0.0
 36
1.0
 17
0.0
 27
0.0
 37
0.0
 40
9.158369
 41
0.688564
 42
50.0
 43
0.0
 44
0.0
 50
0.0
 51
0.0
 71
     0
 72
   100
 73
     1
 74
     1
 75
     0
 76
     0
 77
     0
 78
     0
281
     0
 65
     0
110
0.0
120
0.0
130
0.0
111
1.0
121
0.0
131
0.0
112
0.0
122
1.0
132
0.0
345
0
346
0
 79
     0
146
0.0
  0
ENDTAB
  0
TABLE
  2
LTYPE
  5
4
100
AcDbSymbolTable
 70
     5
  0
LTYPE
  5
11
100
AcDbSymbolTableRecord
100
AcDbLinetypeTableRecord
  2
ByBlock
 70
    64
  3

 72
    65
 73
     0
 40
0.0
  0
LTYPE
  5
12
100
AcDbSymbolTableRecord
100
AcDbLinetypeTableRecord
  2
ByLayer
 70
    64
  3

 72
    65
 73
     0
 40
0.0
  0
LTYPE
  5
13
100
AcDbSymbolTableRecord
100
AcDbLinetypeTableRecord
  2
Continuous
 70
    64
  3
Solid line
 72
    65
 73
     0
 40
0.0
  0
LTYPE
  5
189
100
AcDbSymbolTableRecord
100
AcDbLinetypeTableRecord
  2
AI9-LType1
 70
    64
  3
Illustrator Dash Style No.1
 72
    65
 73
     4
 40
14.816667
 49
8.466667
 74
     0
 49
-2.822222
 74
     0
 49
0.705556
 74
     0
 49
-2.822222
 74
     0
  0
LTYPE
  5
1C4
100
AcDbSymbolTableRecord
100
AcDbLinetypeTableRecord
  2
AI9-LType2
 70
    64
  3
Illustrator Dash Style No.2
 72
    65
 73
     6
 40
17.638889
 49
8.466667
 74
     0
 49
-2.822222
 74
     0
 49
0.705556
 74
     0
 49
-2.116667
 74
     0
 49
0.705556
 74
     0
 49
-2.822222
 74
     0
  0
ENDTAB
  0
TABLE
  2
LAYER
  5
2
100
AcDbSymbolTable
 70
    13
  0
LAYER
  5
14
100
AcDbSymbolTableRecord
100
AcDbLayerTableRecord
  2
0
 70
     0
 62
     7
  6
Continuous
290
     1
370
    -3
390
1D
  0
LAYER
  5
28
100
AcDbSymbolTableRecord
100
AcDbLayerTableRecord
  2
TEXT
 70
     0
 62
     2
  6
Continuous
290
     1
370
    -3
390
1D
  0
LAYER
  5
40
100
AcDbSymbolTableRecord
100
AcDbLayerTableRecord
  2
0
 70
     0
 62
     5
  6
Continuous
290
     1
370
    -3
390
1D
  0
LAYER
  5
EC
100
AcDbSymbolTableRecord
100
AcDbLayerTableRecord
  2
AM_0
 70
     0
 62
     3
  6
Continuous
290
     1
370
    -3
390
1D
  0
LAYER
  5
174
100
AcDbSymbolTableRecord
100
AcDbLayerTableRecord
  2
AM_8
 70
     0
 62
     1
  6
Continuous
290
     1
370
    -3
390
1D
  0
LAYER
  5
17A
100
AcDbSymbolTableRecord
100
AcDbLayerTableRecord
  2
RAHMEN
 70
     0
 62
   160
  6
Continuous
290
     1
370
    -3
390
1D
  0
LAYER
  5
188
100
AcDbSymbolTableRecord
100
AcDbLayerTableRecord
  2
MITTELLINIE
 70
     0
 62
     7
  6
Continuous
290
     1
370
    -3
390
1D
  0
LAYER
  5
18F
100
AcDbSymbolTableRecord
100
AcDbLayerTableRecord
  2
SCHRAFFUR
 70
     0
 62
   253
  6
Continuous
290
     1
370
    -3
390
1D
  0
LAYER
  5
192
100
AcDbSymbolTableRecord
100
AcDbLayerTableRecord
  2
EBENE_1
 70
     0
 62
     4
  6
Continuous
290
     1
370
    -3
390
1D
  0
LAYER
  5
197
100
AcDbSymbolTableRecord
100
AcDbLayerTableRecord
  2
SCHRAFUR
 70
     0
 62
     6
  6
Continuous
290
     1
370
    -3
390
1D
  0
LAYER
  5
198
100
AcDbSymbolTableRecord
100
AcDbLayerTableRecord
  2
DAEMMUNG
 70
     0
 62
     2
  6
Continuous
290
     1
370
    -3
390
1D
  0
LAYER
  5
1C3
100
AcDbSymbolTableRecord
100
AcDbLayerTableRecord
  2
GETRENNT
 70
     0
 62
     5
  6
Continuous
290
     1
370
    -3
390
1D
  0
LAYER
  5
1C7
100
AcDbSymbolTableRecord
100
AcDbLayerTableRecord
  2
ROHR
 70
     0
 62
     1
  6
Continuous
290
     1
370
    -3
390
1D
  0
ENDTAB
  0
TABLE
  2
STYLE
  5
3
100
AcDbSymbolTable
 70
     5
  0
STYLE
  5
17
100
AcDbSymbolTableRecord
100
AcDbTextStyleTableRecord
  2
Standard
 70
     0
 40
0.0
 41
1.0
 50
0.0
 71
     0
 42
0.0
  3
txt
  4

  0
STYLE
  5
24
100
AcDbSymbolTableRecord
100
AcDbTextStyleTableRecord
  2
STD
 70
     0
 40
0.0
 41
1.0
 50
0.0
 71
     0
 42
0.0
  3
txt
  4

  0
STYLE
  5
25
100
AcDbSymbolTableRecord
100
AcDbTextStyleTableRecord
  2
TATESTD
 70
     4
 40
0.0
 41
1.0
 50
0.0
 71
     0
 42
0.0
  3
txt
  4

  0
STYLE
  5
26
100
AcDbSymbolTableRecord
100
AcDbTextStyleTableRecord
  2
KANJISTD
 70
     0
 40
0.0
 41
1.0
 50
0.0
 71
     0
 42
0.0
  3
txt
  4
extfont
  0
STYLE
  5
27
100
AcDbSymbolTableRecord
100
AcDbTextStyleTableRecord
  2
KANJITATE
 70
     4
 40
0.0
 41
1.0
 50
0.0
 71
     0
 42
0.0
  3
txt
  4
extfont
  0
ENDTAB
  0
TABLE
  2
VIEW
  5
5
100
AcDbSymbolTable
 70
     0
  0
ENDTAB
  0
TABLE
  2
UCS
  5
6
100
AcDbSymbolTable
 70
     0
  0
ENDTAB
  0
TABLE
  2
APPID
  5
8
100
AcDbSymbolTable
 70
     1
  0
APPID
  5
16
100
AcDbSymbolTableRecord
100
AcDbRegAppTableRecord
  2
ACAD
 70
     0
  0
ENDTAB
  0
TABLE
  2
DIMSTYLE
  5
9
100
AcDbSymbolTable
 70
     1
100
AcDbDimStyleTable
 71
     0
  0
DIMSTYLE
105
18
100
AcDbSymbolTableRecord
100
AcDbDimStyleTableRecord
  2
Standard
 70
     0
  3

  4

 40
1.0
 41
0.18
 42
0.0625
 43
0.38
 44
0.18
 45
0.0
 46
0.0
 47
0.0
 48
0.0
 71
     0
 72
     0
 73
     1
 74
     1
 75
     0
 76
     0
 77
     0
 78
     0
 79
     0
140
0.18
141
0.09
142
0.0
143
25.4
144
1.0
145
0.0
146
1.0
147
0.09
148
0.0
170
     0
171
     2
172
     0
173
     0
174
     0
175
     0
176
     0
177
     0
178
     0
179
     0
271
     4
272
     4
273
     2
274
     2
275
     0
276
     0
277
     2
278
    46
279
     0
280
     0
281
     0
282
     0
283
     1
284
     0
285
     0
286
     0
288
     0
340
17
341
0
342
0
343
0
344
0
371
    -2
372
    -2
  0
ENDTAB
  0
TABLE
  2
BLOCK_RECORD
  5
1
100
AcDbSymbolTable
 70
     6
  0
BLOCK_RECORD
  5
A
100
AcDbSymbolTableRecord
100
AcDbBlockTableRecord
  2
*MODEL_SPACE
340
20
  0
BLOCK_RECORD
  5
B
100
AcDbSymbolTableRecord
100
AcDbBlockTableRecord
  2
*PAPER_SPACE
340
21
  0
BLOCK_RECORD
  5
29
100
AcDbSymbolTableRecord
100
AcDbBlockTableRecord
  2
AI9-BLK1
340
0
102
{BLKREFS
331
2A
102
}
  0
BLOCK_RECORD
  5
30
100
AcDbSymbolTableRecord
100
AcDbBlockTableRecord
  2
AI9-BLK2
340
0
102
{BLKREFS
331
31
102
}
  0
BLOCK_RECORD
  5
35
100
AcDbSymbolTableRecord
100
AcDbBlockTableRecord
  2
AI9-BLK3
340
0
102
{BLKREFS
331
36
102
}
  0
BLOCK_RECORD
  5
3A
100
AcDbSymbolTableRecord
100
AcDbBlockTableRecord
  2
AI9-BLK4
340
0
102
{BLKREFS
331
3B
102
}
  0
BLOCK_RECORD
  5
1C8
100
AcDbSymbolTableRecord
100
AcDbBlockTableRecord
  2
AI9-BLK5
340
0
102
{BLKREFS
331
1C9
102
}
  0
BLOCK_RECORD
  5
207
100
AcDbSymbolTableRecord
100
AcDbBlockTableRecord
  2
AI9-BLK6
340
0
102
{BLKREFS
331
208
102
}
  0
ENDTAB
  0
ENDSEC
  0
SECTION
  2
BLOCKS
  0
BLOCK
  5
D
100
AcDbEntity
  8
0
100
AcDbBlockBegin
  2
*MODEL_SPACE
 70
     0
 10
0.0
 20
0.0
 30
0.0
  3
*MODEL_SPACE
  1

  0
ENDBLK
  5
E
100
AcDbEntity
  8
0
100
AcDbBlockEnd
  0
BLOCK
  5
F
100
AcDbEntity
 67
     1
  8
0
100
AcDbBlockBegin
  2
*PAPER_SPACE
 70
     0
 10
0.0
 20
0.0
 30
0.0
  3
*PAPER_SPACE
  1

  0
ENDBLK
  5
10
100
AcDbEntity
 67
     1
  8
0
100
AcDbBlockEnd
  0
BLOCK
  5
2B
100
AcDbEntity
  8
TEXT
 62
     7
100
AcDbBlockBegin
  2
AI9-BLK1
 70
     0
 10
0.0
 20
0.0
 30
0.0
  3
AI9-BLK1
  1

  0
MTEXT
  5
2E
100
AcDbEntity
  8
TEXT
 62
     7
100
AcDbMText
 10
-16.35249
 20
-3.617351
 30
0.0
 40
5.512152
 41
0.0
 71
     1
 72
     2
  1
\fArial|b0|i0;\H5.5122;\C7;\U+0033\U+0030
  7
STD
210
0.0
220
0.0
230
1.0
 73
     1
 44
1.0
  0
MTEXT
  5
2D
100
AcDbEntity
  8
TEXT
 62
     7
100
AcDbMText
 10
-16.35249
 20
3.790983
 30
0.0
 40
5.512152
 41
0.0
 71
     1
 72
     2
  1
\fArial|b0|i0;\H5.5122;\C7;\U+0053\U+0074\U+0061\U+006E\U+0064\U+0061\U+0072\U+0064\U+0020
  7
STD
210
0.0
220
0.0
230
1.0
 73
     1
 44
1.0
  0
MTEXT
  5
2C
100
AcDbEntity
  8
TEXT
 62
     7
100
AcDbMText
 10
-16.35249
 20
11.199316
 30
0.0
 40
5.512152
 41
0.0
 71
     1
 72
     2
  1
\fArial|b0|i0;\H5.5122;\C7;\U+0046\U+0048\U+0052\U+004B\U+002D
  7
STD
210
0.0
220
0.0
230
1.0
 73
     1
 44
1.0
  0
ENDBLK
  5
2F
100
AcDbEntity
  8
TEXT
100
AcDbBlockEnd
  0
BLOCK
  5
32
100
AcDbEntity
  8
TEXT
 62
     7
100
AcDbBlockBegin
  2
AI9-BLK2
 70
     0
 10
0.0
 20
0.0
 30
0.0
  3
AI9-BLK2
  1

  0
MTEXT
  5
33
100
AcDbEntity
  8
TEXT
 62
     7
100
AcDbMText
 10
-44.218145
 20
6.940834
 30
0.0
 40
5.512152
 41
0.0
 71
     1
 72
     2
  1
\fArial|b0|i0;\H5.5122;\C7;\U+004B\U+0065\U+0072\U+006E\U+0062\U+006F\U+0068\U+0072\U+0075\U+006E\U+0067
  7
STD
210
0.0
220
0.0
230
1.0
 73
     1
 44
1.0
  0
ENDBLK
  5
34
100
AcDbEntity
  8
TEXT
100
AcDbBlockEnd
  0
BLOCK
  5
37
100
AcDbEntity
  8
TEXT
 62
     7
100
AcDbBlockBegin
  2
AI9-BLK3
 70
     0
 10
0.0
 20
0.0
 30
0.0
  3
AI9-BLK3
  1

  0
MTEXT
  5
38
100
AcDbEntity
  8
TEXT
 62
     7
100
AcDbMText
 10
-59.482933
 20
6.975198
 30
0.0
 40
5.512152
 41
0.0
 71
     1
 72
     2
  1
\fArial|b0|i0;\H5.5122;\C7;\U+0057\U+00E4\U+0072\U+006D\U+0065\U+0064\U+00E4\U+006D\U+006D\U+0075\U+006E\U+0067
  7
STD
210
0.0
220
0.0
230
1.0
 73
     1
 44
1.0
  0
ENDBLK
  5
39
100
AcDbEntity
  8
TEXT
100
AcDbBlockEnd
  0
BLOCK
  5
3C
100
AcDbEntity
  8
TEXT
 62
     7
100
AcDbBlockBegin
  2
AI9-BLK4
 70
     0
 10
0.0
 20
0.0
 30
0.0
  3
AI9-BLK4
  1

  0
MTEXT
  5
3E
100
AcDbEntity
  8
TEXT
 62
     7
100
AcDbMText
 10
-31.19577
 20
1.255909
 30
0.0
 40
5.512152
 41
0.0
 71
     1
 72
     2
  1
\fArial|b0|i0;\H5.5122;\C7;\U+0045\U+006C\U+0065\U+006D\U+0065\U+006E\U+0074\U+0077\U+0061\U+006E\U+0064
  7
STD
210
0.0
220
0.0
230
1.0
 73
     1
 44
1.0
  0
MTEXT
  5
3D
100
AcDbEntity
  8
TEXT
 62
     7
100
AcDbMText
 10
-31.19577
 20
8.664243
 30
0.0
 40
5.512152
 41
0.0
 71
     1
 72
     2
  1
\fArial|b0|i0;\H5.5122;\C7;\U+0044\U+006F\U+0070\U+0070\U+0065\U+006C\U+002D\U+0020\U+002F
  7
STD
210
0.0
220
0.0
230
1.0
 73
     1
 44
1.0
  0
ENDBLK
  5
3F
100
AcDbEntity
  8
TEXT
100
AcDbBlockEnd
  0
BLOCK
  5
1CA
100
AcDbEntity
  8
ROHR
  6
AI9-LType2
 62
     7
100
AcDbBlockBegin
  2
AI9-BLK5
 70
     0
 10
0.0
 20
0.0
 30
0.0
  3
AI9-BLK5
  1

  0
LINE
  5
205
100
AcDbEntity
  8
ROHR
 62
     7
100
AcDbLine
 10
-0.639754
 20
-5.689145
 30
0.0
 11
-0.445451
 21
-5.494841
 31
0.0
  0
LINE
  5
204
100
AcDbEntity
  8
ROHR
 62
     7
100
AcDbLine
 10
-0.745174
 20
-5.264364
 30
0.0
 11
-0.514008
 21
-5.032854
 31
0.0
  0
LINE
  5
203
100
AcDbEntity
  8
ROHR
 62
     7
100
AcDbLine
 10
-2.054655
 20
6.154405
 30
0.0
 11
-0.47439
 21
7.734153
 31
0.0
  0
LINE
  5
202
100
AcDbEntity
  8
ROHR
 62
     7
100
AcDbLine
 10
-2.111844
 20
5.566671
 30
0.0
 11
0.10542
 21
7.784107
 31
0.0
  0
LINE
  5
201
100
AcDbEntity
  8
ROHR
 62
     7
100
AcDbLine
 10
-2.129414
 20
5.018557
 30
0.0
 11
0.560862
 21
7.70866
 31
0.0
  0
LINE
  5
200
100
AcDbEntity
  8
ROHR
 62
     7
100
AcDbLine
 10
-1.763544
 20
-0.448982
 30
0.0
 11
-0.995633
 21
0.31893
 31
0.0
  0
LINE
  5
1FF
100
AcDbEntity
  8
ROHR
 62
     7
100
AcDbLine
 10
-1.688097
 20
-0.904079
 30
0.0
 11
-0.974618
 21
-0.190428
 31
0.0
  0
LINE
  5
1FE
100
AcDbEntity
  8
ROHR
 62
     7
100
AcDbLine
 10
-0.848872
 20
-4.837861
 30
0.0
 11
-0.578776
 21
-4.567766
 31
0.0
  0
LINE
  5
1FD
100
AcDbEntity
  8
ROHR
 62
     7
100
AcDbLine
 10
-0.950846
 20
-4.408947
 30
0.0
 11
-0.639754
 21
-4.098199
 31
0.0
  0
LINE
  5
1FC
100
AcDbEntity
  8
ROHR
 62
     7
100
AcDbLine
 10
-1.05041
 20
-3.978655
 30
0.0
 11
-0.696598
 21
-3.624499
 31
0.0
  0
LINE
  5
1FB
100
AcDbEntity
  8
ROHR
 62
     7
100
AcDbLine
 10
-1.14825
 20
-3.545951
 30
0.0
 11
-0.749308
 21
-3.147009
 31
0.0
  0
LINE
  5
1FA
100
AcDbEntity
  8
ROHR
 62
     7
100
AcDbLine
 10
-1.244368
 20
-3.111696
 30
0.0
 11
-0.797884
 21
-2.665384
 31
0.0
  0
LINE
  5
1F9
100
AcDbEntity
  8
ROHR
 62
     7
100
AcDbLine
 10
-1.337731
 20
-2.675031
 30
0.0
 11
-0.842326
 21
-2.179454
 31
0.0
  0
LINE
  5
1F8
100
AcDbEntity
  8
ROHR
 62
     7
100
AcDbLine
 10
-1.429715
 20
-2.23647
 30
0.0
 11
-0.881944
 21
-1.689044
 31
0.0
  0
LINE
  5
1F7
100
AcDbEntity
  8
ROHR
 62
     7
100
AcDbLine
 10
-1.607137
 20
-1.352803
 30
0.0
 11
-0.948779
 21
-0.694445
 31
0.0
  0
LINE
  5
1F6
100
AcDbEntity
  8
ROHR
 62
     7
100
AcDbLine
 10
-1.518254
 20
-1.802732
 30
0.0
 11
-0.917084
 21
-1.201908
 31
0.0
  0
LINE
  5
1F5
100
AcDbEntity
  8
ROHR
 62
     7
100
AcDbLine
 10
-2.135615
 20
3.951955
 30
0.0
 11
-0.941889
 21
5.145508
 31
0.0
  0
LINE
  5
1F4
100
AcDbEntity
  8
ROHR
 62
     7
100
AcDbLine
 10
-2.124935
 20
3.43209
 30
0.0
 11
-0.971861
 21
4.585336
 31
0.0
  0
LINE
  5
1F3
100
AcDbEntity
  8
ROHR
 62
     7
100
AcDbLine
 10
-2.105642
 20
2.92101
 30
0.0
 11
-0.995288
 21
4.031537
 31
0.0
  0
LINE
  5
1F2
100
AcDbEntity
  8
ROHR
 62
     7
100
AcDbLine
 10
-2.043631
 20
1.922449
 30
0.0
 11
-1.023538
 21
2.942542
 31
0.0
  0
LINE
  5
1F1
100
AcDbEntity
  8
ROHR
 62
     7
100
AcDbLine
 10
-2.001256
 20
1.434279
 30
0.0
 11
-1.029395
 21
2.40683
 31
0.0
  0
LINE
  5
1F0
100
AcDbEntity
  8
ROHR
 62
     7
100
AcDbLine
 10
-2.078771
 20
2.417682
 30
0.0
 11
-1.012858
 21
3.484111
 31
0.0
  0
LINE
  5
1EF
100
AcDbEntity
  8
ROHR
 62
     7
100
AcDbLine
 10
-1.952336
 20
0.953516
 30
0.0
 11
-1.028706
 21
1.87663
 31
0.0
  0
LINE
  5
1EE
100
AcDbEntity
  8
ROHR
 62
     7
100
AcDbLine
 10
-1.895836
 20
0.479643
 30
0.0
 11
-1.023193
 21
1.352114
 31
0.0
  0
LINE
  5
1ED
100
AcDbEntity
  8
ROHR
 62
     7
100
AcDbLine
 10
-1.832791
 20
0.011972
 30
0.0
 11
-1.011825
 21
0.832766
 31
0.0
  0
LINE
  5
1EC
100
AcDbEntity
  8
ROHR
 62
     7
100
AcDbLine
 10
-2.137337
 20
4.480605
 30
0.0
 11
-0.906749
 21
5.711021
 31
0.0
  0
LINE
  5
1EB
100
AcDbEntity
  8
ROHR
 62
     7
100
AcDbLine
 10
1.030084
 20
-0.837589
 30
0.0
 11
1.941656
 21
0.074156
 31
0.0
  0
LINE
  5
1EA
100
AcDbEntity
  8
ROHR
 62
     7
100
AcDbLine
 10
1.052821
 20
-0.284479
 30
0.0
 11
1.997466
 21
0.659994
 31
0.0
  0
LINE
  5
1E9
100
AcDbEntity
  8
ROHR
 62
     7
100
AcDbLine
 10
0.661114
 20
-4.919166
 30
0.0
 11
1.211985
 21
-4.367606
 31
0.0
  0
LINE
  5
1E8
100
AcDbEntity
  8
ROHR
 62
     7
100
AcDbLine
 10
0.574297
 20
-5.536182
 30
0.0
 11
1.047654
 21
-5.062826
 31
0.0
  0
LINE
  5
1E7
100
AcDbEntity
  8
ROHR
 62
     7
100
AcDbLine
 10
0.253215
 20
-7.447521
 30
0.0
 11
0.428914
 21
-7.27251
 31
0.0
  0
LINE
  5
1E6
100
AcDbEntity
  8
ROHR
 62
     7
100
AcDbLine
 10
-0.083027
 20
-7.783763
 30
0.0
 11
-0.046853
 21
-7.747934
 31
0.0
  0
LINE
  5
1E5
100
AcDbEntity
  8
ROHR
 62
     7
100
AcDbLine
 10
-0.197748
 20
-7.368284
 30
0.0
 11
-0.13367
 21
-7.304205
 31
0.0
  0
LINE
  5
1E4
100
AcDbEntity
  8
ROHR
 62
     7
100
AcDbLine
 10
-0.311092
 20
-6.951428
 30
0.0
 11
-0.217041
 21
-6.857032
 31
0.0
  0
LINE
  5
1E3
100
AcDbEntity
  8
ROHR
 62
     7
100
AcDbLine
 10
0.478179
 20
-6.162501
 30
0.0
 11
0.863685
 21
-5.776994
 31
0.0
  0
LINE
  5
1E2
100
AcDbEntity
  8
ROHR
 62
     7
100
AcDbLine
 10
-0.532267
 20
-6.111858
 30
0.0
 11
-0.373104
 21
-5.952694
 31
0.0
  0
LINE
  5
1E1
100
AcDbEntity
  8
ROHR
 62
     7
100
AcDbLine
 10
0.371037
 20
-6.799154
 30
0.0
 11
0.658013
 21
-6.512522
 31
0.0
  0
LINE
  5
1E0
100
AcDbEntity
  8
ROHR
 62
     7
100
AcDbLine
 10
-0.422713
 20
-6.532504
 30
0.0
 11
-0.296623
 21
-6.406413
 31
0.0
  0
LINE
  5
1DF
100
AcDbEntity
  8
ROHR
 62
     7
100
AcDbLine
 10
0.737939
 20
-4.311451
 30
0.0
 11
1.35909
 21
-3.6903
 31
0.0
  0
LINE
  5
1DE
100
AcDbEntity
  8
ROHR
 62
     7
100
AcDbLine
 10
0.806841
 20
-3.712349
 30
0.0
 11
1.490004
 21
-3.029014
 31
0.0
  0
LINE
  5
1DD
100
AcDbEntity
  8
ROHR
 62
     7
100
AcDbLine
 10
0.866786
 20
-3.122032
 30
0.0
 11
1.606104
 21
-2.382714
 31
0.0
  0
LINE
  5
1DC
100
AcDbEntity
  8
ROHR
 62
     7
100
AcDbLine
 10
0.918807
 20
-2.539638
 30
0.0
 11
1.708423
 21
-1.750022
 31
0.0
  0
LINE
  5
1DB
100
AcDbEntity
  8
ROHR
 62
     7
100
AcDbLine
 10
1.000111
 20
-1.397761
 30
0.0
 11
1.87551
 21
-0.522363
 31
0.0
  0
LINE
  5
1DA
100
AcDbEntity
  8
ROHR
 62
     7
100
AcDbLine
 10
0.962904
 20
-1.964996
 30
0.0
 11
1.797995
 21
-1.130077
 31
0.0
  0
LINE
  5
1D9
100
AcDbEntity
  8
ROHR
 62
     7
100
AcDbLine
 10
1.018026
 20
3.923361
 30
0.0
 11
2.120456
 21
5.026136
 31
0.0
  0
LINE
  5
1D8
100
AcDbEntity
  8
ROHR
 62
     7
100
AcDbLine
 10
1.041797
 20
3.416932
 30
0.0
 11
2.132859
 21
4.507821
 31
0.0
  0
LINE
  5
1D7
100
AcDbEntity
  8
ROHR
 62
     7
100
AcDbLine
 10
1.081071
 20
1.865261
 30
0.0
 11
2.12459
 21
2.908608
 31
0.0
  0
LINE
  5
1D6
100
AcDbEntity
  8
ROHR
 62
     7
100
AcDbLine
 10
1.083138
 20
1.337128
 30
0.0
 11
2.105987
 21
2.359804
 31
0.0
  0
LINE
  5
1D5
100
AcDbEntity
  8
ROHR
 62
     7
100
AcDbLine
 10
1.079004
 20
0.802793
 30
0.0
 11
2.079115
 21
1.80256
 31
0.0
  0
LINE
  5
1D4
100
AcDbEntity
  8
ROHR
 62
     7
100
AcDbLine
 10
1.069358
 20
0.262258
 30
0.0
 11
2.042942
 21
1.235842
 31
0.0
  0
LINE
  5
1D3
100
AcDbEntity
  8
ROHR
 62
     7
100
AcDbLine
 10
1.0604
 20
2.904991
 30
0.0
 11
2.137337
 21
3.982272
 31
0.0
  0
LINE
  5
1D2
100
AcDbEntity
  8
ROHR
 62
     7
100
AcDbLine
 10
1.073492
 20
2.388054
 30
0.0
 11
2.134926
 21
3.449488
 31
0.0
  0
LINE
  5
1D1
100
AcDbEntity
  8
ROHR
 62
     7
100
AcDbLine
 10
-0.03135
 20
6.586764
 30
0.0
 11
0.942234
 21
7.560004
 31
0.0
  0
LINE
  5
1D0
100
AcDbEntity
  8
ROHR
 62
     7
100
AcDbLine
 10
0.401698
 20
6.489096
 30
0.0
 11
1.26814
 21
7.355365
 31
0.0
  0
LINE
  5
1CF
100
AcDbEntity
  8
ROHR
 62
     7
100
AcDbLine
 10
0.694187
 20
6.251384
 30
0.0
 11
1.544781
 21
7.101978
 31
0.0
  0
LINE
  5
1CE
100
AcDbEntity
  8
ROHR
 62
     7
100
AcDbLine
 10
0.868164
 20
5.895334
 30
0.0
 11
1.773535
 21
6.80036
 31
0.0
  0
LINE
  5
1CD
100
AcDbEntity
  8
ROHR
 62
     7
100
AcDbLine
 10
0.91674
 20
5.413192
 30
0.0
 11
1.950269
 21
6.446893
 31
0.0
  0
LINE
  5
1CC
100
AcDbEntity
  8
ROHR
 62
     7
100
AcDbLine
 10
0.95498
 20
4.921405
 30
0.0
 11
2.064646
 21
6.030726
 31
0.0
  0
LINE
  5
1CB
100
AcDbEntity
  8
ROHR
 62
     7
100
AcDbLine
 10
0.989087
 20
4.424795
 30
0.0
 11
2.101164
 21
5.537388
 31
0.0
  0
ENDBLK
  5
206
100
AcDbEntity
  8
ROHR
100
AcDbBlockEnd
  0
BLOCK
  5
209
100
AcDbEntity
  8
ROHR
 62
     7
100
AcDbBlockBegin
  2
AI9-BLK6
 70
     0
 10
0.0
 20
0.0
 30
0.0
  3
AI9-BLK6
  1

  0
LINE
  5
246
100
AcDbEntity
  8
ROHR
 62
     7
100
AcDbLine
 10
-0.918635
 20
2.333535
 30
0.0
 11
-1.708251
 21
1.543231
 31
0.0
  0
LINE
  5
245
100
AcDbEntity
  8
ROHR
 62
     7
100
AcDbLine
 10
1.429715
 20
2.029678
 30
0.0
 11
0.882289
 21
1.481908
 31
0.0
  0
LINE
  5
244
100
AcDbEntity
  8
ROHR
 62
     7
100
AcDbLine
 10
-0.693842
 20
-6.457659
 30
0.0
 11
-1.544781
 21
-7.308598
 31
0.0
  0
LINE
  5
243
100
AcDbEntity
  8
ROHR
 62
     7
100
AcDbLine
 10
2.054483
 20
-6.361197
 30
0.0
 11
0.474562
 21
-7.941117
 31
0.0
  0
LINE
  5
242
100
AcDbEntity
  8
ROHR
 62
     7
100
AcDbLine
 10
2.112188
 20
-5.773463
 30
0.0
 11
-0.105248
 21
-7.990727
 31
0.0
  0
LINE
  5
241
100
AcDbEntity
  8
ROHR
 62
     7
100
AcDbLine
 10
-0.868336
 20
-6.102125
 30
0.0
 11
-1.773363
 21
-7.006807
 31
0.0
  0
LINE
  5
240
100
AcDbEntity
  8
ROHR
 62
     7
100
AcDbLine
 10
-0.916568
 20
-5.619812
 30
0.0
 11
-1.950441
 21
-6.65403
 31
0.0
  0
LINE
  5
23F
100
AcDbEntity
  8
ROHR
 62
     7
100
AcDbLine
 10
2.129758
 20
-5.225693
 30
0.0
 11
-0.560517
 21
-7.914935
 31
0.0
  0
LINE
  5
23E
100
AcDbEntity
  8
ROHR
 62
     7
100
AcDbLine
 10
0.03135
 20
-6.793212
 30
0.0
 11
-0.942234
 21
-7.766796
 31
0.0
  0
LINE
  5
23D
100
AcDbEntity
  8
ROHR
 62
     7
100
AcDbLine
 10
-0.401354
 20
-6.695371
 30
0.0
 11
-1.267967
 21
-7.562157
 31
0.0
  0
LINE
  5
23C
100
AcDbEntity
  8
ROHR
 62
     7
100
AcDbLine
 10
-1.081243
 20
-2.072053
 30
0.0
 11
-2.124246
 21
-3.115228
 31
0.0
  0
LINE
  5
23B
100
AcDbEntity
  8
ROHR
 62
     7
100
AcDbLine
 10
-1.082966
 20
-1.543575
 30
0.0
 11
-2.105987
 21
-2.566079
 31
0.0
  0
LINE
  5
23A
100
AcDbEntity
  8
ROHR
 62
     7
100
AcDbLine
 10
-0.988915
 20
-4.631759
 30
0.0
 11
-2.101508
 21
-5.743835
 31
0.0
  0
LINE
  5
239
100
AcDbEntity
  8
ROHR
 62
     7
100
AcDbLine
 10
-1.041625
 20
-3.623724
 30
0.0
 11
-2.132514
 21
-4.714441
 31
0.0
  0
LINE
  5
238
100
AcDbEntity
  8
ROHR
 62
     7
100
AcDbLine
 10
-1.060228
 20
-3.111782
 30
0.0
 11
-2.137509
 21
-4.188719
 31
0.0
  0
LINE
  5
237
100
AcDbEntity
  8
ROHR
 62
     7
100
AcDbLine
 10
-1.073492
 20
-2.594329
 30
0.0
 11
-2.134926
 21
-3.656108
 31
0.0
  0
LINE
  5
236
100
AcDbEntity
  8
ROHR
 62
     7
100
AcDbLine
 10
-0.955153
 20
-5.127852
 30
0.0
 11
-2.064301
 21
-6.237173
 31
0.0
  0
LINE
  5
235
100
AcDbEntity
  8
ROHR
 62
     7
100
AcDbLine
 10
-1.017853
 20
-4.130153
 30
0.0
 11
-2.120456
 21
-5.232583
 31
0.0
  0
LINE
  5
234
100
AcDbEntity
  8
ROHR
 62
     7
100
AcDbLine
 10
-1.079176
 20
-1.008896
 30
0.0
 11
-2.078771
 21
-2.009352
 31
0.0
  0
LINE
  5
233
100
AcDbEntity
  8
ROHR
 62
     7
100
AcDbLine
 10
-0.962904
 20
1.758894
 30
0.0
 11
-1.797651
 21
0.923802
 31
0.0
  0
LINE
  5
232
100
AcDbEntity
  8
ROHR
 62
     7
100
AcDbLine
 10
-0.999767
 20
1.191142
 30
0.0
 11
-1.875165
 21
0.316088
 31
0.0
  0
LINE
  5
231
100
AcDbEntity
  8
ROHR
 62
     7
100
AcDbLine
 10
-1.029739
 20
0.630969
 30
0.0
 11
-1.941656
 21
-0.280603
 31
0.0
  0
LINE
  5
230
100
AcDbEntity
  8
ROHR
 62
     7
100
AcDbLine
 10
-1.052821
 20
0.077687
 30
0.0
 11
-1.997122
 21
-0.866269
 31
0.0
  0
LINE
  5
22F
100
AcDbEntity
  8
ROHR
 62
     7
100
AcDbLine
 10
-1.069013
 20
-0.469394
 30
0.0
 11
-2.042597
 21
-1.442978
 31
0.0
  0
LINE
  5
22E
100
AcDbEntity
  8
ROHR
 62
     7
100
AcDbLine
 10
2.043975
 20
-2.129241
 30
0.0
 11
1.023882
 21
-3.14899
 31
0.0
  0
LINE
  5
22D
100
AcDbEntity
  8
ROHR
 62
     7
100
AcDbLine
 10
2.0016
 20
-1.641416
 30
0.0
 11
1.029222
 21
-2.612933
 31
0.0
  0
LINE
  5
22C
100
AcDbEntity
  8
ROHR
 62
     7
100
AcDbLine
 10
2.125107
 20
-3.638882
 30
0.0
 11
0.971861
 21
-4.791611
 31
0.0
  0
LINE
  5
22B
100
AcDbEntity
  8
ROHR
 62
     7
100
AcDbLine
 10
2.105987
 20
-3.12763
 30
0.0
 11
0.99546
 21
-4.23764
 31
0.0
  0
LINE
  5
22A
100
AcDbEntity
  8
ROHR
 62
     7
100
AcDbLine
 10
2.135615
 20
-4.158403
 30
0.0
 11
0.941889
 21
-5.351784
 31
0.0
  0
LINE
  5
229
100
AcDbEntity
  8
ROHR
 62
     7
100
AcDbLine
 10
2.078771
 20
-2.624646
 30
0.0
 11
1.012686
 21
-3.690559
 31
0.0
  0
LINE
  5
228
100
AcDbEntity
  8
ROHR
 62
     7
100
AcDbLine
 10
2.137509
 20
-4.68688
 30
0.0
 11
0.906749
 21
-5.917468
 31
0.0
  0
LINE
  5
227
100
AcDbEntity
  8
ROHR
 62
     7
100
AcDbLine
 10
1.952163
 20
-1.159791
 30
0.0
 11
1.02905
 21
-2.083766
 31
0.0
  0
LINE
  5
226
100
AcDbEntity
  8
ROHR
 62
     7
100
AcDbLine
 10
1.518081
 20
1.596285
 30
0.0
 11
0.917084
 21
0.99546
 31
0.0
  0
LINE
  5
225
100
AcDbEntity
  8
ROHR
 62
     7
100
AcDbLine
 10
1.763544
 20
0.242362
 30
0.0
 11
0.995977
 21
-0.525205
 31
0.0
  0
LINE
  5
224
100
AcDbEntity
  8
ROHR
 62
     7
100
AcDbLine
 10
1.688097
 20
0.697115
 30
0.0
 11
0.974445
 21
-0.016709
 31
0.0
  0
LINE
  5
223
100
AcDbEntity
  8
ROHR
 62
     7
100
AcDbLine
 10
1.606793
 20
1.146356
 30
0.0
 11
0.948607
 21
0.487653
 31
0.0
  0
LINE
  5
222
100
AcDbEntity
  8
ROHR
 62
     7
100
AcDbLine
 10
1.895836
 20
-0.686435
 30
0.0
 11
1.023021
 21
-1.558733
 31
0.0
  0
LINE
  5
221
100
AcDbEntity
  8
ROHR
 62
     7
100
AcDbLine
 10
1.832791
 20
-0.218591
 30
0.0
 11
1.011997
 21
-1.039902
 31
0.0
  0
LINE
  5
220
100
AcDbEntity
  8
ROHR
 62
     7
100
AcDbLine
 10
-0.806497
 20
3.505557
 30
0.0
 11
-1.490004
 21
2.822739
 31
0.0
  0
LINE
  5
21F
100
AcDbEntity
  8
ROHR
 62
     7
100
AcDbLine
 10
-0.866786
 20
2.915757
 30
0.0
 11
-1.605931
 21
2.176439
 31
0.0
  0
LINE
  5
21E
100
AcDbEntity
  8
ROHR
 62
     7
100
AcDbLine
 10
-0.738112
 20
4.105004
 30
0.0
 11
-1.358918
 21
3.483508
 31
0.0
  0
LINE
  5
21D
100
AcDbEntity
  8
ROHR
 62
     7
100
AcDbLine
 10
-0.574297
 20
5.32939
 30
0.0
 11
-1.047309
 21
4.856034
 31
0.0
  0
LINE
  5
21C
100
AcDbEntity
  8
ROHR
 62
     7
100
AcDbLine
 10
-0.660769
 20
4.712374
 30
0.0
 11
-1.211985
 21
4.160814
 31
0.0
  0
LINE
  5
21B
100
AcDbEntity
  8
ROHR
 62
     7
100
AcDbLine
 10
-0.477835
 20
5.955709
 30
0.0
 11
-0.863341
 21
5.570203
 31
0.0
  0
LINE
  5
21A
100
AcDbEntity
  8
ROHR
 62
     7
100
AcDbLine
 10
-0.123851
 20
7.900465
 30
0.0
 11
-0.172944
 21
7.851717
 31
0.0
  0
LINE
  5
219
100
AcDbEntity
  8
ROHR
 62
     7
100
AcDbLine
 10
-0.253387
 20
7.240902
 30
0.0
 11
-0.429087
 21
7.065374
 31
0.0
  0
LINE
  5
218
100
AcDbEntity
  8
ROHR
 62
     7
100
AcDbLine
 10
-0.371209
 20
6.592707
 30
0.0
 11
-0.658013
 21
6.306075
 31
0.0
  0
LINE
  5
217
100
AcDbEntity
  8
ROHR
 62
     7
100
AcDbLine
 10
1.050754
 20
3.772207
 30
0.0
 11
0.696426
 21
3.418051
 31
0.0
  0
LINE
  5
216
100
AcDbEntity
  8
ROHR
 62
     7
100
AcDbLine
 10
1.148423
 20
3.339503
 30
0.0
 11
0.749481
 21
2.940561
 31
0.0
  0
LINE
  5
215
100
AcDbEntity
  8
ROHR
 62
     7
100
AcDbLine
 10
1.244196
 20
2.904732
 30
0.0
 11
0.798056
 21
2.458937
 31
0.0
  0
LINE
  5
214
100
AcDbEntity
  8
ROHR
 62
     7
100
AcDbLine
 10
1.338075
 20
2.468583
 30
0.0
 11
0.842154
 21
1.972489
 31
0.0
  0
LINE
  5
213
100
AcDbEntity
  8
ROHR
 62
     7
100
AcDbLine
 10
0.531923
 20
5.905066
 30
0.0
 11
0.372932
 21
5.745903
 31
0.0
  0
LINE
  5
212
100
AcDbEntity
  8
ROHR
 62
     7
100
AcDbLine
 10
0.63941
 20
5.482353
 30
0.0
 11
0.445279
 21
5.288049
 31
0.0
  0
LINE
  5
211
100
AcDbEntity
  8
ROHR
 62
     7
100
AcDbLine
 10
0.745002
 20
5.057572
 30
0.0
 11
0.514008
 21
4.826062
 31
0.0
  0
LINE
  5
210
100
AcDbEntity
  8
ROHR
 62
     7
100
AcDbLine
 10
0.848872
 20
4.630725
 30
0.0
 11
0.578948
 21
4.361319
 31
0.0
  0
LINE
  5
20F
100
AcDbEntity
  8
ROHR
 62
     7
100
AcDbLine
 10
0.950674
 20
4.202155
 30
0.0
 11
0.639582
 21
3.891408
 31
0.0
  0
LINE
  5
20E
100
AcDbEntity
  8
ROHR
 62
     7
100
AcDbLine
 10
-0.033934
 20
7.990727
 30
0.0
 11
-0.042719
 21
7.981597
 31
0.0
  0
LINE
  5
20D
100
AcDbEntity
  8
ROHR
 62
     7
100
AcDbLine
 10
0.083027
 20
7.577315
 30
0.0
 11
0.047198
 21
7.541659
 31
0.0
  0
LINE
  5
20C
100
AcDbEntity
  8
ROHR
 62
     7
100
AcDbLine
 10
0.198093
 20
7.161837
 30
0.0
 11
0.134014
 21
7.097758
 31
0.0
  0
LINE
  5
20B
100
AcDbEntity
  8
ROHR
 62
     7
100
AcDbLine
 10
0.311264
 20
6.744636
 30
0.0
 11
0.217213
 21
6.650585
 31
0.0
  0
LINE
  5
20A
100
AcDbEntity
  8
ROHR
 62
     7
100
AcDbLine
 10
0.422541
 20
6.325712
 30
0.0
 11
0.296795
 21
6.199966
 31
0.0
  0
ENDBLK
  5
247
100
AcDbEntity
  8
ROHR
100
AcDbBlockEnd
  0
ENDSEC
  0
SECTION
  2
ENTITIES
  0
INSERT
  5
208
100
AcDbEntity
  8
ROHR
 62
     7
100
AcDbBlockReference
  2
AI9-BLK6
 10
95.727835
 20
142.307076
 30
0.0
  0
INSERT
  5
1C9
100
AcDbEntity
  8
ROHR
  6
AI9-LType2
 62
     7
100
AcDbBlockReference
  2
AI9-BLK5
 10
167.836095
 20
152.965254
 30
0.0
  0
LINE
  5
1C6
100
AcDbEntity
  8
GETRENNT
  6
AI9-LType2
 62
     7
100
AcDbLine
 10
101.782246
 20
207.418864
 30
0.0
 11
160.531803
 21
207.418864
 31
0.0
  0
LINE
  5
1C5
100
AcDbEntity
  8
GETRENNT
  6
AI9-LType2
 62
     7
100
AcDbLine
 10
101.704731
 20
87.673891
 30
0.0
 11
160.454289
 21
87.673891
 31
0.0
  0
SPLINE
  5
1C2
100
AcDbEntity
  8
DAEMMUNG
 62
     7
100
AcDbSpline
210
0.0
220
0.0
230
1.0
 70
     8
 71
     3
 72
    17
 73
    13
 74
     0
 42
0.00000001
 43
0.00000001
 40
0.0
 40
0.0
 40
0.0
 40
0.0
 40
1.0
 40
1.0
 40
1.0
 40
2.0
 40
2.0
 40
2.0
 40
3.0
 40
3.0
 40
3.0
 40
4.0
 40
4.0
 40
4.0
 40
4.0
 10
114.60282389322916
 20
193.03076714409721
 30
0.0
 10
113.85075954861109
 20
192.73672824435761
 30
0.0
 10
112.99499782986111
 20
192.97857394748263
 30
0.0
 10
112.50786132812499
 20
193.62229003906248
 30
0.0
 10
112.02038031684027
 20
194.26617838541665
 30
0.0
 10
112.02038031684027
 20
195.15552978515623
 30
0.0
 10
112.50786132812499
 20
195.79941813151041
 30
0.0
 10
112.99499782986111
 20
196.44330647786455
 30
0.0
 10
113.85075954861109
 20
196.68480767144095
 30
0.0
 10
114.60282389322916
 20
196.39076877170137
 30
0.0
 10
114.60282389322916
 20
196.39076877170137
 30
0.0
 10
118.92297363281249
 20
194.71076795789929
 30
0.0
 10
118.92297363281249
 20
194.71076795789929
 30
0.0
  0
SPLINE
  5
1C1
100
AcDbEntity
  8
DAEMMUNG
 62
     7
100
AcDbSpline
210
0.0
220
0.0
230
1.0
 70
     8
 71
     3
 72
    17
 73
    13
 74
     0
 42
0.00000001
 43
0.00000001
 40
0.0
 40
0.0
 40
0.0
 40
0.0
 40
1.0
 40
1.0
 40
1.0
 40
2.0
 40
2.0
 40
2.0
 40
3.0
 40
3.0
 40
3.0
 40
4.0
 40
4.0
 40
4.0
 40
4.0
 10
118.92297363281249
 20
194.71076795789929
 30
0.0
 10
119.70053168402777
 20
194.46254882812499
 30
0.0
 10
120.54974772135415
 20
194.74160156249999
 30
0.0
 10
121.02827148437498
 20
195.40271538628471
 30
0.0
 10
121.50679524739583
 20
196.06400146484373
 30
0.0
 10
121.50679524739583
 20
196.95765923394094
 30
0.0
 10
121.02827148437498
 20
197.61894531249999
 30
0.0
 10
120.54974772135415
 20
198.28005913628471
 30
0.0
 10
119.70053168402777
 20
198.55911187065971
 30
0.0
 10
118.92297363281249
 20
198.31089274088541
 30
0.0
 10
118.92297363281249
 20
198.31089274088541
 30
0.0
 10
114.60282389322916
 20
196.87084282769095
 30
0.0
 10
114.60282389322916
 20
196.87084282769095
 30
0.0
  0
SPLINE
  5
1C0
100
AcDbEntity
  8
DAEMMUNG
 62
     7
100
AcDbSpline
210
0.0
220
0.0
230
1.0
 70
     8
 71
     3
 72
    14
 73
    10
 74
     0
 42
0.00000001
 43
0.00000001
 40
0.0
 40
0.0
 40
0.0
 40
0.0
 40
1.0
 40
1.0
 40
1.0
 40
2.0
 40
2.0
 40
2.0
 40
3.0
 40
3.0
 40
3.0
 40
3.0
 10
112.14647081163193
 20
171.5466349283854
 30
0.0
 10
112.10409613715277
 20
172.16313476562499
 30
0.0
 10
112.38004828559026
 20
172.75861952039929
 30
0.0
 10
112.87820909288193
 20
173.12448866102429
 30
0.0
 10
113.3763699001736
 20
173.49035780164928
 30
0.0
 10
114.02714843749999
 20
173.57596842447916
 30
0.0
 10
114.60282389322916
 20
173.35083143446178
 30
0.0
 10
114.60282389322916
 20
173.35083143446178
 30
0.0
 10
118.92297363281249
 20
171.6708306206597
 30
0.0
 10
118.92297363281249
 20
171.6708306206597
 30
0.0
  0
SPLINE
  5
1BF
100
AcDbEntity
  8
DAEMMUNG
 62
     7
100
AcDbSpline
210
0.0
220
0.0
230
1.0
 70
     8
 71
     3
 72
    17
 73
    13
 74
     0
 42
0.00000001
 43
0.00000001
 40
0.0
 40
0.0
 40
0.0
 40
0.0
 40
1.0
 40
1.0
 40
1.0
 40
2.0
 40
2.0
 40
2.0
 40
3.0
 40
3.0
 40
3.0
 40
4.0
 40
4.0
 40
4.0
 40
4.0
 10
118.92297363281249
 20
190.87069227430553
 30
0.0
 10
119.70053168402777
 20
190.62247314453123
 30
0.0
 10
120.54974772135415
 20
190.90152587890623
 30
0.0
 10
121.02827148437498
 20
191.56263970269094
 30
0.0
 10
121.50679524739583
 20
192.22392578124999
 30
0.0
 10
121.50679524739583
 20
193.11758355034721
 30
0.0
 10
121.02827148437498
 20
193.77886962890622
 30
0.0
 10
120.54974772135415
 20
194.43998345269097
 30
0.0
 10
119.70053168402777
 20
194.71903618706597
 30
0.0
 10
118.92297363281249
 20
194.47081705729164
 30
0.0
 10
118.92297363281249
 20
194.47081705729164
 30
0.0
 10
114.60282389322916
 20
193.03076714409721
 30
0.0
 10
114.60282389322916
 20
193.03076714409721
 30
0.0
  0
SPLINE
  5
1BE
100
AcDbEntity
  8
DAEMMUNG
 62
     7
100
AcDbSpline
210
0.0
220
0.0
230
1.0
 70
     8
 71
     3
 72
    17
 73
    13
 74
     0
 42
0.00000001
 43
0.00000001
 40
0.0
 40
0.0
 40
0.0
 40
0.0
 40
1.0
 40
1.0
 40
1.0
 40
2.0
 40
2.0
 40
2.0
 40
3.0
 40
3.0
 40
3.0
 40
4.0
 40
4.0
 40
4.0
 40
4.0
 10
114.60282389322916
 20
189.19069146050344
 30
0.0
 10
113.85075954861109
 20
188.89699707031249
 30
0.0
 10
112.99499782986111
 20
189.13849826388886
 30
0.0
 10
112.50786132812499
 20
189.78238661024304
 30
0.0
 10
112.02038031684027
 20
190.42627495659721
 30
0.0
 10
112.02038031684027
 20
191.31545410156249
 30
0.0
 10
112.50786132812499
 20
191.95934244791664
 30
0.0
 10
112.99499782986111
 20
192.60323079427081
 30
0.0
 10
113.85075954861109
 20
192.84473198784721
 30
0.0
 10
114.60282389322916
 20
192.55069308810761
 30
0.0
 10
114.60282389322916
 20
192.55069308810761
 30
0.0
 10
118.92297363281249
 20
190.87069227430553
 30
0.0
 10
118.92297363281249
 20
190.87069227430553
 30
0.0
  0
SPLINE
  5
1BD
100
AcDbEntity
  8
DAEMMUNG
 62
     7
100
AcDbSpline
210
0.0
220
0.0
230
1.0
 70
     8
 71
     3
 72
    17
 73
    13
 74
     0
 42
0.00000001
 43
0.00000001
 40
0.0
 40
0.0
 40
0.0
 40
0.0
 40
1.0
 40
1.0
 40
1.0
 40
2.0
 40
2.0
 40
2.0
 40
3.0
 40
3.0
 40
3.0
 40
4.0
 40
4.0
 40
4.0
 40
4.0
 10
114.60282389322916
 20
181.51088460286456
 30
0.0
 10
113.85075954861109
 20
181.21684570312499
 30
0.0
 10
112.99499782986111
 20
181.45834689670139
 30
0.0
 10
112.50786132812499
 20
182.10223524305553
 30
0.0
 10
112.02038031684027
 20
182.74612358940971
 30
0.0
 10
112.02038031684027
 20
183.63547498914929
 30
0.0
 10
112.50786132812499
 20
184.27936333550346
 30
0.0
 10
112.99499782986111
 20
184.92325168185764
 30
0.0
 10
113.85075954861109
 20
185.1649251302083
 30
0.0
 10
114.60282389322916
 20
184.87088623046873
 30
0.0
 10
114.60282389322916
 20
184.87088623046873
 30
0.0
 10
118.92297363281249
 20
183.19088541666665
 30
0.0
 10
118.92297363281249
 20
183.19088541666665
 30
0.0
  0
SPLINE
  5
1BC
100
AcDbEntity
  8
DAEMMUNG
 62
     7
100
AcDbSpline
210
0.0
220
0.0
230
1.0
 70
     8
 71
     3
 72
    17
 73
    13
 74
     0
 42
0.00000001
 43
0.00000001
 40
0.0
 40
0.0
 40
0.0
 40
0.0
 40
1.0
 40
1.0
 40
1.0
 40
2.0
 40
2.0
 40
2.0
 40
3.0
 40
3.0
 40
3.0
 40
4.0
 40
4.0
 40
4.0
 40
4.0
 10
114.60282389322916
 20
173.83090549045139
 30
0.0
 10
113.85075954861109
 20
173.53686659071178
 30
0.0
 10
112.99499782986111
 20
173.77854003906248
 30
0.0
 10
112.50786132812499
 20
174.42242838541665
 30
0.0
 10
112.02038031684027
 20
175.06631673177083
 30
0.0
 10
112.02038031684027
 20
175.95532362196178
 30
0.0
 10
112.50786132812499
 20
176.59921196831596
 30
0.0
 10
112.99499782986111
 20
177.24310031467013
 30
0.0
 10
113.85075954861109
 20
177.48477376302083
 30
0.0
 10
114.60282389322916
 20
177.19090711805555
 30
0.0
 10
114.60282389322916
 20
177.19090711805555
 30
0.0
 10
118.92297363281249
 20
175.51090630425347
 30
0.0
 10
118.92297363281249
 20
175.51090630425347
 30
0.0
  0
SPLINE
  5
1BB
100
AcDbEntity
  8
DAEMMUNG
 62
     7
100
AcDbSpline
210
0.0
220
0.0
230
1.0
 70
     8
 71
     3
 72
    17
 73
    13
 74
     0
 42
0.00000001
 43
0.00000001
 40
0.0
 40
0.0
 40
0.0
 40
0.0
 40
1.0
 40
1.0
 40
1.0
 40
2.0
 40
2.0
 40
2.0
 40
3.0
 40
3.0
 40
3.0
 40
4.0
 40
4.0
 40
4.0
 40
4.0
 10
114.60282389322916
 20
177.67080891927083
 30
0.0
 10
113.85075954861109
 20
177.37677001953122
 30
0.0
 10
112.99499782986111
 20
177.61861572265624
 30
0.0
 10
112.50786132812499
 20
178.26250406901039
 30
0.0
 10
112.02038031684027
 20
178.90639241536456
 30
0.0
 10
112.02038031684027
 20
179.79539930555555
 30
0.0
 10
112.50786132812499
 20
180.43928765190969
 30
0.0
 10
112.99499782986111
 20
181.08317599826387
 30
0.0
 10
113.85075954861109
 20
181.32484944661456
 30
0.0
 10
114.60282389322916
 20
181.03081054687499
 30
0.0
 10
114.60282389322916
 20
181.03081054687499
 30
0.0
 10
118.92297363281249
 20
179.35080973307291
 30
0.0
 10
118.92297363281249
 20
179.35080973307291
 30
0.0
  0
SPLINE
  5
1BA
100
AcDbEntity
  8
DAEMMUNG
 62
     7
100
AcDbSpline
210
0.0
220
0.0
230
1.0
 70
     8
 71
     3
 72
    17
 73
    13
 74
     0
 42
0.00000001
 43
0.00000001
 40
0.0
 40
0.0
 40
0.0
 40
0.0
 40
1.0
 40
1.0
 40
1.0
 40
2.0
 40
2.0
 40
2.0
 40
3.0
 40
3.0
 40
3.0
 40
4.0
 40
4.0
 40
4.0
 40
4.0
 10
114.60282389322916
 20
185.3509602864583
 30
0.0
 10
113.85075954861109
 20
185.05692138671873
 30
0.0
 10
112.99499782986111
 20
185.29842258029512
 30
0.0
 10
112.50786132812499
 20
185.9423109266493
 30
0.0
 10
112.02038031684027
 20
186.58619927300344
 30
0.0
 10
112.02038031684027
 20
187.47537841796873
 30
0.0
 10
112.50786132812499
 20
188.1192667643229
 30
0.0
 10
112.99499782986111
 20
188.76315511067708
 30
0.0
 10
113.85075954861109
 20
189.00500081380207
 30
0.0
 10
114.60282389322916
 20
188.71096191406249
 30
0.0
 10
114.60282389322916
 20
188.71096191406249
 30
0.0
 10
118.92297363281249
 20
187.03096110026041
 30
0.0
 10
118.92297363281249
 20
187.03096110026041
 30
0.0
  0
SPLINE
  5
1B9
100
AcDbEntity
  8
DAEMMUNG
 62
     7
100
AcDbSpline
210
0.0
220
0.0
230
1.0
 70
     8
 71
     3
 72
    17
 73
    13
 74
     0
 42
0.00000001
 43
0.00000001
 40
0.0
 40
0.0
 40
0.0
 40
0.0
 40
1.0
 40
1.0
 40
1.0
 40
2.0
 40
2.0
 40
2.0
 40
3.0
 40
3.0
 40
3.0
 40
4.0
 40
4.0
 40
4.0
 40
4.0
 10
118.92297363281249
 20
187.03096110026041
 30
0.0
 10
119.70053168402777
 20
186.78256971571179
 30
0.0
 10
120.54974772135415
 20
187.06162245008679
 30
0.0
 10
121.02827148437498
 20
187.7229085286458
 30
0.0
 10
121.50679524739583
 20
188.38385009765622
 30
0.0
 10
121.50679524739583
 20
189.27785237630206
 30
0.0
 10
121.02827148437498
 20
189.93896620008678
 30
0.0
 10
120.54974772135415
 20
190.5999077690972
 30
0.0
 10
119.70053168402777
 20
190.87930501302083
 30
0.0
 10
118.92297363281249
 20
190.6309136284722
 30
0.0
 10
118.92297363281249
 20
190.6309136284722
 30
0.0
 10
114.60282389322916
 20
189.19069146050344
 30
0.0
 10
114.60282389322916
 20
189.19069146050344
 30
0.0
  0
SPLINE
  5
1B8
100
AcDbEntity
  8
DAEMMUNG
 62
     7
100
AcDbSpline
210
0.0
220
0.0
230
1.0
 70
     8
 71
     3
 72
    17
 73
    13
 74
     0
 42
0.00000001
 43
0.00000001
 40
0.0
 40
0.0
 40
0.0
 40
0.0
 40
1.0
 40
1.0
 40
1.0
 40
2.0
 40
2.0
 40
2.0
 40
3.0
 40
3.0
 40
3.0
 40
4.0
 40
4.0
 40
4.0
 40
4.0
 10
118.92297363281249
 20
179.35080973307291
 30
0.0
 10
119.70053168402777
 20
179.10241834852428
 30
0.0
 10
120.54974772135415
 20
179.38147108289928
 30
0.0
 10
121.02827148437498
 20
180.04275716145833
 30
0.0
 10
121.50679524739583
 20
180.70387098524304
 30
0.0
 10
121.50679524739583
 20
181.59770100911456
 30
0.0
 10
121.02827148437498
 20
182.25881483289928
 30
0.0
 10
120.54974772135415
 20
182.92010091145832
 30
0.0
 10
119.70053168402777
 20
183.19915364583332
 30
0.0
 10
118.92297363281249
 20
182.95076226128469
 30
0.0
 10
118.92297363281249
 20
182.95076226128469
 30
0.0
 10
114.60282389322916
 20
181.51088460286456
 30
0.0
 10
114.60282389322916
 20
181.51088460286456
 30
0.0
  0
SPLINE
  5
1B7
100
AcDbEntity
  8
DAEMMUNG
 62
     7
100
AcDbSpline
210
0.0
220
0.0
230
1.0
 70
     8
 71
     3
 72
    17
 73
    13
 74
     0
 42
0.00000001
 43
0.00000001
 40
0.0
 40
0.0
 40
0.0
 40
0.0
 40
1.0
 40
1.0
 40
1.0
 40
2.0
 40
2.0
 40
2.0
 40
3.0
 40
3.0
 40
3.0
 40
4.0
 40
4.0
 40
4.0
 40
4.0
 10
118.92297363281249
 20
183.19088541666665
 30
0.0
 10
119.70053168402777
 20
182.94249403211805
 30
0.0
 10
120.54974772135415
 20
183.22154676649305
 30
0.0
 10
121.02827148437498
 20
183.88283284505206
 30
0.0
 10
121.50679524739583
 20
184.54394666883678
 30
0.0
 10
121.50679524739583
 20
185.43777669270833
 30
0.0
 10
121.02827148437498
 20
186.09889051649304
 30
0.0
 10
120.54974772135415
 20
186.76017659505206
 30
0.0
 10
119.70053168402777
 20
187.03922932942706
 30
0.0
 10
118.92297363281249
 20
186.79083794487846
 30
0.0
 10
118.92297363281249
 20
186.79083794487846
 30
0.0
 10
114.60282389322916
 20
185.3509602864583
 30
0.0
 10
114.60282389322916
 20
185.3509602864583
 30
0.0
  0
SPLINE
  5
1B6
100
AcDbEntity
  8
DAEMMUNG
 62
     7
100
AcDbSpline
210
0.0
220
0.0
230
1.0
 70
     8
 71
     3
 72
    17
 73
    13
 74
     0
 42
0.00000001
 43
0.00000001
 40
0.0
 40
0.0
 40
0.0
 40
0.0
 40
1.0
 40
1.0
 40
1.0
 40
2.0
 40
2.0
 40
2.0
 40
3.0
 40
3.0
 40
3.0
 40
4.0
 40
4.0
 40
4.0
 40
4.0
 10
118.92297363281249
 20
171.6708306206597
 30
0.0
 10
119.70053168402777
 20
171.4226114908854
 30
0.0
 10
120.54974772135415
 20
171.7016642252604
 30
0.0
 10
121.02827148437498
 20
172.36277804904512
 30
0.0
 10
121.50679524739583
 20
173.02406412760416
 30
0.0
 10
121.50679524739583
 20
173.91772189670138
 30
0.0
 10
121.02827148437498
 20
174.5790079752604
 30
0.0
 10
120.54974772135415
 20
175.24012179904511
 30
0.0
 10
119.70053168402777
 20
175.51917453342011
 30
0.0
 10
118.92297363281249
 20
175.27095540364581
 30
0.0
 10
118.92297363281249
 20
175.27095540364581
 30
0.0
 10
114.60282389322916
 20
173.83090549045139
 30
0.0
 10
114.60282389322916
 20
173.83090549045139
 30
0.0
  0
SPLINE
  5
1B5
100
AcDbEntity
  8
DAEMMUNG
 62
     7
100
AcDbSpline
210
0.0
220
0.0
230
1.0
 70
     8
 71
     3
 72
    17
 73
    13
 74
     0
 42
0.00000001
 43
0.00000001
 40
0.0
 40
0.0
 40
0.0
 40
0.0
 40
1.0
 40
1.0
 40
1.0
 40
2.0
 40
2.0
 40
2.0
 40
3.0
 40
3.0
 40
3.0
 40
4.0
 40
4.0
 40
4.0
 40
4.0
 10
118.92297363281249
 20
175.51090630425347
 30
0.0
 10
119.70053168402777
 20
175.26268717447914
 30
0.0
 10
120.54974772135415
 20
175.54173990885414
 30
0.0
 10
121.02827148437498
 20
176.20268147786456
 30
0.0
 10
121.50679524739583
 20
176.8641398111979
 30
0.0
 10
121.50679524739583
 20
177.75779758029512
 30
0.0
 10
121.02827148437498
 20
178.41873914930554
 30
0.0
 10
120.54974772135415
 20
179.08002522786455
 30
0.0
 10
119.70053168402777
 20
179.35907796223955
 30
0.0
 10
118.92297363281249
 20
179.11103108723955
 30
0.0
 10
118.92297363281249
 20
179.11103108723955
 30
0.0
 10
114.60282389322916
 20
177.67080891927083
 30
0.0
 10
114.60282389322916
 20
177.67080891927083
 30
0.0
  0
LINE
  5
1B4
100
AcDbEntity
  8
DAEMMUNG
 62
     7
100
AcDbLine
 10
115.867863
 20
207.418864
 30
0.0
 11
118.922974
 21
206.230823
 31
0.0
  0
SPLINE
  5
1B3
100
AcDbEntity
  8
DAEMMUNG
 62
     7
100
AcDbSpline
210
0.0
220
0.0
230
1.0
 70
     8
 71
     3
 72
    17
 73
    13
 74
     0
 42
0.00000001
 43
0.00000001
 40
0.0
 40
0.0
 40
0.0
 40
0.0
 40
1.0
 40
1.0
 40
1.0
 40
2.0
 40
2.0
 40
2.0
 40
3.0
 40
3.0
 40
3.0
 40
4.0
 40
4.0
 40
4.0
 40
4.0
 10
114.60282389322916
 20
196.87084282769095
 30
0.0
 10
113.85075954861109
 20
196.57680392795137
 30
0.0
 10
112.99499782986111
 20
196.81847737630207
 30
0.0
 10
112.50786132812499
 20
197.46236572265624
 30
0.0
 10
112.02038031684027
 20
198.10625406901039
 30
0.0
 10
112.02038031684027
 20
198.99560546874997
 30
0.0
 10
112.50786132812499
 20
199.63949381510415
 30
0.0
 10
112.99499782986111
 20
200.28303765190969
 30
0.0
 10
113.85075954861109
 20
200.52488335503472
 30
0.0
 10
114.60282389322916
 20
200.23084445529511
 30
0.0
 10
114.60282389322916
 20
200.23084445529511
 30
0.0
 10
118.92297363281249
 20
198.55084364149303
 30
0.0
 10
118.92297363281249
 20
198.55084364149303
 30
0.0
  0
SPLINE
  5
1B2
100
AcDbEntity
  8
DAEMMUNG
 62
     7
100
AcDbSpline
210
0.0
220
0.0
230
1.0
 70
     8
 71
     3
 72
    17
 73
    13
 74
     0
 42
0.00000001
 43
0.00000001
 40
0.0
 40
0.0
 40
0.0
 40
0.0
 40
1.0
 40
1.0
 40
1.0
 40
2.0
 40
2.0
 40
2.0
 40
3.0
 40
3.0
 40
3.0
 40
4.0
 40
4.0
 40
4.0
 40
4.0
 10
118.92297363281249
 20
198.55084364149303
 30
0.0
 10
119.70053168402777
 20
198.30262451171873
 30
0.0
 10
120.54974772135415
 20
198.58167724609373
 30
0.0
 10
121.02827148437498
 20
199.24279106987845
 30
0.0
 10
121.50679524739583
 20
199.90407714843749
 30
0.0
 10
121.50679524739583
 20
200.79773491753471
 30
0.0
 10
121.02827148437498
 20
201.45902099609373
 30
0.0
 10
120.54974772135415
 20
202.12013481987844
 30
0.0
 10
119.70053168402777
 20
202.39918755425344
 30
0.0
 10
118.92297363281249
 20
202.15096842447915
 30
0.0
 10
118.92297363281249
 20
202.15096842447915
 30
0.0
 10
114.60282389322916
 20
200.71091851128472
 30
0.0
 10
114.60282389322916
 20
200.71091851128472
 30
0.0
  0
SPLINE
  5
1B1
100
AcDbEntity
  8
DAEMMUNG
 62
     7
100
AcDbSpline
210
0.0
220
0.0
230
1.0
 70
     8
 71
     3
 72
    17
 73
    13
 74
     0
 42
0.00000001
 43
0.00000001
 40
0.0
 40
0.0
 40
0.0
 40
0.0
 40
1.0
 40
1.0
 40
1.0
 40
2.0
 40
2.0
 40
2.0
 40
3.0
 40
3.0
 40
3.0
 40
4.0
 40
4.0
 40
4.0
 40
4.0
 10
118.92297363281249
 20
202.39074707031247
 30
0.0
 10
119.70053168402777
 20
202.14270019531247
 30
0.0
 10
120.54974772135415
 20
202.42175292968747
 30
0.0
 10
121.02827148437498
 20
203.08269449869789
 30
0.0
 10
121.50679524739583
 20
203.74380832248261
 30
0.0
 10
121.50679524739583
 20
204.63763834635415
 30
0.0
 10
121.02827148437498
 20
205.29875217013887
 30
0.0
 10
120.54974772135415
 20
205.96003824869788
 30
0.0
 10
119.70053168402777
 20
206.23909098307288
 30
0.0
 10
118.92297363281249
 20
205.99069959852429
 30
0.0
 10
118.92297363281249
 20
205.99069959852429
 30
0.0
 10
114.60282389322916
 20
204.55082194010416
 30
0.0
 10
114.60282389322916
 20
204.55082194010416
 30
0.0
  0
SPLINE
  5
1B0
100
AcDbEntity
  8
DAEMMUNG
 62
     7
100
AcDbSpline
210
0.0
220
0.0
230
1.0
 70
     8
 71
     3
 72
    17
 73
    13
 74
     0
 42
0.00000001
 43
0.00000001
 40
0.0
 40
0.0
 40
0.0
 40
0.0
 40
1.0
 40
1.0
 40
1.0
 40
2.0
 40
2.0
 40
2.0
 40
3.0
 40
3.0
 40
3.0
 40
4.0
 40
4.0
 40
4.0
 40
4.0
 10
114.60282389322916
 20
200.71091851128472
 30
0.0
 10
113.85075954861109
 20
200.41687961154511
 30
0.0
 10
112.99499782986111
 20
200.65855305989581
 30
0.0
 10
112.50786132812499
 20
201.30244140624998
 30
0.0
 10
112.02038031684027
 20
201.94632975260416
 30
0.0
 10
112.02038031684027
 20
202.83533664279511
 30
0.0
 10
112.50786132812499
 20
203.47922498914929
 30
0.0
 10
112.99499782986111
 20
204.12311333550346
 30
0.0
 10
113.85075954861109
 20
204.36478678385416
 30
0.0
 10
114.60282389322916
 20
204.07074788411455
 30
0.0
 10
114.60282389322916
 20
204.07074788411455
 30
0.0
 10
118.92297363281249
 20
202.39074707031247
 30
0.0
 10
118.92297363281249
 20
202.39074707031247
 30
0.0
  0
SPLINE
  5
1AF
100
AcDbEntity
  8
DAEMMUNG
 62
     7
100
AcDbSpline
210
0.0
220
0.0
230
1.0
 70
     8
 71
     3
 72
    11
 73
     7
 74
     0
 42
0.00000001
 43
0.00000001
 40
0.0
 40
0.0
 40
0.0
 40
0.0
 40
1.0
 40
1.0
 40
1.0
 40
2.0
 40
2.0
 40
2.0
 40
2.0
 10
114.60282389322916
 20
204.55082194010416
 30
0.0
 10
113.82871093749999
 20
204.24817030164928
 30
0.0
 10
112.94745551215277
 20
204.51378716362845
 30
0.0
 10
112.46996527777777
 20
205.19419352213541
 30
0.0
 10
111.99213053385415
 20
205.87477213541663
 30
0.0
 10
112.04105088975693
 20
206.79323459201387
 30
0.0
 10
112.5888210720486
 20
207.41886393229166
 30
0.0
  0
SPLINE
  5
1AE
100
AcDbEntity
  8
DAEMMUNG
 62
     7
100
AcDbSpline
210
0.0
220
0.0
230
1.0
 70
     8
 71
     3
 72
     8
 73
     4
 74
     0
 42
0.00000001
 43
0.00000001
 40
0.0
 40
0.0
 40
0.0
 40
0.0
 40
1.0
 40
1.0
 40
1.0
 40
1.0
 10
118.92297363281249
 20
206.23082275390624
 30
0.0
 10
119.90275878906249
 20
205.91818033854165
 30
0.0
 10
120.95213487413193
 20
206.44596896701387
 30
0.0
 10
121.28562011718749
 20
207.41886393229166
 30
0.0
  0
SPLINE
  5
1AD
100
AcDbEntity
  8
DAEMMUNG
 62
     7
100
AcDbSpline
210
0.0
220
0.0
230
1.0
 70
     8
 71
     3
 72
    17
 73
    13
 74
     0
 42
0.00000001
 43
0.00000001
 40
0.0
 40
0.0
 40
0.0
 40
0.0
 40
1.0
 40
1.0
 40
1.0
 40
2.0
 40
2.0
 40
2.0
 40
3.0
 40
3.0
 40
3.0
 40
4.0
 40
4.0
 40
4.0
 40
4.0
 10
114.56389431423609
 20
109.15819498697915
 30
0.0
 10
113.81217447916666
 20
108.86467285156249
 30
0.0
 10
112.95641276041665
 20
109.10582953559027
 30
0.0
 10
112.46893174913194
 20
109.75006239149305
 30
0.0
 10
111.98179524739582
 20
110.39360622829859
 30
0.0
 10
111.98179524739582
 20
111.28312988281249
 30
0.0
 10
112.46893174913194
 20
111.92736273871527
 30
0.0
 10
112.95641276041665
 20
112.57090657552082
 30
0.0
 10
113.81217447916666
 20
112.81206325954859
 30
0.0
 10
114.56389431423609
 20
112.51854112413193
 30
0.0
 10
114.56389431423609
 20
112.51854112413193
 30
0.0
 10
118.88404405381944
 20
110.83802354600694
 30
0.0
 10
118.88404405381944
 20
110.83802354600694
 30
0.0
  0
SPLINE
  5
1AC
100
AcDbEntity
  8
DAEMMUNG
 62
     7
100
AcDbSpline
210
0.0
220
0.0
230
1.0
 70
     8
 71
     3
 72
    17
 73
    13
 74
     0
 42
0.00000001
 43
0.00000001
 40
0.0
 40
0.0
 40
0.0
 40
0.0
 40
1.0
 40
1.0
 40
1.0
 40
2.0
 40
2.0
 40
2.0
 40
3.0
 40
3.0
 40
3.0
 40
4.0
 40
4.0
 40
4.0
 40
4.0
 10
118.88404405381944
 20
110.83802354600694
 30
0.0
 10
119.66194661458333
 20
110.58997667100694
 30
0.0
 10
120.5108181423611
 20
110.86902940538194
 30
0.0
 10
120.98934190538193
 20
111.53048773871527
 30
0.0
 10
121.46855468749999
 20
112.19194607204859
 30
0.0
 10
121.46855468749999
 20
113.0849148220486
 30
0.0
 10
120.98934190538193
 20
113.74637315538193
 30
0.0
 10
120.5108181423611
 20
114.40783148871527
 30
0.0
 10
119.66194661458333
 20
114.68688422309027
 30
0.0
 10
118.88404405381944
 20
114.43883734809027
 30
0.0
 10
118.88404405381944
 20
114.43883734809027
 30
0.0
 10
114.56389431423609
 20
112.99809841579859
 30
0.0
 10
114.56389431423609
 20
112.99809841579859
 30
0.0
  0
SPLINE
  5
1AB
100
AcDbEntity
  8
DAEMMUNG
 62
     7
100
AcDbSpline
210
0.0
220
0.0
230
1.0
 70
     8
 71
     3
 72
    14
 73
    10
 74
     0
 42
0.00000001
 43
0.00000001
 40
0.0
 40
0.0
 40
0.0
 40
0.0
 40
1.0
 40
1.0
 40
1.0
 40
2.0
 40
2.0
 40
2.0
 40
3.0
 40
3.0
 40
3.0
 40
3.0
 10
112.10788574218749
 20
87.673890516493046
 30
0.0
 10
112.06551106770833
 20
88.290562608506931
 30
0.0
 10
112.34146321614583
 20
88.885875108506937
 30
0.0
 10
112.83962402343749
 20
89.251744249131931
 30
0.0
 10
113.33778483072916
 20
89.61761338975694
 30
0.0
 10
113.98821885850694
 20
89.703740776909711
 30
0.0
 10
114.56389431423609
 20
89.478431532118051
 30
0.0
 10
114.56389431423609
 20
89.478431532118051
 30
0.0
 10
118.88404405381944
 20
87.798602973090269
 30
0.0
 10
118.88404405381944
 20
87.798602973090269
 30
0.0
  0
SPLINE
  5
1AA
100
AcDbEntity
  8
DAEMMUNG
 62
     7
100
AcDbSpline
210
0.0
220
0.0
230
1.0
 70
     8
 71
     3
 72
    17
 73
    13
 74
     0
 42
0.00000001
 43
0.00000001
 40
0.0
 40
0.0
 40
0.0
 40
0.0
 40
1.0
 40
1.0
 40
1.0
 40
2.0
 40
2.0
 40
2.0
 40
3.0
 40
3.0
 40
3.0
 40
4.0
 40
4.0
 40
4.0
 40
4.0
 10
118.88404405381944
 20
106.99880913628471
 30
0.0
 10
119.66194661458333
 20
106.7500732421875
 30
0.0
 10
120.5108181423611
 20
107.0291259765625
 30
0.0
 10
120.98934190538193
 20
107.69058430989583
 30
0.0
 10
121.46855468749999
 20
108.35135362413193
 30
0.0
 10
121.46855468749999
 20
109.24570041232639
 30
0.0
 10
120.98934190538193
 20
109.90646972656249
 30
0.0
 10
120.5108181423611
 20
110.5672390407986
 30
0.0
 10
119.66194661458333
 20
110.8462917751736
 30
0.0
 10
118.88404405381944
 20
110.5982449001736
 30
0.0
 10
118.88404405381944
 20
110.5982449001736
 30
0.0
 10
114.56389431423609
 20
109.15819498697915
 30
0.0
 10
114.56389431423609
 20
109.15819498697915
 30
0.0
  0
SPLINE
  5
1A9
100
AcDbEntity
  8
DAEMMUNG
 62
     7
100
AcDbSpline
210
0.0
220
0.0
230
1.0
 70
     8
 71
     3
 72
    17
 73
    13
 74
     0
 42
0.00000001
 43
0.00000001
 40
0.0
 40
0.0
 40
0.0
 40
0.0
 40
1.0
 40
1.0
 40
1.0
 40
2.0
 40
2.0
 40
2.0
 40
3.0
 40
3.0
 40
3.0
 40
4.0
 40
4.0
 40
4.0
 40
4.0
 10
114.56389431423609
 20
105.31829155815971
 30
0.0
 10
113.81217447916666
 20
105.02476942274305
 30
0.0
 10
112.95641276041665
 20
105.26592610677082
 30
0.0
 10
112.46893174913194
 20
105.91015896267361
 30
0.0
 10
111.98179524739582
 20
106.55370279947915
 30
0.0
 10
111.98179524739582
 20
107.44322645399305
 30
0.0
 10
112.46893174913194
 20
108.0867702907986
 30
0.0
 10
112.95641276041665
 20
108.73100314670138
 30
0.0
 10
113.81217447916666
 20
108.97215983072915
 30
0.0
 10
114.56389431423609
 20
108.67863769531249
 30
0.0
 10
114.56389431423609
 20
108.67863769531249
 30
0.0
 10
118.88404405381944
 20
106.99880913628471
 30
0.0
 10
118.88404405381944
 20
106.99880913628471
 30
0.0
  0
SPLINE
  5
1A8
100
AcDbEntity
  8
DAEMMUNG
 62
     7
100
AcDbSpline
210
0.0
220
0.0
230
1.0
 70
     8
 71
     3
 72
    17
 73
    13
 74
     0
 42
0.00000001
 43
0.00000001
 40
0.0
 40
0.0
 40
0.0
 40
0.0
 40
1.0
 40
1.0
 40
1.0
 40
2.0
 40
2.0
 40
2.0
 40
3.0
 40
3.0
 40
3.0
 40
4.0
 40
4.0
 40
4.0
 40
4.0
 10
114.56389431423609
 20
97.63848470052082
 30
0.0
 10
113.81217447916666
 20
97.344273546006931
 30
0.0
 10
112.95641276041665
 20
97.58611924913194
 30
0.0
 10
112.46893174913194
 20
98.230352105034711
 30
0.0
 10
111.98179524739582
 20
98.873895941840274
 30
0.0
 10
111.98179524739582
 20
99.762730577256931
 30
0.0
 10
112.46893174913194
 20
100.40696343315972
 30
0.0
 10
112.95641276041665
 20
101.05050726996527
 30
0.0
 10
113.81217447916666
 20
101.29235297309027
 30
0.0
 10
114.56389431423609
 20
100.99883083767361
 30
0.0
 10
114.56389431423609
 20
100.99883083767361
 30
0.0
 10
118.88404405381944
 20
99.318313259548603
 30
0.0
 10
118.88404405381944
 20
99.318313259548603
 30
0.0
  0
SPLINE
  5
1A7
100
AcDbEntity
  8
DAEMMUNG
 62
     7
100
AcDbSpline
210
0.0
220
0.0
230
1.0
 70
     8
 71
     3
 72
    17
 73
    13
 74
     0
 42
0.00000001
 43
0.00000001
 40
0.0
 40
0.0
 40
0.0
 40
0.0
 40
1.0
 40
1.0
 40
1.0
 40
2.0
 40
2.0
 40
2.0
 40
3.0
 40
3.0
 40
3.0
 40
4.0
 40
4.0
 40
4.0
 40
4.0
 10
114.56389431423609
 20
89.95867784288194
 30
0.0
 10
113.81217447916666
 20
89.664466688368051
 30
0.0
 10
112.95641276041665
 20
89.906312391493046
 30
0.0
 10
112.46893174913194
 20
90.549856228298609
 30
0.0
 10
111.98179524739582
 20
91.19408908420138
 30
0.0
 10
111.98179524739582
 20
92.082923719618051
 30
0.0
 10
112.46893174913194
 20
92.7264675564236
 30
0.0
 10
112.95641276041665
 20
93.370700412326386
 30
0.0
 10
113.81217447916666
 20
93.61254611545138
 30
0.0
 10
114.56389431423609
 20
93.318334960937491
 30
0.0
 10
114.56389431423609
 20
93.318334960937491
 30
0.0
 10
118.88404405381944
 20
91.638506401909709
 30
0.0
 10
118.88404405381944
 20
91.638506401909709
 30
0.0
  0
SPLINE
  5
1A6
100
AcDbEntity
  8
DAEMMUNG
 62
     7
100
AcDbSpline
210
0.0
220
0.0
230
1.0
 70
     8
 71
     3
 72
    17
 73
    13
 74
     0
 42
0.00000001
 43
0.00000001
 40
0.0
 40
0.0
 40
0.0
 40
0.0
 40
1.0
 40
1.0
 40
1.0
 40
2.0
 40
2.0
 40
2.0
 40
3.0
 40
3.0
 40
3.0
 40
4.0
 40
4.0
 40
4.0
 40
4.0
 10
114.56389431423609
 20
93.79858127170138
 30
0.0
 10
113.81217447916666
 20
93.504370117187491
 30
0.0
 10
112.95641276041665
 20
93.746215820312486
 30
0.0
 10
112.46893174913194
 20
94.390448676215271
 30
0.0
 10
111.98179524739582
 20
95.03399251302082
 30
0.0
 10
111.98179524739582
 20
95.922827148437491
 30
0.0
 10
112.46893174913194
 20
96.567060004340263
 30
0.0
 10
112.95641276041665
 20
97.210603841145826
 30
0.0
 10
113.81217447916666
 20
97.45244954427082
 30
0.0
 10
114.56389431423609
 20
97.158238389756931
 30
0.0
 10
114.56389431423609
 20
97.158238389756931
 30
0.0
 10
118.88404405381944
 20
95.478409830729163
 30
0.0
 10
118.88404405381944
 20
95.478409830729163
 30
0.0
  0
SPLINE
  5
1A5
100
AcDbEntity
  8
DAEMMUNG
 62
     7
100
AcDbSpline
210
0.0
220
0.0
230
1.0
 70
     8
 71
     3
 72
    17
 73
    13
 74
     0
 42
0.00000001
 43
0.00000001
 40
0.0
 40
0.0
 40
0.0
 40
0.0
 40
1.0
 40
1.0
 40
1.0
 40
2.0
 40
2.0
 40
2.0
 40
3.0
 40
3.0
 40
3.0
 40
4.0
 40
4.0
 40
4.0
 40
4.0
 10
114.56389431423609
 20
101.47838812934027
 30
0.0
 10
113.81217447916666
 20
101.18486599392361
 30
0.0
 10
112.95641276041665
 20
101.42602267795138
 30
0.0
 10
112.46893174913194
 20
102.06956651475693
 30
0.0
 10
111.98179524739582
 20
102.71379937065971
 30
0.0
 10
111.98179524739582
 20
103.60332302517361
 30
0.0
 10
112.46893174913194
 20
104.24686686197916
 30
0.0
 10
112.95641276041665
 20
104.89109971788193
 30
0.0
 10
113.81217447916666
 20
105.13225640190971
 30
0.0
 10
114.56389431423609
 20
104.83873426649305
 30
0.0
 10
114.56389431423609
 20
104.83873426649305
 30
0.0
 10
118.88404405381944
 20
103.15890570746527
 30
0.0
 10
118.88404405381944
 20
103.15890570746527
 30
0.0
  0
SPLINE
  5
1A4
100
AcDbEntity
  8
DAEMMUNG
 62
     7
100
AcDbSpline
210
0.0
220
0.0
230
1.0
 70
     8
 71
     3
 72
    17
 73
    13
 74
     0
 42
0.00000001
 43
0.00000001
 40
0.0
 40
0.0
 40
0.0
 40
0.0
 40
1.0
 40
1.0
 40
1.0
 40
2.0
 40
2.0
 40
2.0
 40
3.0
 40
3.0
 40
3.0
 40
4.0
 40
4.0
 40
4.0
 40
4.0
 10
118.88404405381944
 20
103.15890570746527
 30
0.0
 10
119.66194661458333
 20
102.91016981336804
 30
0.0
 10
120.5108181423611
 20
103.18922254774304
 30
0.0
 10
120.98934190538193
 20
103.85068088107639
 30
0.0
 10
121.46855468749999
 20
104.51145019531249
 30
0.0
 10
121.46855468749999
 20
105.40579698350693
 30
0.0
 10
120.98934190538193
 20
106.06656629774305
 30
0.0
 10
120.5108181423611
 20
106.72802463107638
 30
0.0
 10
119.66194661458333
 20
107.00707736545138
 30
0.0
 10
118.88404405381944
 20
106.75834147135416
 30
0.0
 10
118.88404405381944
 20
106.75834147135416
 30
0.0
 10
114.56389431423609
 20
105.31829155815971
 30
0.0
 10
114.56389431423609
 20
105.31829155815971
 30
0.0
  0
SPLINE
  5
1A3
100
AcDbEntity
  8
DAEMMUNG
 62
     7
100
AcDbSpline
210
0.0
220
0.0
230
1.0
 70
     8
 71
     3
 72
    17
 73
    13
 74
     0
 42
0.00000001
 43
0.00000001
 40
0.0
 40
0.0
 40
0.0
 40
0.0
 40
1.0
 40
1.0
 40
1.0
 40
2.0
 40
2.0
 40
2.0
 40
3.0
 40
3.0
 40
3.0
 40
4.0
 40
4.0
 40
4.0
 40
4.0
 10
118.88404405381944
 20
95.478409830729163
 30
0.0
 10
119.66194661458333
 20
95.22967393663194
 30
0.0
 10
120.5108181423611
 20
95.509415690104163
 30
0.0
 10
120.98934190538193
 20
96.170185004340269
 30
0.0
 10
121.46855468749999
 20
96.831643337673597
 30
0.0
 10
121.46855468749999
 20
97.725301106770829
 30
0.0
 10
120.98934190538193
 20
98.386070421006934
 30
0.0
 10
120.5108181423611
 20
99.047528754340263
 30
0.0
 10
119.66194661458333
 20
99.326581488715263
 30
0.0
 10
118.88404405381944
 20
99.078534613715263
 30
0.0
 10
118.88404405381944
 20
99.078534613715263
 30
0.0
 10
114.56389431423609
 20
97.63848470052082
 30
0.0
 10
114.56389431423609
 20
97.63848470052082
 30
0.0
  0
SPLINE
  5
1A2
100
AcDbEntity
  8
DAEMMUNG
 62
     7
100
AcDbSpline
210
0.0
220
0.0
230
1.0
 70
     8
 71
     3
 72
    17
 73
    13
 74
     0
 42
0.00000001
 43
0.00000001
 40
0.0
 40
0.0
 40
0.0
 40
0.0
 40
1.0
 40
1.0
 40
1.0
 40
2.0
 40
2.0
 40
2.0
 40
3.0
 40
3.0
 40
3.0
 40
4.0
 40
4.0
 40
4.0
 40
4.0
 10
118.88404405381944
 20
99.318313259548603
 30
0.0
 10
119.66194661458333
 20
99.070266384548603
 30
0.0
 10
120.5108181423611
 20
99.349319118923603
 30
0.0
 10
120.98934190538193
 20
100.01077745225693
 30
0.0
 10
121.46855468749999
 20
100.67154676649305
 30
0.0
 10
121.46855468749999
 20
101.56520453559027
 30
0.0
 10
120.98934190538193
 20
102.2266628689236
 30
0.0
 10
120.5108181423611
 20
102.88812120225694
 30
0.0
 10
119.66194661458333
 20
103.16717393663194
 30
0.0
 10
118.88404405381944
 20
102.91843804253472
 30
0.0
 10
118.88404405381944
 20
102.91843804253472
 30
0.0
 10
114.56389431423609
 20
101.47838812934027
 30
0.0
 10
114.56389431423609
 20
101.47838812934027
 30
0.0
  0
SPLINE
  5
1A1
100
AcDbEntity
  8
DAEMMUNG
 62
     7
100
AcDbSpline
210
0.0
220
0.0
230
1.0
 70
     8
 71
     3
 72
    17
 73
    13
 74
     0
 42
0.00000001
 43
0.00000001
 40
0.0
 40
0.0
 40
0.0
 40
0.0
 40
1.0
 40
1.0
 40
1.0
 40
2.0
 40
2.0
 40
2.0
 40
3.0
 40
3.0
 40
3.0
 40
4.0
 40
4.0
 40
4.0
 40
4.0
 10
118.88404405381944
 20
87.798602973090269
 30
0.0
 10
119.66194661458333
 20
87.550556098090269
 30
0.0
 10
120.5108181423611
 20
87.829608832465269
 30
0.0
 10
120.98934190538193
 20
88.490378146701374
 30
0.0
 10
121.46855468749999
 20
89.151836480034717
 30
0.0
 10
121.46855468749999
 20
90.045494249131934
 30
0.0
 10
120.98934190538193
 20
90.706952582465263
 30
0.0
 10
120.5108181423611
 20
91.367721896701383
 30
0.0
 10
119.66194661458333
 20
91.646774631076383
 30
0.0
 10
118.88404405381944
 20
91.398727756076383
 30
0.0
 10
118.88404405381944
 20
91.398727756076383
 30
0.0
 10
114.56389431423609
 20
89.95867784288194
 30
0.0
 10
114.56389431423609
 20
89.95867784288194
 30
0.0
  0
SPLINE
  5
1A0
100
AcDbEntity
  8
DAEMMUNG
 62
     7
100
AcDbSpline
210
0.0
220
0.0
230
1.0
 70
     8
 71
     3
 72
    17
 73
    13
 74
     0
 42
0.00000001
 43
0.00000001
 40
0.0
 40
0.0
 40
0.0
 40
0.0
 40
1.0
 40
1.0
 40
1.0
 40
2.0
 40
2.0
 40
2.0
 40
3.0
 40
3.0
 40
3.0
 40
4.0
 40
4.0
 40
4.0
 40
4.0
 10
118.88404405381944
 20
91.638506401909709
 30
0.0
 10
119.66194661458333
 20
91.390459526909709
 30
0.0
 10
120.5108181423611
 20
91.669512261284709
 30
0.0
 10
120.98934190538193
 20
92.330281575520829
 30
0.0
 10
121.46855468749999
 20
92.991739908854157
 30
0.0
 10
121.46855468749999
 20
93.885397677951374
 30
0.0
 10
120.98934190538193
 20
94.546856011284717
 30
0.0
 10
120.5108181423611
 20
95.207625325520823
 30
0.0
 10
119.66194661458333
 20
95.486678059895823
 30
0.0
 10
118.88404405381944
 20
95.238631184895823
 30
0.0
 10
118.88404405381944
 20
95.238631184895823
 30
0.0
 10
114.56389431423609
 20
93.79858127170138
 30
0.0
 10
114.56389431423609
 20
93.79858127170138
 30
0.0
  0
LINE
  5
19F
100
AcDbEntity
  8
DAEMMUNG
 62
     7
100
AcDbLine
 10
115.828933
 20
123.546292
 30
0.0
 11
118.884044
 21
122.358423
 31
0.0
  0
SPLINE
  5
19E
100
AcDbEntity
  8
DAEMMUNG
 62
     7
100
AcDbSpline
210
0.0
220
0.0
230
1.0
 70
     8
 71
     3
 72
    17
 73
    13
 74
     0
 42
0.00000001
 43
0.00000001
 40
0.0
 40
0.0
 40
0.0
 40
0.0
 40
1.0
 40
1.0
 40
1.0
 40
2.0
 40
2.0
 40
2.0
 40
3.0
 40
3.0
 40
3.0
 40
4.0
 40
4.0
 40
4.0
 40
4.0
 10
114.56389431423609
 20
112.99809841579859
 30
0.0
 10
113.81217447916666
 20
112.70457628038193
 30
0.0
 10
112.95641276041665
 20
112.94642198350694
 30
0.0
 10
112.46893174913194
 20
113.58996582031249
 30
0.0
 10
111.98179524739582
 20
114.23419867621527
 30
0.0
 10
111.98179524739582
 20
115.12303331163193
 30
0.0
 10
112.46893174913194
 20
115.76726616753471
 30
0.0
 10
112.95641276041665
 20
116.41081000434026
 30
0.0
 10
113.81217447916666
 20
116.65265570746527
 30
0.0
 10
114.56389431423609
 20
116.35844455295138
 30
0.0
 10
114.56389431423609
 20
116.35844455295138
 30
0.0
 10
118.88404405381944
 20
114.6786159939236
 30
0.0
 10
118.88404405381944
 20
114.6786159939236
 30
0.0
  0
SPLINE
  5
19D
100
AcDbEntity
  8
DAEMMUNG
 62
     7
100
AcDbSpline
210
0.0
220
0.0
230
1.0
 70
     8
 71
     3
 72
    17
 73
    13
 74
     0
 42
0.00000001
 43
0.00000001
 40
0.0
 40
0.0
 40
0.0
 40
0.0
 40
1.0
 40
1.0
 40
1.0
 40
2.0
 40
2.0
 40
2.0
 40
3.0
 40
3.0
 40
3.0
 40
4.0
 40
4.0
 40
4.0
 40
4.0
 10
118.88404405381944
 20
114.6786159939236
 30
0.0
 10
119.66194661458333
 20
114.4305691189236
 30
0.0
 10
120.5108181423611
 20
114.7096218532986
 30
0.0
 10
120.98934190538193
 20
115.37039116753471
 30
0.0
 10
121.46855468749999
 20
116.03184950086805
 30
0.0
 10
121.46855468749999
 20
116.92550726996527
 30
0.0
 10
120.98934190538193
 20
117.58696560329859
 30
0.0
 10
120.5108181423611
 20
118.24773491753471
 30
0.0
 10
119.66194661458333
 20
118.52678765190971
 30
0.0
 10
118.88404405381944
 20
118.27874077690971
 30
0.0
 10
118.88404405381944
 20
118.27874077690971
 30
0.0
 10
114.56389431423609
 20
116.83869086371527
 30
0.0
 10
114.56389431423609
 20
116.83869086371527
 30
0.0
  0
SPLINE
  5
19C
100
AcDbEntity
  8
DAEMMUNG
 62
     7
100
AcDbSpline
210
0.0
220
0.0
230
1.0
 70
     8
 71
     3
 72
    17
 73
    13
 74
     0
 42
0.00000001
 43
0.00000001
 40
0.0
 40
0.0
 40
0.0
 40
0.0
 40
1.0
 40
1.0
 40
1.0
 40
2.0
 40
2.0
 40
2.0
 40
3.0
 40
3.0
 40
3.0
 40
4.0
 40
4.0
 40
4.0
 40
4.0
 10
118.88404405381944
 20
118.51851942274304
 30
0.0
 10
119.66194661458333
 20
118.27047254774304
 30
0.0
 10
120.5108181423611
 20
118.54952528211804
 30
0.0
 10
120.98934190538193
 20
119.21029459635416
 30
0.0
 10
121.46855468749999
 20
119.87175292968749
 30
0.0
 10
121.46855468749999
 20
120.76541069878471
 30
0.0
 10
120.98934190538193
 20
121.42686903211805
 30
0.0
 10
120.5108181423611
 20
122.08763834635415
 30
0.0
 10
119.66194661458333
 20
122.36669108072915
 30
0.0
 10
118.88404405381944
 20
122.11864420572915
 30
0.0
 10
118.88404405381944
 20
122.11864420572915
 30
0.0
 10
114.56389431423609
 20
120.67859429253471
 30
0.0
 10
114.56389431423609
 20
120.67859429253471
 30
0.0
  0
SPLINE
  5
19B
100
AcDbEntity
  8
DAEMMUNG
 62
     7
100
AcDbSpline
210
0.0
220
0.0
230
1.0
 70
     8
 71
     3
 72
    17
 73
    13
 74
     0
 42
0.00000001
 43
0.00000001
 40
0.0
 40
0.0
 40
0.0
 40
0.0
 40
1.0
 40
1.0
 40
1.0
 40
2.0
 40
2.0
 40
2.0
 40
3.0
 40
3.0
 40
3.0
 40
4.0
 40
4.0
 40
4.0
 40
4.0
 10
114.56389431423609
 20
116.83869086371527
 30
0.0
 10
113.81217447916666
 20
116.54447970920138
 30
0.0
 10
112.95641276041665
 20
116.78632541232638
 30
0.0
 10
112.46893174913194
 20
117.42986924913194
 30
0.0
 10
111.98179524739582
 20
118.07410210503471
 30
0.0
 10
111.98179524739582
 20
118.96293674045138
 30
0.0
 10
112.46893174913194
 20
119.60648057725693
 30
0.0
 10
112.95641276041665
 20
120.25071343315972
 30
0.0
 10
113.81217447916666
 20
120.49255913628471
 30
0.0
 10
114.56389431423609
 20
120.19834798177082
 30
0.0
 10
114.56389431423609
 20
120.19834798177082
 30
0.0
 10
118.88404405381944
 20
118.51851942274304
 30
0.0
 10
118.88404405381944
 20
118.51851942274304
 30
0.0
  0
SPLINE
  5
19A
100
AcDbEntity
  8
DAEMMUNG
 62
     7
100
AcDbSpline
210
0.0
220
0.0
230
1.0
 70
     8
 71
     3
 72
    11
 73
     7
 74
     0
 42
0.00000001
 43
0.00000001
 40
0.0
 40
0.0
 40
0.0
 40
0.0
 40
1.0
 40
1.0
 40
1.0
 40
2.0
 40
2.0
 40
2.0
 40
2.0
 10
114.56389431423609
 20
120.67859429253471
 30
0.0
 10
113.78978135850693
 20
120.37542588975694
 30
0.0
 10
112.90921495225693
 20
120.64138726128471
 30
0.0
 10
112.43138020833332
 20
121.32213812934026
 30
0.0
 10
111.9532009548611
 20
122.00219997829861
 30
0.0
 10
112.00281032986111
 20
122.92135145399304
 30
0.0
 10
112.55023600260415
 20
123.5462917751736
 30
0.0
  0
SPLINE
  5
199
100
AcDbEntity
  8
DAEMMUNG
 62
     7
100
AcDbSpline
210
0.0
220
0.0
230
1.0
 70
     8
 71
     3
 72
     8
 73
     4
 74
     0
 42
0.00000001
 43
0.00000001
 40
0.0
 40
0.0
 40
0.0
 40
0.0
 40
1.0
 40
1.0
 40
1.0
 40
1.0
 10
118.88404405381944
 20
122.35842285156249
 30
0.0
 10
119.86382921006944
 20
122.0456081814236
 30
0.0
 10
120.91354980468749
 20
122.57339680989583
 30
0.0
 10
121.24669053819443
 20
123.5462917751736
 30
0.0
  0
HATCH
  5
196
100
AcDbEntity
  8
EBENE_1
 62
   152
100
AcDbHatch
 10
0.0
 20
0.0
 30
0.0
210
0.0
220
0.0
230
1.0
  2
SOLID
 70
     1
 71
     0
 91
        1
 92
        1
 93
        1
 72
     4
 94
        3
 73
     0
 74
     0
 95
       23
 96
       19
 40
0.0
 40
0.0
 40
0.0
 40
0.0
 40
1.0
 40
1.0
 40
1.0
 40
2.0
 40
2.0
 40
2.0
 40
3.0
 40
3.0
 40
3.0
 40
4.0
 40
4.0
 40
4.0
 40
5.0
 40
5.0
 40
5.0
 40
6.0
 40
6.0
 40
6.0
 40
6.0
 10
84.46822916666666
 20
127.58738878038193
 10
84.46822916666666
 20
127.58738878038193
 10
84.043104383680543
 20
127.84990505642359
 10
83.465189615885407
 20
128.12620171440972
 10
78.69872775607638
 20
130.40547688802081
 10
79.861275227864581
 20
125.78560384114583
 10
75.14321695963541
 20
128.68913031684028
 10
74.477796766493043
 20
129.09909667968748
 10
73.86370849609375
 20
128.10139702690972
 10
74.528956434461804
 20
127.69211968315972
 10
74.528956434461804
 20
127.69211968315972
 10
74.954081217447907
 20
127.42960340711804
 10
75.531995985243043
 20
127.15330674913193
 10
80.292428927951377
 20
124.87540961371526
 10
79.13573811848957
 20
129.48563639322916
 10
83.854485405815964
 20
126.58900010850694
 10
84.519905598958331
 20
126.17972276475693
 10
85.133821614583326
 20
127.17811143663194
 10
84.46822916666666
 20
127.58738878038193
 97
        0
 75
     0
 76
     1
 98
        1
 10
0.0
 20
0.0
  0
HATCH
  5
195
100
AcDbEntity
  8
EBENE_1
 62
   152
100
AcDbHatch
 10
0.0
 20
0.0
 30
0.0
210
0.0
220
0.0
230
1.0
  2
SOLID
 70
     1
 71
     0
 91
        1
 92
        1
 93
        1
 72
     4
 94
        3
 73
     0
 74
     0
 95
       23
 96
       19
 40
0.0
 40
0.0
 40
0.0
 40
0.0
 40
1.0
 40
1.0
 40
1.0
 40
2.0
 40
2.0
 40
2.0
 40
3.0
 40
3.0
 40
3.0
 40
4.0
 40
4.0
 40
4.0
 40
5.0
 40
5.0
 40
5.0
 40
6.0
 40
6.0
 40
6.0
 40
6.0
 10
84.46822916666666
 20
124.83200141059027
 10
84.46822916666666
 20
124.83200141059027
 10
84.043104383680543
 20
125.09382866753471
 10
83.465189615885407
 20
125.37012532552082
 10
78.69872775607638
 20
127.65008951822915
 10
79.861275227864581
 20
123.03021647135415
 10
75.14321695963541
 20
125.9337429470486
 10
74.477796766493043
 20
126.34302029079861
 10
73.86370849609375
 20
125.34600965711805
 10
74.528956434461804
 20
124.93604329427082
 10
74.528956434461804
 20
124.93604329427082
 10
74.954081217447907
 20
124.67421603732637
 10
75.531995985243043
 20
124.39791937934027
 10
80.292428927951377
 20
122.11933322482638
 10
79.13573811848957
 20
126.73024902343749
 10
83.854485405815964
 20
123.83361273871526
 10
84.519905598958331
 20
123.42433539496527
 10
85.133821614583326
 20
124.42272406684026
 10
84.46822916666666
 20
124.83200141059027
 97
        0
 75
     0
 76
     1
 98
        1
 10
0.0
 20
0.0
  0
HATCH
  5
194
100
AcDbEntity
  8
EBENE_1
 62
   152
100
AcDbHatch
 10
0.0
 20
0.0
 30
0.0
210
0.0
220
0.0
230
1.0
  2
SOLID
 70
     1
 71
     0
 91
        1
 92
        1
 93
        1
 72
     4
 94
        3
 73
     0
 74
     0
 95
       23
 96
       19
 40
0.0
 40
0.0
 40
0.0
 40
0.0
 40
1.0
 40
1.0
 40
1.0
 40
2.0
 40
2.0
 40
2.0
 40
3.0
 40
3.0
 40
3.0
 40
4.0
 40
4.0
 40
4.0
 40
5.0
 40
5.0
 40
5.0
 40
6.0
 40
6.0
 40
6.0
 40
6.0
 10
84.46822916666666
 20
122.0766140407986
 10
84.46822916666666
 20
122.0766140407986
 10
84.043104383680543
 20
122.33844129774305
 10
83.465189615885407
 20
122.61473795572915
 10
78.69872775607638
 20
124.89470214843749
 10
79.861275227864581
 20
120.27482910156249
 10
75.14321695963541
 20
123.17835557725694
 10
74.477796766493043
 20
123.58763292100693
 10
73.86370849609375
 20
122.59062228732638
 10
74.528956434461804
 20
122.18065592447915
 10
74.528956434461804
 20
122.18065592447915
 10
74.954081217447907
 20
121.91882866753471
 10
75.531995985243043
 20
121.6425320095486
 10
80.292428927951377
 20
119.36394585503471
 10
79.13573811848957
 20
123.97486165364582
 10
83.854485405815964
 20
121.0782253689236
 10
84.519905598958331
 20
120.66894802517361
 10
85.133821614583326
 20
121.6673366970486
 10
84.46822916666666
 20
122.0766140407986
 97
        0
 75
     0
 76
     1
 98
        1
 10
0.0
 20
0.0
  0
HATCH
  5
193
100
AcDbEntity
  8
EBENE_1
 62
   152
100
AcDbHatch
 10
0.0
 20
0.0
 30
0.0
210
0.0
220
0.0
230
1.0
  2
SOLID
 70
     1
 71
     0
 91
        1
 92
        1
 93
        1
 72
     4
 94
        3
 73
     0
 74
     0
 95
       23
 96
       19
 40
0.0
 40
0.0
 40
0.0
 40
0.0
 40
1.0
 40
1.0
 40
1.0
 40
2.0
 40
2.0
 40
2.0
 40
3.0
 40
3.0
 40
3.0
 40
4.0
 40
4.0
 40
4.0
 40
5.0
 40
5.0
 40
5.0
 40
6.0
 40
6.0
 40
6.0
 40
6.0
 10
84.46822916666666
 20
130.33795301649303
 10
84.46822916666666
 20
130.33795301649303
 10
84.043104383680543
 20
130.60046929253471
 10
83.465189615885407
 20
130.87676595052082
 10
78.69872775607638
 20
133.15604112413195
 10
79.861275227864581
 20
128.53616807725695
 10
75.14321695963541
 20
131.4403835720486
 10
74.477796766493043
 20
131.84966091579861
 10
73.86370849609375
 20
130.85196126302083
 10
74.528956434461804
 20
130.4419949001736
 10
74.528956434461804
 20
130.4419949001736
 10
74.954081217447907
 20
130.18016764322917
 10
75.531995985243043
 20
129.90387098524303
 10
80.292428927951377
 20
127.62597384982638
 10
79.13573811848957
 20
132.23620062934026
 10
83.854485405815964
 20
129.34025336371528
 10
84.519905598958331
 20
128.93097601996527
 10
85.133821614583326
 20
129.92936469184028
 10
84.46822916666666
 20
130.33795301649303
 97
        0
 75
     0
 76
     1
 98
        1
 10
0.0
 20
0.0
  0
LINE
  5
191
100
AcDbEntity
  8
SCHRAFFUR
 62
     7
100
AcDbLine
 10
167.77305
 20
144.761879
 30
0.0
 11
167.782007
 21
144.770836
 31
0.0
  0
LINE
  5
190
100
AcDbEntity
  8
SCHRAFFUR
 62
     7
100
AcDbLine
 10
167.862967
 20
144.85214
 30
0.0
 11
167.912231
 21
144.901061
 31
0.0
  0
LINE
  5
18E
100
AcDbEntity
  8
MITTELLINIE
 62
     7
100
AcDbLine
 10
119.0625
 20
128.873098
 30
0.0
 11
135.09184
 21
128.873098
 31
0.0
  0
LINE
  5
18D
100
AcDbEntity
  8
MITTELLINIE
 62
     7
100
AcDbLine
 10
119.0625
 20
166.220001
 30
0.0
 11
135.09184
 21
166.220001
 31
0.0
  0
LINE
  5
18C
100
AcDbEntity
  8
MITTELLINIE
 62
     7
100
AcDbLine
 10
100.218517
 20
166.220001
 30
0.0
 11
116.139681
 21
166.220001
 31
0.0
  0
LINE
  5
18B
100
AcDbEntity
  8
MITTELLINIE
 62
     7
100
AcDbLine
 10
100.218517
 20
128.873098
 30
0.0
 11
116.139681
 21
128.873098
 31
0.0
  0
LINE
  5
18A
100
AcDbEntity
  8
MITTELLINIE
  6
AI9-LType1
 62
     7
100
AcDbLine
 10
171.732153
 20
147.546549
 30
0.0
 11
91.252483
 21
147.546549
 31
0.0
  0
POLYLINE
  5
182
100
AcDbEntity
  8
RAHMEN
 62
     7
100
AcDb2dPolyline
 66
     1
 10
0.0
 20
0.0
 30
0.0
 70
     1
  0
VERTEX
  5
183
100
AcDbEntity
  8
RAHMEN
 62
     7
100
AcDbVertex
100
AcDb2dVertex
 10
24.520639
 20
221.677253
 30
0.0
  0
VERTEX
  5
184
100
AcDbEntity
  8
RAHMEN
 62
     7
100
AcDbVertex
100
AcDb2dVertex
 10
24.520639
 20
77.417497
 30
0.0
  0
VERTEX
  5
185
100
AcDbEntity
  8
RAHMEN
 62
     7
100
AcDbVertex
100
AcDb2dVertex
 10
186.188463
 20
77.417497
 30
0.0
  0
VERTEX
  5
186
100
AcDbEntity
  8
RAHMEN
 62
     7
100
AcDbVertex
100
AcDb2dVertex
 10
186.188463
 20
221.677253
 30
0.0
  0
SEQEND
  5
187
100
AcDbEntity
  8
RAHMEN
 62
     7
  0
POLYLINE
  5
17C
100
AcDbEntity
  8
RAHMEN
 62
     7
100
AcDb2dPolyline
 66
     1
 10
0.0
 20
0.0
 30
0.0
 70
     1
  0
VERTEX
  5
17D
100
AcDbEntity
  8
RAHMEN
 62
     7
100
AcDbVertex
100
AcDb2dVertex
 10
167.027875
 20
94.023201
 30
0.0
  0
VERTEX
  5
17E
100
AcDbEntity
  8
RAHMEN
 62
     7
100
AcDbVertex
100
AcDb2dVertex
 10
186.077875
 20
94.023201
 30
0.0
  0
VERTEX
  5
17F
100
AcDbEntity
  8
RAHMEN
 62
     7
100
AcDbVertex
100
AcDb2dVertex
 10
186.077875
 20
77.265568
 30
0.0
  0
VERTEX
  5
180
100
AcDbEntity
  8
RAHMEN
 62
     7
100
AcDbVertex
100
AcDb2dVertex
 10
167.027875
 20
77.265568
 30
0.0
  0
SEQEND
  5
181
100
AcDbEntity
  8
RAHMEN
 62
     7
  0
MTEXT
  5
17B
100
AcDbEntity
  8
RAHMEN
 62
     7
100
AcDbMText
 10
168.174059
 20
91.5667
 30
0.0
 40
9.449404
 41
0.0
 71
     1
 72
     2
  1
\fMyriad Roman|b0|i0;\H9.4494;\C7;\U+0035\U+002E\U+0033
  7
STD
210
0.0
220
0.0
230
1.0
 73
     1
 44
1.0
  0
LINE
  5
179
100
AcDbEntity
  8
AM_8
 62
     7
100
AcDbLine
 10
108.13638
 20
178.527776
 30
0.0
 11
78.996729
 21
171.561104
 31
0.0
  0
LINE
  5
178
100
AcDbEntity
  8
AM_8
 62
     7
100
AcDbLine
 10
90.91452
 20
204.928232
 30
0.0
 11
115.23052
 21
195.495044
 31
0.0
  0
LINE
  5
177
100
AcDbEntity
  8
AM_8
 62
     7
100
AcDbLine
 10
117.728559
 20
123.546292
 30
0.0
 11
77.61025
 21
102.476777
 31
0.0
  0
LINE
  5
176
100
AcDbEntity
  8
AM_8
 62
     7
100
AcDbLine
 10
106.14477
 20
163.614303
 30
0.0
 11
56.804974
 21
153.168601
 31
0.0
  0
LINE
  5
175
100
AcDbEntity
  8
AM_8
 62
     7
100
AcDbLine
 10
126.298234
 20
150.826969
 30
0.0
 11
56.804974
 21
153.168601
 31
0.0
  0
LINE
  5
173
100
AcDbEntity
  8
AM_0
 62
     7
100
AcDbLine
 10
159.966808
 20
207.546505
 30
0.0
 11
159.966808
 21
171.546635
 31
0.0
  0
LINE
  5
172
100
AcDbEntity
  8
AM_0
 62
     7
100
AcDbLine
 10
102.366878
 20
171.546635
 30
0.0
 11
102.366878
 21
207.418864
 31
0.0
  0
LINE
  5
171
100
AcDbEntity
  8
AM_0
 62
     7
100
AcDbLine
 10
159.966808
 20
171.546635
 30
0.0
 11
102.366878
 21
171.546635
 31
0.0
  0
LINE
  5
170
100
AcDbEntity
  8
AM_0
 62
     7
100
AcDbLine
 10
159.966808
 20
123.546292
 30
0.0
 11
102.366878
 21
123.546292
 31
0.0
  0
LINE
  5
16F
100
AcDbEntity
  8
AM_0
 62
     7
100
AcDbLine
 10
150.367049
 20
207.418864
 30
0.0
 11
150.367049
 21
171.546635
 31
0.0
  0
LINE
  5
16E
100
AcDbEntity
  8
AM_0
 62
     7
100
AcDbLine
 10
111.966637
 20
171.546635
 30
0.0
 11
111.966637
 21
207.418864
 31
0.0
  0
LINE
  5
16D
100
AcDbEntity
  8
AM_0
 62
     7
100
AcDbLine
 10
121.567084
 20
171.546635
 30
0.0
 11
121.567084
 21
207.418864
 31
0.0
  0
LINE
  5
16C
100
AcDbEntity
  8
AM_0
 62
     7
100
AcDbLine
 10
159.966808
 20
171.546635
 30
0.0
 11
159.966808
 21
160.746433
 31
0.0
  0
LINE
  5
16B
100
AcDbEntity
  8
AM_0
 62
     7
100
AcDbLine
 10
159.966808
 20
134.346666
 30
0.0
 11
159.966808
 21
123.546292
 31
0.0
  0
LINE
  5
16A
100
AcDbEntity
  8
AM_0
 62
     7
100
AcDbLine
 10
132.491482
 20
124.026538
 30
0.0
 11
130.571875
 21
124.026538
 31
0.0
  0
LINE
  5
169
100
AcDbEntity
  8
AM_0
 62
     7
100
AcDbLine
 10
121.452018
 20
124.026538
 30
0.0
 11
121.452018
 21
171.066561
 31
0.0
  0
LINE
  5
168
100
AcDbEntity
  8
AM_0
 62
     7
100
AcDbLine
 10
132.491482
 20
171.066561
 30
0.0
 11
132.491482
 21
124.026538
 31
0.0
  0
LINE
  5
167
100
AcDbEntity
  8
AM_0
 62
     7
100
AcDbLine
 10
130.571875
 20
123.546292
 30
0.0
 11
130.571875
 21
171.546635
 31
0.0
  0
LINE
  5
166
100
AcDbEntity
  8
AM_0
 62
     7
100
AcDbLine
 10
130.571875
 20
171.066561
 30
0.0
 11
132.491482
 21
171.066561
 31
0.0
  0
LINE
  5
165
100
AcDbEntity
  8
AM_0
 62
     7
100
AcDbLine
 10
128.172021
 20
171.546635
 30
0.0
 11
123.371625
 21
171.546635
 31
0.0
  0
LINE
  5
164
100
AcDbEntity
  8
AM_0
 62
     7
100
AcDbLine
 10
130.571875
 20
124.026538
 30
0.0
 11
130.571875
 21
171.066561
 31
0.0
  0
LINE
  5
163
100
AcDbEntity
  8
AM_0
 62
     7
100
AcDbLine
 10
123.371625
 20
124.026538
 30
0.0
 11
121.452018
 21
124.026538
 31
0.0
  0
POLYLINE
  5
15D
100
AcDbEntity
  8
AM_0
 62
     7
100
AcDb2dPolyline
 66
     1
 10
0.0
 20
0.0
 30
0.0
 70
     1
  0
VERTEX
  5
15E
100
AcDbEntity
  8
AM_0
 62
     7
100
AcDbVertex
100
AcDb2dVertex
 10
132.491482
 20
168.52408
 30
0.0
  0
VERTEX
  5
15F
100
AcDbEntity
  8
AM_0
 62
     7
100
AcDbVertex
100
AcDb2dVertex
 10
132.491482
 20
163.916093
 30
0.0
  0
VERTEX
  5
160
100
AcDbEntity
  8
AM_0
 62
     7
100
AcDbVertex
100
AcDb2dVertex
 10
132.971729
 20
163.916093
 30
0.0
  0
VERTEX
  5
161
100
AcDbEntity
  8
AM_0
 62
     7
100
AcDbVertex
100
AcDb2dVertex
 10
132.971729
 20
168.52408
 30
0.0
  0
SEQEND
  5
162
100
AcDbEntity
  8
AM_0
 62
     7
  0
LINE
  5
15C
100
AcDbEntity
  8
AM_0
 62
     7
100
AcDbLine
 10
123.371625
 20
171.546635
 30
0.0
 11
123.371625
 21
123.546292
 31
0.0
  0
LINE
  5
15B
100
AcDbEntity
  8
AM_0
 62
     7
100
AcDbLine
 10
123.371625
 20
123.546292
 30
0.0
 11
128.172021
 21
123.546292
 31
0.0
  0
POLYLINE
  5
155
100
AcDbEntity
  8
AM_0
 62
     7
100
AcDb2dPolyline
 66
     1
 10
0.0
 20
0.0
 30
0.0
 70
     1
  0
VERTEX
  5
156
100
AcDbEntity
  8
AM_0
 62
     7
100
AcDbVertex
100
AcDb2dVertex
 10
132.491482
 20
126.569019
 30
0.0
  0
VERTEX
  5
157
100
AcDbEntity
  8
AM_0
 62
     7
100
AcDbVertex
100
AcDb2dVertex
 10
132.491482
 20
131.177178
 30
0.0
  0
VERTEX
  5
158
100
AcDbEntity
  8
AM_0
 62
     7
100
AcDbVertex
100
AcDb2dVertex
 10
132.971729
 20
131.177178
 30
0.0
  0
VERTEX
  5
159
100
AcDbEntity
  8
AM_0
 62
     7
100
AcDbVertex
100
AcDb2dVertex
 10
132.971729
 20
126.569019
 30
0.0
  0
SEQEND
  5
15A
100
AcDbEntity
  8
AM_0
 62
     7
  0
LINE
  5
154
100
AcDbEntity
  8
AM_0
 62
     7
100
AcDbLine
 10
121.452018
 20
171.066561
 30
0.0
 11
123.371625
 21
171.066561
 31
0.0
  0
LINE
  5
153
100
AcDbEntity
  8
AM_0
 62
     7
100
AcDbLine
 10
123.371625
 20
171.066561
 30
0.0
 11
123.371625
 21
124.026538
 31
0.0
  0
LINE
  5
152
100
AcDbEntity
  8
AM_0
 62
     7
100
AcDbLine
 10
113.539323
 20
171.066561
 30
0.0
 11
113.539323
 21
124.026538
 31
0.0
  0
LINE
  5
151
100
AcDbEntity
  8
AM_0
 62
     7
100
AcDbLine
 10
113.539323
 20
124.026538
 30
0.0
 11
111.619371
 21
124.026538
 31
0.0
  0
LINE
  5
150
100
AcDbEntity
  8
AM_0
 62
     7
100
AcDbLine
 10
111.619371
 20
124.026538
 30
0.0
 11
111.619371
 21
171.066561
 31
0.0
  0
LINE
  5
14F
100
AcDbEntity
  8
AM_0
 62
     7
100
AcDbLine
 10
111.619371
 20
171.066561
 30
0.0
 11
113.539323
 21
171.066561
 31
0.0
  0
LINE
  5
14E
100
AcDbEntity
  8
AM_0
 62
     7
100
AcDbLine
 10
111.619371
 20
123.546292
 30
0.0
 11
111.619371
 21
171.546635
 31
0.0
  0
LINE
  5
14D
100
AcDbEntity
  8
AM_0
 62
     7
100
AcDbLine
 10
109.219518
 20
171.546635
 30
0.0
 11
104.419466
 21
171.546635
 31
0.0
  0
LINE
  5
14C
100
AcDbEntity
  8
AM_0
 62
     7
100
AcDbLine
 10
104.419466
 20
171.546635
 30
0.0
 11
104.419466
 21
123.546292
 31
0.0
  0
LINE
  5
14B
100
AcDbEntity
  8
AM_0
 62
     7
100
AcDbLine
 10
104.419466
 20
123.546292
 30
0.0
 11
109.219518
 21
123.546292
 31
0.0
  0
LINE
  5
14A
100
AcDbEntity
  8
AM_0
 62
     7
100
AcDbLine
 10
104.419466
 20
171.066561
 30
0.0
 11
104.419466
 21
124.026538
 31
0.0
  0
LINE
  5
149
100
AcDbEntity
  8
AM_0
 62
     7
100
AcDbLine
 10
104.419466
 20
124.026538
 30
0.0
 11
102.499514
 21
124.026538
 31
0.0
  0
LINE
  5
148
100
AcDbEntity
  8
AM_0
 62
     7
100
AcDbLine
 10
102.499514
 20
171.066561
 30
0.0
 11
104.419466
 21
171.066561
 31
0.0
  0
POLYLINE
  5
142
100
AcDbEntity
  8
AM_0
 62
     7
100
AcDb2dPolyline
 66
     1
 10
0.0
 20
0.0
 30
0.0
 70
     1
  0
VERTEX
  5
143
100
AcDbEntity
  8
AM_0
 62
     7
100
AcDbVertex
100
AcDb2dVertex
 10
113.539323
 20
168.52408
 30
0.0
  0
VERTEX
  5
144
100
AcDbEntity
  8
AM_0
 62
     7
100
AcDbVertex
100
AcDb2dVertex
 10
113.539323
 20
163.916093
 30
0.0
  0
VERTEX
  5
145
100
AcDbEntity
  8
AM_0
 62
     7
100
AcDbVertex
100
AcDb2dVertex
 10
114.019225
 20
163.916093
 30
0.0
  0
VERTEX
  5
146
100
AcDbEntity
  8
AM_0
 62
     7
100
AcDbVertex
100
AcDb2dVertex
 10
114.019225
 20
168.52408
 30
0.0
  0
SEQEND
  5
147
100
AcDbEntity
  8
AM_0
 62
     7
  0
POLYLINE
  5
13C
100
AcDbEntity
  8
AM_0
 62
     7
100
AcDb2dPolyline
 66
     1
 10
0.0
 20
0.0
 30
0.0
 70
     1
  0
VERTEX
  5
13D
100
AcDbEntity
  8
AM_0
 62
     7
100
AcDbVertex
100
AcDb2dVertex
 10
113.539323
 20
126.569019
 30
0.0
  0
VERTEX
  5
13E
100
AcDbEntity
  8
AM_0
 62
     7
100
AcDbVertex
100
AcDb2dVertex
 10
113.539323
 20
131.177178
 30
0.0
  0
VERTEX
  5
13F
100
AcDbEntity
  8
AM_0
 62
     7
100
AcDbVertex
100
AcDb2dVertex
 10
114.019225
 20
131.177178
 30
0.0
  0
VERTEX
  5
140
100
AcDbEntity
  8
AM_0
 62
     7
100
AcDbVertex
100
AcDb2dVertex
 10
114.019225
 20
126.569019
 30
0.0
  0
SEQEND
  5
141
100
AcDbEntity
  8
AM_0
 62
     7
  0
LINE
  5
13B
100
AcDbEntity
  8
AM_0
 62
     7
100
AcDbLine
 10
167.731708
 20
160.746433
 30
0.0
 11
132.491482
 21
160.746433
 31
0.0
  0
LINE
  5
13A
100
AcDbEntity
  8
AM_0
 62
     7
100
AcDbLine
 10
121.452018
 20
160.746433
 30
0.0
 11
113.539323
 21
160.746433
 31
0.0
  0
LINE
  5
139
100
AcDbEntity
  8
AM_0
 62
     7
100
AcDbLine
 10
102.499514
 20
160.746433
 30
0.0
 11
95.854097
 21
160.746433
 31
0.0
  0
LINE
  5
138
100
AcDbEntity
  8
AM_0
 62
     7
100
AcDbLine
 10
167.731708
 20
134.346666
 30
0.0
 11
132.491482
 21
134.346666
 31
0.0
  0
LINE
  5
137
100
AcDbEntity
  8
AM_0
 62
     7
100
AcDbLine
 10
121.452018
 20
134.346666
 30
0.0
 11
113.539323
 21
134.346666
 31
0.0
  0
LINE
  5
136
100
AcDbEntity
  8
AM_0
 62
     7
100
AcDbLine
 10
102.499514
 20
134.346666
 30
0.0
 11
95.854097
 21
134.346666
 31
0.0
  0
SPLINE
  5
135
100
AcDbEntity
  8
AM_0
 62
     7
100
AcDbSpline
210
0.0
220
0.0
230
1.0
 70
     8
 71
     3
 72
     8
 73
     4
 74
     0
 42
0.00000001
 43
0.00000001
 40
0.0
 40
0.0
 40
0.0
 40
0.0
 40
1.0
 40
1.0
 40
1.0
 40
1.0
 10
167.81439073350694
 20
144.61649576822916
 30
0.0
 10
169.39568956163194
 20
149.17504611545138
 30
0.0
 10
170.07850748697916
 20
153.9969740125868
 30
0.0
 10
169.82529296874998
 20
158.81528455946179
 30
0.0
  0
SPLINE
  5
134
100
AcDbEntity
  8
AM_0
 62
     7
100
AcDbSpline
210
0.0
220
0.0
230
1.0
 70
     8
 71
     3
 72
     8
 73
     4
 74
     0
 42
0.00000001
 43
0.00000001
 40
0.0
 40
0.0
 40
0.0
 40
0.0
 40
1.0
 40
1.0
 40
1.0
 40
1.0
 10
166.14214138454861
 20
151.55354003906248
 30
0.0
 10
166.59965006510416
 20
149.21810980902777
 30
0.0
 10
167.15706651475693
 20
146.90369466145833
 30
0.0
 10
167.81439073350694
 20
144.61649576822916
 30
0.0
  0
SPLINE
  5
133
100
AcDbEntity
  8
AM_0
 62
     7
100
AcDbSpline
210
0.0
220
0.0
230
1.0
 70
     8
 71
     3
 72
     8
 73
     4
 74
     0
 42
0.00000001
 43
0.00000001
 40
0.0
 40
0.0
 40
0.0
 40
0.0
 40
1.0
 40
1.0
 40
1.0
 40
1.0
 10
165.64260253906249
 20
158.85541992187498
 30
0.0
 10
165.50755479600693
 20
156.25575086805554
 30
0.0
 10
165.70564778645831
 20
153.6497083875868
 30
0.0
 10
166.23205837673609
 20
151.10050998263887
 30
0.0
  0
SPLINE
  5
132
100
AcDbEntity
  8
AM_0
 62
     7
100
AcDbSpline
210
0.0
220
0.0
230
1.0
 70
     8
 71
     3
 72
     8
 73
     4
 74
     0
 42
0.00000001
 43
0.00000001
 40
0.0
 40
0.0
 40
0.0
 40
0.0
 40
1.0
 40
1.0
 40
1.0
 40
1.0
 10
167.81439073350694
 20
144.61649576822916
 30
0.0
 10
168.77626139322916
 20
149.22741156684026
 30
0.0
 10
169.05152452256942
 20
153.95511610243054
 30
0.0
 10
168.6319118923611
 20
158.64630262586803
 30
0.0
  0
SPLINE
  5
131
100
AcDbEntity
  8
AM_0
 62
     7
100
AcDbSpline
210
0.0
220
0.0
230
1.0
 70
     8
 71
     3
 72
     8
 73
     4
 74
     0
 42
0.00000001
 43
0.00000001
 40
0.0
 40
0.0
 40
0.0
 40
0.0
 40
1.0
 40
1.0
 40
1.0
 40
1.0
 10
166.83219401041666
 20
158.64630262586803
 30
0.0
 10
166.50387641059027
 20
153.94684787326386
 30
0.0
 10
166.83460557725692
 20
149.22431098090277
 30
0.0
 10
167.81439073350694
 20
144.61649576822916
 30
0.0
  0
SPLINE
  5
130
100
AcDbEntity
  8
AM_0
 62
     7
100
AcDbSpline
210
0.0
220
0.0
230
1.0
 70
     8
 71
     3
 72
    11
 73
     7
 74
     0
 42
0.00000001
 43
0.00000001
 40
0.0
 40
0.0
 40
0.0
 40
0.0
 40
1.0
 40
1.0
 40
1.0
 40
2.0
 40
2.0
 40
2.0
 40
2.0
 10
168.6319118923611
 20
158.64630262586803
 30
0.0
 10
168.6319118923611
 20
159.14342990451388
 30
0.0
 10
168.2288357204861
 20
159.54650607638888
 30
0.0
 10
167.73170844184025
 20
159.54650607638888
 30
0.0
 10
167.23458116319443
 20
159.54650607638888
 30
0.0
 10
166.83219401041666
 20
159.14342990451388
 30
0.0
 10
166.83219401041666
 20
158.64630262586803
 30
0.0
  0
SPLINE
  5
12F
100
AcDbEntity
  8
AM_0
 62
     7
100
AcDbSpline
210
0.0
220
0.0
230
1.0
 70
     8
 71
     3
 72
    11
 73
     7
 74
     0
 42
0.00000001
 43
0.00000001
 40
0.0
 40
0.0
 40
0.0
 40
0.0
 40
1.0
 40
1.0
 40
1.0
 40
2.0
 40
2.0
 40
2.0
 40
2.0
 10
169.83149414062498
 20
158.69074435763886
 30
0.0
 10
169.80703396267359
 20
159.85036349826387
 30
0.0
 10
168.84688585069443
 20
160.77054850260416
 30
0.0
 10
167.68726671006942
 20
160.74591606987846
 30
0.0
 10
166.54280598958331
 20
160.72162814670136
 30
0.0
 10
165.62847764756944
 20
159.78507893880206
 30
0.0
 10
165.63157823350693
 20
158.63992919921873
 30
0.0
  0
SPLINE
  5
12E
100
AcDbEntity
  8
AM_0
 62
     7
100
AcDbSpline
210
0.0
220
0.0
230
1.0
 70
     8
 71
     3
 72
     8
 73
     4
 74
     0
 42
0.00000001
 43
0.00000001
 40
0.0
 40
0.0
 40
0.0
 40
0.0
 40
1.0
 40
1.0
 40
1.0
 40
1.0
 10
167.81439073350694
 20
144.61649576822916
 30
0.0
 10
168.37628580729165
 20
142.09192979600692
 30
0.0
 10
169.01431749131942
 20
139.58390028211804
 30
0.0
 10
169.72848578559027
 20
137.09791937934025
 30
0.0
  0
SPLINE
  5
12D
100
AcDbEntity
  8
AM_0
 62
     7
100
AcDbSpline
210
0.0
220
0.0
230
1.0
 70
     8
 71
     3
 72
     8
 73
     4
 74
     0
 42
0.00000001
 43
0.00000001
 40
0.0
 40
0.0
 40
0.0
 40
0.0
 40
1.0
 40
1.0
 40
1.0
 40
1.0
 10
168.93990342881943
 20
134.72907172309027
 30
0.0
 10
169.57517903645831
 20
135.38295084635416
 30
0.0
 10
169.85733235677083
 20
136.3021023220486
 30
0.0
 10
169.69920247395831
 20
137.19920518663193
 30
0.0
  0
SPLINE
  5
12C
100
AcDbEntity
  8
AM_0
 62
     7
100
AcDbSpline
210
0.0
220
0.0
230
1.0
 70
     8
 71
     3
 72
     8
 73
     4
 74
     0
 42
0.00000001
 43
0.00000001
 40
0.0
 40
0.0
 40
0.0
 40
0.0
 40
1.0
 40
1.0
 40
1.0
 40
1.0
 10
167.73170844184025
 20
134.34666612413193
 30
0.0
 10
168.16441243489581
 20
134.34666612413193
 30
0.0
 10
168.58643663194442
 20
134.48033582899305
 30
0.0
 10
168.93990342881943
 20
134.72907172309027
 30
0.0
  0
SPLINE
  5
12B
100
AcDbEntity
  8
AM_0
 62
     7
100
AcDbSpline
210
0.0
220
0.0
230
1.0
 70
     8
 71
     3
 72
     8
 73
     4
 74
     0
 42
0.00000001
 43
0.00000001
 40
0.0
 40
0.0
 40
0.0
 40
0.0
 40
1.0
 40
1.0
 40
1.0
 40
1.0
 10
95.771415201822904
 20
150.47625868055553
 30
0.0
 10
95.20986463758679
 20
153.00151367187499
 30
0.0
 10
94.571660698784711
 20
155.50885416666665
 30
0.0
 10
93.857492404513877
 20
157.99500732421873
 30
0.0
  0
SPLINE
  5
12A
100
AcDbEntity
  8
AM_0
 62
     7
100
AcDbSpline
210
0.0
220
0.0
230
1.0
 70
     8
 71
     3
 72
     8
 73
     4
 74
     0
 42
0.00000001
 43
0.00000001
 40
0.0
 40
0.0
 40
0.0
 40
0.0
 40
1.0
 40
1.0
 40
1.0
 40
1.0
 10
94.64590250651041
 20
160.36402723524304
 30
0.0
 10
94.01079915364582
 20
159.71014811197915
 30
0.0
 10
93.728645833333331
 20
158.79099663628472
 30
0.0
 10
93.88677571614582
 20
157.89337700737846
 30
0.0
  0
SPLINE
  5
129
100
AcDbEntity
  8
AM_0
 62
     7
100
AcDbSpline
210
0.0
220
0.0
230
1.0
 70
     8
 71
     3
 72
     8
 73
     4
 74
     0
 42
0.00000001
 43
0.00000001
 40
0.0
 40
0.0
 40
0.0
 40
0.0
 40
1.0
 40
1.0
 40
1.0
 40
1.0
 10
95.854097493489576
 20
160.74643283420139
 30
0.0
 10
95.42156575520832
 20
160.74643283420139
 30
0.0
 10
94.99954155815972
 20
160.61293538411456
 30
0.0
 10
94.64590250651041
 20
160.36402723524304
 30
0.0
  0
SPLINE
  5
128
100
AcDbEntity
  8
AM_0
 62
     7
100
AcDbSpline
210
0.0
220
0.0
230
1.0
 70
     8
 71
     3
 72
     8
 73
     4
 74
     0
 42
0.00000001
 43
0.00000001
 40
0.0
 40
0.0
 40
0.0
 40
0.0
 40
1.0
 40
1.0
 40
1.0
 40
1.0
 10
95.771415201822904
 20
150.47625868055553
 30
0.0
 10
94.190288628472217
 20
145.91805284288193
 30
0.0
 10
93.507642957899293
 20
141.09560818142359
 30
0.0
 10
93.760685221354152
 20
136.2772976345486
 30
0.0
  0
SPLINE
  5
127
100
AcDbEntity
  8
AM_0
 62
     7
100
AcDbSpline
210
0.0
220
0.0
230
1.0
 70
     8
 71
     3
 72
     8
 73
     4
 74
     0
 42
0.00000001
 43
0.00000001
 40
0.0
 40
0.0
 40
0.0
 40
0.0
 40
1.0
 40
1.0
 40
1.0
 40
1.0
 10
97.943547905815961
 20
136.23733452690971
 30
0.0
 10
98.078423394097214
 20
138.83700358072915
 30
0.0
 10
97.880330403645829
 20
141.44287380642359
 30
0.0
 10
97.353747558593739
 20
143.99224446614582
 30
0.0
  0
SPLINE
  5
126
100
AcDbEntity
  8
AM_0
 62
     7
100
AcDbSpline
210
0.0
220
0.0
230
1.0
 70
     8
 71
     3
 72
     8
 73
     4
 74
     0
 42
0.00000001
 43
0.00000001
 40
0.0
 40
0.0
 40
0.0
 40
0.0
 40
1.0
 40
1.0
 40
1.0
 40
1.0
 10
95.771415201822904
 20
150.47625868055553
 30
0.0
 10
94.809716796874994
 20
145.86568739149305
 30
0.0
 10
94.534281412760407
 20
141.13763834635415
 30
0.0
 10
94.95406629774304
 20
136.44679633246525
 30
0.0
  0
SPLINE
  5
125
100
AcDbEntity
  8
AM_0
 62
     7
100
AcDbSpline
210
0.0
220
0.0
230
1.0
 70
     8
 71
     3
 72
     8
 73
     4
 74
     0
 42
0.00000001
 43
0.00000001
 40
0.0
 40
0.0
 40
0.0
 40
0.0
 40
1.0
 40
1.0
 40
1.0
 40
1.0
 10
96.753956434461799
 20
136.44679633246525
 30
0.0
 10
97.081929524739579
 20
141.14590657552083
 30
0.0
 10
96.751200358072907
 20
145.86844346788192
 30
0.0
 10
95.771415201822904
 20
150.47625868055553
 30
0.0
  0
SPLINE
  5
124
100
AcDbEntity
  8
AM_0
 62
     7
100
AcDbSpline
210
0.0
220
0.0
230
1.0
 70
     8
 71
     3
 72
     8
 73
     4
 74
     0
 42
0.00000001
 43
0.00000001
 40
0.0
 40
0.0
 40
0.0
 40
0.0
 40
1.0
 40
1.0
 40
1.0
 40
1.0
 10
97.443664550781236
 20
143.53955891927083
 30
0.0
 10
96.986500379774299
 20
145.87464463975692
 30
0.0
 10
96.428394911024299
 20
148.18940429687498
 30
0.0
 10
95.771415201822904
 20
150.47625868055553
 30
0.0
  0
SPLINE
  5
123
100
AcDbEntity
  8
AM_0
 62
     7
100
AcDbSpline
210
0.0
220
0.0
230
1.0
 70
     8
 71
     3
 72
    11
 73
     7
 74
     0
 42
0.00000001
 43
0.00000001
 40
0.0
 40
0.0
 40
0.0
 40
0.0
 40
1.0
 40
1.0
 40
1.0
 40
2.0
 40
2.0
 40
2.0
 40
2.0
 10
94.95406629774304
 20
136.44679633246525
 30
0.0
 10
94.95406629774304
 20
135.94932454427081
 30
0.0
 10
95.356970214843741
 20
135.54624837239581
 30
0.0
 10
95.854097493489576
 20
135.54624837239581
 30
0.0
 10
96.350880262586799
 20
135.54624837239581
 30
0.0
 10
96.753956434461799
 20
135.94932454427081
 30
0.0
 10
96.753956434461799
 20
136.44679633246525
 30
0.0
  0
SPLINE
  5
122
100
AcDbEntity
  8
AM_0
 62
     7
100
AcDbSpline
210
0.0
220
0.0
230
1.0
 70
     8
 71
     3
 72
    11
 73
     7
 74
     0
 42
0.00000001
 43
0.00000001
 40
0.0
 40
0.0
 40
0.0
 40
0.0
 40
1.0
 40
1.0
 40
1.0
 40
2.0
 40
2.0
 40
2.0
 40
2.0
 10
93.75448404947916
 20
136.40201009114583
 30
0.0
 10
93.778944227430543
 20
135.24239095052081
 30
0.0
 10
94.73892008463541
 20
134.32255045572916
 30
0.0
 10
95.898539225260407
 20
134.34666612413193
 30
0.0
 10
97.043172200520829
 20
134.37147081163192
 30
0.0
 10
97.957500542534717
 20
135.30784776475693
 30
0.0
 10
97.95388319227429
 20
136.45299750434026
 30
0.0
  0
LINE
  5
121
100
AcDbEntity
  8
AM_0
 62
     7
100
AcDbLine
 10
159.928223
 20
123.674449
 30
0.0
 11
159.928223
 21
87.673891
 31
0.0
  0
LINE
  5
120
100
AcDbEntity
  8
AM_0
 62
     7
100
AcDbLine
 10
150.32812
 20
123.546292
 30
0.0
 11
150.32812
 21
87.673891
 31
0.0
  0
LINE
  5
11F
100
AcDbEntity
  8
AM_0
 62
     7
100
AcDbLine
 10
102.327949
 20
87.673891
 30
0.0
 11
102.327949
 21
171.52717
 31
0.0
  0
LINE
  5
11E
100
AcDbEntity
  8
AM_0
 62
     7
100
AcDbLine
 10
111.928396
 20
87.673891
 30
0.0
 11
111.928396
 21
123.546292
 31
0.0
  0
LINE
  5
11D
100
AcDbEntity
  8
AM_0
 62
     7
100
AcDbLine
 10
121.528499
 20
87.673891
 30
0.0
 11
121.528499
 21
123.546292
 31
0.0
  0
LINE
  5
11C
100
AcDbEntity
  8
AM_0
 62
     7
100
AcDbLine
 10
114.019225
 20
165.220923
 30
0.0
 11
114.019225
 21
167.218906
 31
0.0
  0
LINE
  5
11B
100
AcDbEntity
  8
AM_0
 62
     7
100
AcDbLine
 10
115.219151
 20
165.220923
 30
0.0
 11
115.219151
 21
167.218906
 31
0.0
  0
SPLINE
  5
11A
100
AcDbEntity
  8
AM_0
 62
     7
100
AcDbSpline
210
0.0
220
0.0
230
1.0
 70
     8
 71
     3
 72
     8
 73
     4
 74
     0
 42
0.00000001
 43
0.00000001
 40
0.0
 40
0.0
 40
0.0
 40
0.0
 40
1.0
 40
1.0
 40
1.0
 40
1.0
 10
115.10511881510416
 20
166.88593749999998
 30
0.0
 10
115.25739203559027
 20
166.4551283094618
 30
0.0
 10
115.25739203559027
 20
165.98487277560761
 30
0.0
 10
115.10511881510416
 20
165.55389133029513
 30
0.0
  0
SPLINE
  5
119
100
AcDbEntity
  8
AM_0
 62
     7
100
AcDbSpline
210
0.0
220
0.0
230
1.0
 70
     8
 71
     3
 72
     8
 73
     4
 74
     0
 42
0.00000001
 43
0.00000001
 40
0.0
 40
0.0
 40
0.0
 40
0.0
 40
1.0
 40
1.0
 40
1.0
 40
1.0
 10
114.13360188802082
 20
165.55389133029513
 30
0.0
 10
113.9809841579861
 20
165.98487277560761
 30
0.0
 10
113.9809841579861
 20
166.4551283094618
 30
0.0
 10
114.13360188802082
 20
166.88593749999998
 30
0.0
  0
LINE
  5
118
100
AcDbEntity
  8
AM_0
 62
     7
100
AcDbLine
 10
115.105119
 20
164.888127
 30
0.0
 11
114.133602
 21
164.888127
 31
0.0
  0
SPLINE
  5
117
100
AcDbEntity
  8
AM_0
 62
     7
100
AcDbSpline
210
0.0
220
0.0
230
1.0
 70
     8
 71
     3
 72
     8
 73
     4
 74
     0
 42
0.00000001
 43
0.00000001
 40
0.0
 40
0.0
 40
0.0
 40
0.0
 40
1.0
 40
1.0
 40
1.0
 40
1.0
 10
115.10511881510416
 20
165.55389133029513
 30
0.0
 10
115.25739203559027
 20
165.35803765190971
 30
0.0
 10
115.25739203559027
 20
165.08398030598957
 30
0.0
 10
115.10511881510416
 20
164.88812662760415
 30
0.0
  0
LINE
  5
116
100
AcDbEntity
  8
AM_0
 62
     7
100
AcDbLine
 10
115.105119
 20
165.553891
 30
0.0
 11
114.133602
 21
165.553891
 31
0.0
  0
SPLINE
  5
115
100
AcDbEntity
  8
AM_0
 62
     7
100
AcDbSpline
210
0.0
220
0.0
230
1.0
 70
     8
 71
     3
 72
     8
 73
     4
 74
     0
 42
0.00000001
 43
0.00000001
 40
0.0
 40
0.0
 40
0.0
 40
0.0
 40
1.0
 40
1.0
 40
1.0
 40
1.0
 10
114.13360188802082
 20
164.88812662760415
 30
0.0
 10
113.9809841579861
 20
165.08398030598957
 30
0.0
 10
113.9809841579861
 20
165.35803765190971
 30
0.0
 10
114.13360188802082
 20
165.55389133029513
 30
0.0
  0
LINE
  5
114
100
AcDbEntity
  8
AM_0
 62
     7
100
AcDbLine
 10
115.105119
 20
166.885937
 30
0.0
 11
114.133602
 21
166.885937
 31
0.0
  0
SPLINE
  5
113
100
AcDbEntity
  8
AM_0
 62
     7
100
AcDbSpline
210
0.0
220
0.0
230
1.0
 70
     8
 71
     3
 72
     8
 73
     4
 74
     0
 42
0.00000001
 43
0.00000001
 40
0.0
 40
0.0
 40
0.0
 40
0.0
 40
1.0
 40
1.0
 40
1.0
 40
1.0
 10
115.10511881510416
 20
167.55204671223956
 30
0.0
 10
115.25739203559027
 20
167.35619303385414
 30
0.0
 10
115.25739203559027
 20
167.0817911783854
 30
0.0
 10
115.10511881510416
 20
166.88593749999998
 30
0.0
  0
SPLINE
  5
112
100
AcDbEntity
  8
AM_0
 62
     7
100
AcDbSpline
210
0.0
220
0.0
230
1.0
 70
     8
 71
     3
 72
     8
 73
     4
 74
     0
 42
0.00000001
 43
0.00000001
 40
0.0
 40
0.0
 40
0.0
 40
0.0
 40
1.0
 40
1.0
 40
1.0
 40
1.0
 10
114.13360188802082
 20
166.88593749999998
 30
0.0
 10
113.9809841579861
 20
167.0817911783854
 30
0.0
 10
113.9809841579861
 20
167.35619303385414
 30
0.0
 10
114.13360188802082
 20
167.55204671223956
 30
0.0
  0
LINE
  5
111
100
AcDbEntity
  8
AM_0
 62
     7
100
AcDbLine
 10
115.105119
 20
167.552047
 30
0.0
 11
114.133602
 21
167.552047
 31
0.0
  0
LINE
  5
110
100
AcDbEntity
  8
AM_0
 62
     7
100
AcDbLine
 10
114.019225
 20
127.874021
 30
0.0
 11
114.019225
 21
129.871487
 31
0.0
  0
LINE
  5
10F
100
AcDbEntity
  8
AM_0
 62
     7
100
AcDbLine
 10
115.219151
 20
127.874021
 30
0.0
 11
115.219151
 21
129.871487
 31
0.0
  0
SPLINE
  5
10E
100
AcDbEntity
  8
AM_0
 62
     7
100
AcDbSpline
210
0.0
220
0.0
230
1.0
 70
     8
 71
     3
 72
     8
 73
     4
 74
     0
 42
0.00000001
 43
0.00000001
 40
0.0
 40
0.0
 40
0.0
 40
0.0
 40
1.0
 40
1.0
 40
1.0
 40
1.0
 10
115.10511881510416
 20
129.53869086371526
 30
0.0
 10
115.25739203559027
 20
129.10805392795137
 30
0.0
 10
115.25739203559027
 20
128.63745388454859
 30
0.0
 10
115.10511881510416
 20
128.20681694878471
 30
0.0
  0
SPLINE
  5
10D
100
AcDbEntity
  8
AM_0
 62
     7
100
AcDbSpline
210
0.0
220
0.0
230
1.0
 70
     8
 71
     3
 72
     8
 73
     4
 74
     0
 42
0.00000001
 43
0.00000001
 40
0.0
 40
0.0
 40
0.0
 40
0.0
 40
1.0
 40
1.0
 40
1.0
 40
1.0
 10
114.13360188802082
 20
128.20681694878471
 30
0.0
 10
113.9809841579861
 20
128.63745388454859
 30
0.0
 10
113.9809841579861
 20
129.10805392795137
 30
0.0
 10
114.13360188802082
 20
129.53869086371526
 30
0.0
  0
LINE
  5
10C
100
AcDbEntity
  8
AM_0
 62
     7
100
AcDbLine
 10
115.105119
 20
127.541225
 30
0.0
 11
114.133602
 21
127.541225
 31
0.0
  0
SPLINE
  5
10B
100
AcDbEntity
  8
AM_0
 62
     7
100
AcDbSpline
210
0.0
220
0.0
230
1.0
 70
     8
 71
     3
 72
     8
 73
     4
 74
     0
 42
0.00000001
 43
0.00000001
 40
0.0
 40
0.0
 40
0.0
 40
0.0
 40
1.0
 40
1.0
 40
1.0
 40
1.0
 10
115.10511881510416
 20
128.20681694878471
 30
0.0
 10
115.25739203559027
 20
128.01113552517359
 30
0.0
 10
115.25739203559027
 20
127.73690592447916
 30
0.0
 10
115.10511881510416
 20
127.54122450086804
 30
0.0
  0
LINE
  5
10A
100
AcDbEntity
  8
AM_0
 62
     7
100
AcDbLine
 10
115.105119
 20
128.206817
 30
0.0
 11
114.133602
 21
128.206817
 31
0.0
  0
SPLINE
  5
109
100
AcDbEntity
  8
AM_0
 62
     7
100
AcDbSpline
210
0.0
220
0.0
230
1.0
 70
     8
 71
     3
 72
     8
 73
     4
 74
     0
 42
0.00000001
 43
0.00000001
 40
0.0
 40
0.0
 40
0.0
 40
0.0
 40
1.0
 40
1.0
 40
1.0
 40
1.0
 10
114.13360188802082
 20
127.54122450086804
 30
0.0
 10
113.9809841579861
 20
127.73690592447916
 30
0.0
 10
113.9809841579861
 20
128.01113552517359
 30
0.0
 10
114.13360188802082
 20
128.20681694878471
 30
0.0
  0
LINE
  5
108
100
AcDbEntity
  8
AM_0
 62
     7
100
AcDbLine
 10
115.105119
 20
129.538691
 30
0.0
 11
114.133602
 21
129.538691
 31
0.0
  0
SPLINE
  5
107
100
AcDbEntity
  8
AM_0
 62
     7
100
AcDbSpline
210
0.0
220
0.0
230
1.0
 70
     8
 71
     3
 72
     8
 73
     4
 74
     0
 42
0.00000001
 43
0.00000001
 40
0.0
 40
0.0
 40
0.0
 40
0.0
 40
1.0
 40
1.0
 40
1.0
 40
1.0
 10
115.10511881510416
 20
130.20497233072916
 30
0.0
 10
115.25739203559027
 20
130.00929090711804
 30
0.0
 10
115.25739203559027
 20
129.7350613064236
 30
0.0
 10
115.10511881510416
 20
129.53869086371526
 30
0.0
  0
SPLINE
  5
106
100
AcDbEntity
  8
AM_0
 62
     7
100
AcDbSpline
210
0.0
220
0.0
230
1.0
 70
     8
 71
     3
 72
     8
 73
     4
 74
     0
 42
0.00000001
 43
0.00000001
 40
0.0
 40
0.0
 40
0.0
 40
0.0
 40
1.0
 40
1.0
 40
1.0
 40
1.0
 10
114.13360188802082
 20
129.53869086371526
 30
0.0
 10
113.9809841579861
 20
129.7350613064236
 30
0.0
 10
113.9809841579861
 20
130.00929090711804
 30
0.0
 10
114.13360188802082
 20
130.20497233072916
 30
0.0
  0
LINE
  5
105
100
AcDbEntity
  8
AM_0
 62
     7
100
AcDbLine
 10
115.105119
 20
130.204972
 30
0.0
 11
114.133602
 21
130.204972
 31
0.0
  0
LINE
  5
104
100
AcDbEntity
  8
AM_0
 62
     7
100
AcDbLine
 10
132.971729
 20
127.874021
 30
0.0
 11
132.971729
 21
129.871487
 31
0.0
  0
LINE
  5
103
100
AcDbEntity
  8
AM_0
 62
     7
100
AcDbLine
 10
134.171655
 20
127.874021
 30
0.0
 11
134.171655
 21
129.871487
 31
0.0
  0
SPLINE
  5
102
100
AcDbEntity
  8
AM_0
 62
     7
100
AcDbSpline
210
0.0
220
0.0
230
1.0
 70
     8
 71
     3
 72
     8
 73
     4
 74
     0
 42
0.00000001
 43
0.00000001
 40
0.0
 40
0.0
 40
0.0
 40
0.0
 40
1.0
 40
1.0
 40
1.0
 40
1.0
 10
134.05727810329859
 20
129.53869086371526
 30
0.0
 10
134.20989583333332
 20
129.10805392795137
 30
0.0
 10
134.20989583333332
 20
128.63745388454859
 30
0.0
 10
134.05727810329859
 20
128.20681694878471
 30
0.0
  0
SPLINE
  5
101
100
AcDbEntity
  8
AM_0
 62
     7
100
AcDbSpline
210
0.0
220
0.0
230
1.0
 70
     8
 71
     3
 72
     8
 73
     4
 74
     0
 42
0.00000001
 43
0.00000001
 40
0.0
 40
0.0
 40
0.0
 40
0.0
 40
1.0
 40
1.0
 40
1.0
 40
1.0
 10
133.08576117621527
 20
128.20681694878471
 30
0.0
 10
132.93383246527776
 20
128.63745388454859
 30
0.0
 10
132.93383246527776
 20
129.10805392795137
 30
0.0
 10
133.08576117621527
 20
129.53869086371526
 30
0.0
  0
LINE
  5
100
100
AcDbEntity
  8
AM_0
 62
     7
100
AcDbLine
 10
134.057278
 20
127.541225
 30
0.0
 11
133.085761
 21
127.541225
 31
0.0
  0
SPLINE
  5
FF
100
AcDbEntity
  8
AM_0
 62
     7
100
AcDbSpline
210
0.0
220
0.0
230
1.0
 70
     8
 71
     3
 72
     8
 73
     4
 74
     0
 42
0.00000001
 43
0.00000001
 40
0.0
 40
0.0
 40
0.0
 40
0.0
 40
1.0
 40
1.0
 40
1.0
 40
1.0
 10
134.05727810329859
 20
128.20681694878471
 30
0.0
 10
134.20989583333332
 20
128.01113552517359
 30
0.0
 10
134.20989583333332
 20
127.73690592447916
 30
0.0
 10
134.05727810329859
 20
127.54122450086804
 30
0.0
  0
LINE
  5
FE
100
AcDbEntity
  8
AM_0
 62
     7
100
AcDbLine
 10
134.057278
 20
128.206817
 30
0.0
 11
133.085761
 21
128.206817
 31
0.0
  0
SPLINE
  5
FD
100
AcDbEntity
  8
AM_0
 62
     7
100
AcDbSpline
210
0.0
220
0.0
230
1.0
 70
     8
 71
     3
 72
     8
 73
     4
 74
     0
 42
0.00000001
 43
0.00000001
 40
0.0
 40
0.0
 40
0.0
 40
0.0
 40
1.0
 40
1.0
 40
1.0
 40
1.0
 10
133.08576117621527
 20
127.54122450086804
 30
0.0
 10
132.93383246527776
 20
127.73690592447916
 30
0.0
 10
132.93383246527776
 20
128.01113552517359
 30
0.0
 10
133.08576117621527
 20
128.20681694878471
 30
0.0
  0
LINE
  5
FC
100
AcDbEntity
  8
AM_0
 62
     7
100
AcDbLine
 10
134.057278
 20
129.538691
 30
0.0
 11
133.085761
 21
129.538691
 31
0.0
  0
SPLINE
  5
FB
100
AcDbEntity
  8
AM_0
 62
     7
100
AcDbSpline
210
0.0
220
0.0
230
1.0
 70
     8
 71
     3
 72
     8
 73
     4
 74
     0
 42
0.00000001
 43
0.00000001
 40
0.0
 40
0.0
 40
0.0
 40
0.0
 40
1.0
 40
1.0
 40
1.0
 40
1.0
 10
134.05727810329859
 20
130.20497233072916
 30
0.0
 10
134.20989583333332
 20
130.00929090711804
 30
0.0
 10
134.20989583333332
 20
129.7350613064236
 30
0.0
 10
134.05727810329859
 20
129.53869086371526
 30
0.0
  0
SPLINE
  5
FA
100
AcDbEntity
  8
AM_0
 62
     7
100
AcDbSpline
210
0.0
220
0.0
230
1.0
 70
     8
 71
     3
 72
     8
 73
     4
 74
     0
 42
0.00000001
 43
0.00000001
 40
0.0
 40
0.0
 40
0.0
 40
0.0
 40
1.0
 40
1.0
 40
1.0
 40
1.0
 10
133.08576117621527
 20
129.53869086371526
 30
0.0
 10
132.93383246527776
 20
129.7350613064236
 30
0.0
 10
132.93383246527776
 20
130.00929090711804
 30
0.0
 10
133.08576117621527
 20
130.20497233072916
 30
0.0
  0
LINE
  5
F9
100
AcDbEntity
  8
AM_0
 62
     7
100
AcDbLine
 10
134.057278
 20
130.204972
 30
0.0
 11
133.085761
 21
130.204972
 31
0.0
  0
LINE
  5
F8
100
AcDbEntity
  8
AM_0
 62
     7
100
AcDbLine
 10
132.971729
 20
165.220923
 30
0.0
 11
132.971729
 21
167.218906
 31
0.0
  0
LINE
  5
F7
100
AcDbEntity
  8
AM_0
 62
     7
100
AcDbLine
 10
134.171655
 20
165.220923
 30
0.0
 11
134.171655
 21
167.218906
 31
0.0
  0
SPLINE
  5
F6
100
AcDbEntity
  8
AM_0
 62
     7
100
AcDbSpline
210
0.0
220
0.0
230
1.0
 70
     8
 71
     3
 72
     8
 73
     4
 74
     0
 42
0.00000001
 43
0.00000001
 40
0.0
 40
0.0
 40
0.0
 40
0.0
 40
1.0
 40
1.0
 40
1.0
 40
1.0
 10
134.05727810329859
 20
166.88593749999998
 30
0.0
 10
134.20989583333332
 20
166.4551283094618
 30
0.0
 10
134.20989583333332
 20
165.98487277560761
 30
0.0
 10
134.05727810329859
 20
165.55389133029513
 30
0.0
  0
SPLINE
  5
F5
100
AcDbEntity
  8
AM_0
 62
     7
100
AcDbSpline
210
0.0
220
0.0
230
1.0
 70
     8
 71
     3
 72
     8
 73
     4
 74
     0
 42
0.00000001
 43
0.00000001
 40
0.0
 40
0.0
 40
0.0
 40
0.0
 40
1.0
 40
1.0
 40
1.0
 40
1.0
 10
133.08576117621527
 20
165.55389133029513
 30
0.0
 10
132.93383246527776
 20
165.98487277560761
 30
0.0
 10
132.93383246527776
 20
166.4551283094618
 30
0.0
 10
133.08576117621527
 20
166.88593749999998
 30
0.0
  0
LINE
  5
F4
100
AcDbEntity
  8
AM_0
 62
     7
100
AcDbLine
 10
134.057278
 20
164.888127
 30
0.0
 11
133.085761
 21
164.888127
 31
0.0
  0
SPLINE
  5
F3
100
AcDbEntity
  8
AM_0
 62
     7
100
AcDbSpline
210
0.0
220
0.0
230
1.0
 70
     8
 71
     3
 72
     8
 73
     4
 74
     0
 42
0.00000001
 43
0.00000001
 40
0.0
 40
0.0
 40
0.0
 40
0.0
 40
1.0
 40
1.0
 40
1.0
 40
1.0
 10
134.05727810329859
 20
165.55389133029513
 30
0.0
 10
134.20989583333332
 20
165.35803765190971
 30
0.0
 10
134.20989583333332
 20
165.08398030598957
 30
0.0
 10
134.05727810329859
 20
164.88812662760415
 30
0.0
  0
LINE
  5
F2
100
AcDbEntity
  8
AM_0
 62
     7
100
AcDbLine
 10
134.057278
 20
165.553891
 30
0.0
 11
133.085761
 21
165.553891
 31
0.0
  0
SPLINE
  5
F1
100
AcDbEntity
  8
AM_0
 62
     7
100
AcDbSpline
210
0.0
220
0.0
230
1.0
 70
     8
 71
     3
 72
     8
 73
     4
 74
     0
 42
0.00000001
 43
0.00000001
 40
0.0
 40
0.0
 40
0.0
 40
0.0
 40
1.0
 40
1.0
 40
1.0
 40
1.0
 10
133.08576117621527
 20
164.88812662760415
 30
0.0
 10
132.93383246527776
 20
165.08398030598957
 30
0.0
 10
132.93383246527776
 20
165.35803765190971
 30
0.0
 10
133.08576117621527
 20
165.55389133029513
 30
0.0
  0
LINE
  5
F0
100
AcDbEntity
  8
AM_0
 62
     7
100
AcDbLine
 10
134.057278
 20
166.885937
 30
0.0
 11
133.085761
 21
166.885937
 31
0.0
  0
SPLINE
  5
EF
100
AcDbEntity
  8
AM_0
 62
     7
100
AcDbSpline
210
0.0
220
0.0
230
1.0
 70
     8
 71
     3
 72
     8
 73
     4
 74
     0
 42
0.00000001
 43
0.00000001
 40
0.0
 40
0.0
 40
0.0
 40
0.0
 40
1.0
 40
1.0
 40
1.0
 40
1.0
 10
134.05727810329859
 20
167.55204671223956
 30
0.0
 10
134.20989583333332
 20
167.35619303385414
 30
0.0
 10
134.20989583333332
 20
167.0817911783854
 30
0.0
 10
134.05727810329859
 20
166.88593749999998
 30
0.0
  0
SPLINE
  5
EE
100
AcDbEntity
  8
AM_0
 62
     7
100
AcDbSpline
210
0.0
220
0.0
230
1.0
 70
     8
 71
     3
 72
     8
 73
     4
 74
     0
 42
0.00000001
 43
0.00000001
 40
0.0
 40
0.0
 40
0.0
 40
0.0
 40
1.0
 40
1.0
 40
1.0
 40
1.0
 10
133.08576117621527
 20
166.88593749999998
 30
0.0
 10
132.93383246527776
 20
167.0817911783854
 30
0.0
 10
132.93383246527776
 20
167.35619303385414
 30
0.0
 10
133.08576117621527
 20
167.55204671223956
 30
0.0
  0
LINE
  5
ED
100
AcDbEntity
  8
AM_0
 62
     7
100
AcDbLine
 10
134.057278
 20
167.552047
 30
0.0
 11
133.085761
 21
167.552047
 31
0.0
  0
POLYLINE
  5
E6
100
AcDbEntity
  8
0
 62
     7
100
AcDb2dPolyline
 66
     1
 10
0.0
 20
0.0
 30
0.0
  0
VERTEX
  5
E7
100
AcDbEntity
  8
0
 62
     7
100
AcDbVertex
100
AcDb2dVertex
 10
111.928396
 20
123.546292
 30
0.0
  0
VERTEX
  5
E8
100
AcDbEntity
  8
0
 62
     7
100
AcDbVertex
100
AcDb2dVertex
 10
104.419466
 20
123.546292
 30
0.0
  0
VERTEX
  5
E9
100
AcDbEntity
  8
0
 62
     7
100
AcDbVertex
100
AcDb2dVertex
 10
104.419466
 20
171.546635
 30
0.0
  0
VERTEX
  5
EA
100
AcDbEntity
  8
0
 62
     7
100
AcDbVertex
100
AcDb2dVertex
 10
111.928396
 20
171.546635
 30
0.0
  0
SEQEND
  5
EB
100
AcDbEntity
  8
0
 62
     7
  0
POLYLINE
  5
E0
100
AcDbEntity
  8
0
 62
     7
100
AcDb2dPolyline
 66
     1
 10
0.0
 20
0.0
 30
0.0
 70
     1
  0
VERTEX
  5
E1
100
AcDbEntity
  8
0
 62
     7
100
AcDbVertex
100
AcDb2dVertex
 10
104.419466
 20
171.546635
 30
0.0
  0
VERTEX
  5
E2
100
AcDbEntity
  8
0
 62
     7
100
AcDbVertex
100
AcDb2dVertex
 10
111.619371
 20
171.546635
 30
0.0
  0
VERTEX
  5
E3
100
AcDbEntity
  8
0
 62
     7
100
AcDbVertex
100
AcDb2dVertex
 10
111.619371
 20
123.546292
 30
0.0
  0
VERTEX
  5
E4
100
AcDbEntity
  8
0
 62
     7
100
AcDbVertex
100
AcDb2dVertex
 10
104.419466
 20
123.546292
 30
0.0
  0
SEQEND
  5
E5
100
AcDbEntity
  8
0
 62
     7
  0
HATCH
  5
DF
100
AcDbEntity
  8
0
 62
     7
100
AcDbHatch
 10
0.0
 20
0.0
 30
0.0
210
0.0
220
0.0
230
1.0
  2
SOLID
 70
     1
 71
     0
 91
        1
 92
        3
 72
     0
 73
     1
 93
        4
 10
104.41946614583333
 20
171.5466349283854
 10
111.61937120225693
 20
171.5466349283854
 10
111.61937120225693
 20
123.5462917751736
 10
104.41946614583333
 20
123.5462917751736
 97
        0
 75
     0
 76
     1
 98
        1
 10
0.0
 20
0.0
  0
HATCH
  5
DE
100
AcDbEntity
  8
0
 62
     7
100
AcDbHatch
 10
0.0
 20
0.0
 30
0.0
210
0.0
220
0.0
230
1.0
  2
SOLID
 70
     1
 71
     0
 91
        1
 92
        3
 72
     0
 73
     1
 93
        4
 10
123.37162543402776
 20
171.5466349283854
 10
130.57187499999998
 20
171.5466349283854
 10
130.57187499999998
 20
123.5462917751736
 10
123.37162543402776
 20
123.5462917751736
 97
        0
 75
     0
 76
     1
 98
        1
 10
0.0
 20
0.0
  0
LINE
  5
DD
100
AcDbEntity
  8
0
 62
     7
100
AcDbLine
 10
148.599715
 20
207.418864
 30
0.0
 11
148.830192
 21
207.188904
 31
0.0
  0
LINE
  5
DC
100
AcDbEntity
  8
0
 62
     7
100
AcDbLine
 10
143.21193
 20
207.418864
 30
0.0
 11
143.441718
 21
207.188904
 31
0.0
  0
LINE
  5
DB
100
AcDbEntity
  8
0
 62
     7
100
AcDbLine
 10
146.135783
 20
204.494667
 30
0.0
 11
148.830192
 21
201.800602
 31
0.0
  0
LINE
  5
DA
100
AcDbEntity
  8
0
 62
     7
100
AcDbLine
 10
137.823456
 20
207.418864
 30
0.0
 11
138.053589
 21
207.188904
 31
0.0
  0
LINE
  5
D9
100
AcDbEntity
  8
0
 62
     7
100
AcDbLine
 10
140.747998
 20
204.494667
 30
0.0
 11
143.441718
 21
201.800602
 31
0.0
  0
LINE
  5
D8
100
AcDbEntity
  8
0
 62
     7
100
AcDbLine
 10
146.135783
 20
199.10671
 30
0.0
 11
148.830192
 21
196.412473
 31
0.0
  0
LINE
  5
D7
100
AcDbEntity
  8
0
 62
     7
100
AcDbLine
 10
132.435327
 20
207.418864
 30
0.0
 11
132.665115
 21
207.188904
 31
0.0
  0
LINE
  5
D6
100
AcDbEntity
  8
0
 62
     7
100
AcDbLine
 10
135.359524
 20
204.494667
 30
0.0
 11
138.053589
 21
201.800602
 31
0.0
  0
LINE
  5
D5
100
AcDbEntity
  8
0
 62
     7
100
AcDbLine
 10
140.747998
 20
199.10671
 30
0.0
 11
143.441718
 21
196.412473
 31
0.0
  0
LINE
  5
D4
100
AcDbEntity
  8
0
 62
     7
100
AcDbLine
 10
146.135783
 20
193.71858
 30
0.0
 11
148.830192
 21
191.024516
 31
0.0
  0
LINE
  5
D3
100
AcDbEntity
  8
0
 62
     7
100
AcDbLine
 10
127.047542
 20
207.418864
 30
0.0
 11
127.27733
 21
207.188904
 31
0.0
  0
LINE
  5
D2
100
AcDbEntity
  8
0
 62
     7
100
AcDbLine
 10
129.971395
 20
204.494667
 30
0.0
 11
132.665115
 21
201.800602
 31
0.0
  0
LINE
  5
D1
100
AcDbEntity
  8
0
 62
     7
100
AcDbLine
 10
135.359524
 20
199.10671
 30
0.0
 11
138.053589
 21
196.412473
 31
0.0
  0
LINE
  5
D0
100
AcDbEntity
  8
0
 62
     7
100
AcDbLine
 10
140.747998
 20
193.71858
 30
0.0
 11
143.441718
 21
191.024516
 31
0.0
  0
LINE
  5
CF
100
AcDbEntity
  8
0
 62
     7
100
AcDbLine
 10
146.135783
 20
188.330279
 30
0.0
 11
148.830192
 21
185.636214
 31
0.0
  0
LINE
  5
CE
100
AcDbEntity
  8
0
 62
     7
100
AcDbLine
 10
121.659068
 20
207.418864
 30
0.0
 11
121.889201
 21
207.188904
 31
0.0
  0
LINE
  5
CD
100
AcDbEntity
  8
0
 62
     7
100
AcDbLine
 10
124.582921
 20
204.494667
 30
0.0
 11
127.27733
 21
201.800602
 31
0.0
  0
LINE
  5
CC
100
AcDbEntity
  8
0
 62
     7
100
AcDbLine
 10
129.971395
 20
199.10671
 30
0.0
 11
132.665115
 21
196.412473
 31
0.0
  0
LINE
  5
CB
100
AcDbEntity
  8
0
 62
     7
100
AcDbLine
 10
135.359524
 20
193.71858
 30
0.0
 11
138.053589
 21
191.024516
 31
0.0
  0
LINE
  5
CA
100
AcDbEntity
  8
0
 62
     7
100
AcDbLine
 10
140.747998
 20
188.330279
 30
0.0
 11
143.441718
 21
185.636214
 31
0.0
  0
LINE
  5
C9
100
AcDbEntity
  8
0
 62
     7
100
AcDbLine
 10
146.135783
 20
182.942322
 30
0.0
 11
148.830192
 21
180.248085
 31
0.0
  0
LINE
  5
C8
100
AcDbEntity
  8
0
 62
     7
100
AcDbLine
 10
121.567084
 20
202.123063
 30
0.0
 11
121.889201
 21
201.800602
 31
0.0
  0
LINE
  5
C7
100
AcDbEntity
  8
0
 62
     7
100
AcDbLine
 10
124.582921
 20
199.10671
 30
0.0
 11
127.27733
 21
196.412473
 31
0.0
  0
LINE
  5
C6
100
AcDbEntity
  8
0
 62
     7
100
AcDbLine
 10
129.971395
 20
193.71858
 30
0.0
 11
132.665115
 21
191.024516
 31
0.0
  0
LINE
  5
C5
100
AcDbEntity
  8
0
 62
     7
100
AcDbLine
 10
135.359524
 20
188.330279
 30
0.0
 11
138.053589
 21
185.636214
 31
0.0
  0
LINE
  5
C4
100
AcDbEntity
  8
0
 62
     7
100
AcDbLine
 10
140.747998
 20
182.942322
 30
0.0
 11
143.441718
 21
180.248085
 31
0.0
  0
LINE
  5
C3
100
AcDbEntity
  8
0
 62
     7
100
AcDbLine
 10
146.135783
 20
177.55402
 30
0.0
 11
148.830192
 21
174.860128
 31
0.0
  0
LINE
  5
C2
100
AcDbEntity
  8
0
 62
     7
100
AcDbLine
 10
121.567084
 20
196.734762
 30
0.0
 11
121.889201
 21
196.412473
 31
0.0
  0
LINE
  5
C1
100
AcDbEntity
  8
0
 62
     7
100
AcDbLine
 10
124.582921
 20
193.71858
 30
0.0
 11
127.27733
 21
191.024516
 31
0.0
  0
LINE
  5
C0
100
AcDbEntity
  8
0
 62
     7
100
AcDbLine
 10
129.971395
 20
188.330279
 30
0.0
 11
132.665115
 21
185.636214
 31
0.0
  0
LINE
  5
BF
100
AcDbEntity
  8
0
 62
     7
100
AcDbLine
 10
135.359524
 20
182.942322
 30
0.0
 11
138.053589
 21
180.248085
 31
0.0
  0
LINE
  5
BE
100
AcDbEntity
  8
0
 62
     7
100
AcDbLine
 10
140.747998
 20
177.55402
 30
0.0
 11
143.441718
 21
174.860128
 31
0.0
  0
LINE
  5
BD
100
AcDbEntity
  8
0
 62
     7
100
AcDbLine
 10
146.135783
 20
172.165891
 30
0.0
 11
146.755211
 21
171.546635
 31
0.0
  0
LINE
  5
BC
100
AcDbEntity
  8
0
 62
     7
100
AcDbLine
 10
121.567084
 20
191.346632
 30
0.0
 11
121.889201
 21
191.024516
 31
0.0
  0
LINE
  5
BB
100
AcDbEntity
  8
0
 62
     7
100
AcDbLine
 10
124.582921
 20
188.330279
 30
0.0
 11
127.27733
 21
185.636214
 31
0.0
  0
LINE
  5
BA
100
AcDbEntity
  8
0
 62
     7
100
AcDbLine
 10
129.971395
 20
182.942322
 30
0.0
 11
132.665115
 21
180.248085
 31
0.0
  0
LINE
  5
B9
100
AcDbEntity
  8
0
 62
     7
100
AcDbLine
 10
135.359524
 20
177.55402
 30
0.0
 11
138.053589
 21
174.860128
 31
0.0
  0
LINE
  5
B8
100
AcDbEntity
  8
0
 62
     7
100
AcDbLine
 10
140.747998
 20
172.165891
 30
0.0
 11
141.367082
 21
171.546635
 31
0.0
  0
LINE
  5
B7
100
AcDbEntity
  8
0
 62
     7
100
AcDbLine
 10
121.567084
 20
185.958331
 30
0.0
 11
121.889201
 21
185.636214
 31
0.0
  0
LINE
  5
B6
100
AcDbEntity
  8
0
 62
     7
100
AcDbLine
 10
124.582921
 20
182.942322
 30
0.0
 11
127.27733
 21
180.248085
 31
0.0
  0
LINE
  5
B5
100
AcDbEntity
  8
0
 62
     7
100
AcDbLine
 10
129.971395
 20
177.55402
 30
0.0
 11
132.665115
 21
174.860128
 31
0.0
  0
LINE
  5
B4
100
AcDbEntity
  8
0
 62
     7
100
AcDbLine
 10
135.359524
 20
172.165891
 30
0.0
 11
135.978608
 21
171.546635
 31
0.0
  0
LINE
  5
B3
100
AcDbEntity
  8
0
 62
     7
100
AcDbLine
 10
121.567084
 20
180.570374
 30
0.0
 11
121.889201
 21
180.248085
 31
0.0
  0
LINE
  5
B2
100
AcDbEntity
  8
0
 62
     7
100
AcDbLine
 10
124.582921
 20
177.55402
 30
0.0
 11
127.27733
 21
174.860128
 31
0.0
  0
LINE
  5
B1
100
AcDbEntity
  8
0
 62
     7
100
AcDbLine
 10
129.971395
 20
172.165891
 30
0.0
 11
130.590823
 21
171.546635
 31
0.0
  0
LINE
  5
B0
100
AcDbEntity
  8
0
 62
     7
100
AcDbLine
 10
121.567084
 20
175.182072
 30
0.0
 11
121.889201
 21
174.860128
 31
0.0
  0
LINE
  5
AF
100
AcDbEntity
  8
0
 62
     7
100
AcDbLine
 10
124.582921
 20
172.165891
 30
0.0
 11
125.202694
 21
171.546635
 31
0.0
  0
LINE
  5
AE
100
AcDbEntity
  8
0
 62
     7
100
AcDbLine
 10
148.561475
 20
123.546292
 30
0.0
 11
148.791262
 21
123.316848
 31
0.0
  0
LINE
  5
AD
100
AcDbEntity
  8
0
 62
     7
100
AcDbLine
 10
143.173001
 20
123.546292
 30
0.0
 11
143.403133
 21
123.316848
 31
0.0
  0
LINE
  5
AC
100
AcDbEntity
  8
0
 62
     7
100
AcDbLine
 10
146.096853
 20
120.622784
 30
0.0
 11
148.791262
 21
117.92803
 31
0.0
  0
LINE
  5
AB
100
AcDbEntity
  8
0
 62
     7
100
AcDbLine
 10
137.784871
 20
123.546292
 30
0.0
 11
138.014659
 21
123.316848
 31
0.0
  0
LINE
  5
AA
100
AcDbEntity
  8
0
 62
     7
100
AcDbLine
 10
140.709068
 20
120.622784
 30
0.0
 11
143.403133
 21
117.92803
 31
0.0
  0
LINE
  5
A9
100
AcDbEntity
  8
0
 62
     7
100
AcDbLine
 10
146.096853
 20
115.234654
 30
0.0
 11
148.791262
 21
112.539901
 31
0.0
  0
LINE
  5
A8
100
AcDbEntity
  8
0
 62
     7
100
AcDbLine
 10
132.396398
 20
123.546292
 30
0.0
 11
132.626874
 21
123.316848
 31
0.0
  0
LINE
  5
A7
100
AcDbEntity
  8
0
 62
     7
100
AcDbLine
 10
135.320939
 20
120.622784
 30
0.0
 11
138.014659
 21
117.92803
 31
0.0
  0
LINE
  5
A6
100
AcDbEntity
  8
0
 62
     7
100
AcDbLine
 10
140.709068
 20
115.234654
 30
0.0
 11
143.403133
 21
112.539901
 31
0.0
  0
LINE
  5
A5
100
AcDbEntity
  8
0
 62
     7
100
AcDbLine
 10
146.096853
 20
109.845836
 30
0.0
 11
148.791262
 21
107.15246
 31
0.0
  0
LINE
  5
A4
100
AcDbEntity
  8
0
 62
     7
100
AcDbLine
 10
127.008613
 20
123.546292
 30
0.0
 11
127.238745
 21
123.316848
 31
0.0
  0
LINE
  5
A3
100
AcDbEntity
  8
0
 62
     7
100
AcDbLine
 10
129.932465
 20
120.622784
 30
0.0
 11
132.626874
 21
117.92803
 31
0.0
  0
LINE
  5
A2
100
AcDbEntity
  8
0
 62
     7
100
AcDbLine
 10
135.320939
 20
115.234654
 30
0.0
 11
138.014659
 21
112.539901
 31
0.0
  0
LINE
  5
A1
100
AcDbEntity
  8
0
 62
     7
100
AcDbLine
 10
140.709068
 20
109.845836
 30
0.0
 11
143.403133
 21
107.15246
 31
0.0
  0
LINE
  5
A0
100
AcDbEntity
  8
0
 62
     7
100
AcDbLine
 10
146.096853
 20
104.457707
 30
0.0
 11
148.791262
 21
101.763642
 31
0.0
  0
LINE
  5
9F
100
AcDbEntity
  8
0
 62
     7
100
AcDbLine
 10
121.620483
 20
123.546292
 30
0.0
 11
121.850271
 21
123.316848
 31
0.0
  0
LINE
  5
9E
100
AcDbEntity
  8
0
 62
     7
100
AcDbLine
 10
124.54468
 20
120.622784
 30
0.0
 11
127.238745
 21
117.92803
 31
0.0
  0
LINE
  5
9D
100
AcDbEntity
  8
0
 62
     7
100
AcDbLine
 10
129.932465
 20
115.234654
 30
0.0
 11
132.626874
 21
112.539901
 31
0.0
  0
LINE
  5
9C
100
AcDbEntity
  8
0
 62
     7
100
AcDbLine
 10
135.320939
 20
109.845836
 30
0.0
 11
138.014659
 21
107.15246
 31
0.0
  0
LINE
  5
9B
100
AcDbEntity
  8
0
 62
     7
100
AcDbLine
 10
140.709068
 20
104.457707
 30
0.0
 11
143.403133
 21
101.763642
 31
0.0
  0
LINE
  5
9A
100
AcDbEntity
  8
0
 62
     7
100
AcDbLine
 10
146.096853
 20
99.070266
 30
0.0
 11
148.791262
 21
96.375513
 31
0.0
  0
LINE
  5
99
100
AcDbEntity
  8
0
 62
     7
100
AcDbLine
 10
121.528499
 20
118.250491
 30
0.0
 11
121.850271
 21
117.92803
 31
0.0
  0
LINE
  5
98
100
AcDbEntity
  8
0
 62
     7
100
AcDbLine
 10
124.54468
 20
115.234654
 30
0.0
 11
127.238745
 21
112.539901
 31
0.0
  0
LINE
  5
97
100
AcDbEntity
  8
0
 62
     7
100
AcDbLine
 10
129.932465
 20
109.845836
 30
0.0
 11
132.626874
 21
107.15246
 31
0.0
  0
LINE
  5
96
100
AcDbEntity
  8
0
 62
     7
100
AcDbLine
 10
135.320939
 20
104.457707
 30
0.0
 11
138.014659
 21
101.763642
 31
0.0
  0
LINE
  5
95
100
AcDbEntity
  8
0
 62
     7
100
AcDbLine
 10
140.709068
 20
99.070266
 30
0.0
 11
143.403133
 21
96.375513
 31
0.0
  0
LINE
  5
94
100
AcDbEntity
  8
0
 62
     7
100
AcDbLine
 10
146.096853
 20
93.681448
 30
0.0
 11
148.791262
 21
90.988072
 31
0.0
  0
LINE
  5
93
100
AcDbEntity
  8
0
 62
     7
100
AcDbLine
 10
121.528499
 20
112.862362
 30
0.0
 11
121.850271
 21
112.539901
 31
0.0
  0
LINE
  5
92
100
AcDbEntity
  8
0
 62
     7
100
AcDbLine
 10
124.54468
 20
109.845836
 30
0.0
 11
127.238745
 21
107.15246
 31
0.0
  0
LINE
  5
91
100
AcDbEntity
  8
0
 62
     7
100
AcDbLine
 10
129.932465
 20
104.457707
 30
0.0
 11
132.626874
 21
101.763642
 31
0.0
  0
LINE
  5
90
100
AcDbEntity
  8
0
 62
     7
100
AcDbLine
 10
135.320939
 20
99.070266
 30
0.0
 11
138.014659
 21
96.375513
 31
0.0
  0
LINE
  5
8F
100
AcDbEntity
  8
0
 62
     7
100
AcDbLine
 10
140.709068
 20
93.681448
 30
0.0
 11
143.403133
 21
90.988072
 31
0.0
  0
LINE
  5
8E
100
AcDbEntity
  8
0
 62
     7
100
AcDbLine
 10
146.096853
 20
88.293319
 30
0.0
 11
146.716626
 21
87.673891
 31
0.0
  0
LINE
  5
8D
100
AcDbEntity
  8
0
 62
     7
100
AcDbLine
 10
121.528499
 20
107.474232
 30
0.0
 11
121.850271
 21
107.15246
 31
0.0
  0
LINE
  5
8C
100
AcDbEntity
  8
0
 62
     7
100
AcDbLine
 10
124.54468
 20
104.457707
 30
0.0
 11
127.238745
 21
101.763642
 31
0.0
  0
LINE
  5
8B
100
AcDbEntity
  8
0
 62
     7
100
AcDbLine
 10
129.932465
 20
99.070266
 30
0.0
 11
132.626874
 21
96.375513
 31
0.0
  0
LINE
  5
8A
100
AcDbEntity
  8
0
 62
     7
100
AcDbLine
 10
135.320939
 20
93.681448
 30
0.0
 11
138.014659
 21
90.988072
 31
0.0
  0
LINE
  5
89
100
AcDbEntity
  8
0
 62
     7
100
AcDbLine
 10
140.709068
 20
88.293319
 30
0.0
 11
141.328152
 21
87.673891
 31
0.0
  0
LINE
  5
88
100
AcDbEntity
  8
0
 62
     7
100
AcDbLine
 10
121.528499
 20
102.086103
 30
0.0
 11
121.850271
 21
101.763642
 31
0.0
  0
LINE
  5
87
100
AcDbEntity
  8
0
 62
     7
100
AcDbLine
 10
124.54468
 20
99.070266
 30
0.0
 11
127.238745
 21
96.375513
 31
0.0
  0
LINE
  5
86
100
AcDbEntity
  8
0
 62
     7
100
AcDbLine
 10
129.932465
 20
93.681448
 30
0.0
 11
132.626874
 21
90.988072
 31
0.0
  0
LINE
  5
85
100
AcDbEntity
  8
0
 62
     7
100
AcDbLine
 10
135.320939
 20
88.293319
 30
0.0
 11
135.940367
 21
87.673891
 31
0.0
  0
LINE
  5
84
100
AcDbEntity
  8
0
 62
     7
100
AcDbLine
 10
121.528499
 20
96.697974
 30
0.0
 11
121.850271
 21
96.375513
 31
0.0
  0
LINE
  5
83
100
AcDbEntity
  8
0
 62
     7
100
AcDbLine
 10
124.54468
 20
93.681448
 30
0.0
 11
127.238745
 21
90.988072
 31
0.0
  0
LINE
  5
82
100
AcDbEntity
  8
0
 62
     7
100
AcDbLine
 10
129.932465
 20
88.293319
 30
0.0
 11
130.552238
 21
87.673891
 31
0.0
  0
LINE
  5
81
100
AcDbEntity
  8
0
 62
     7
100
AcDbLine
 10
121.528499
 20
91.309844
 30
0.0
 11
121.850271
 21
90.988072
 31
0.0
  0
LINE
  5
80
100
AcDbEntity
  8
0
 62
     7
100
AcDbLine
 10
124.54468
 20
88.293319
 30
0.0
 11
125.163764
 21
87.673891
 31
0.0
  0
LINE
  5
7F
100
AcDbEntity
  8
0
 62
     7
100
AcDbLine
 10
102.366878
 20
200.819784
 30
0.0
 11
108.966303
 21
207.418864
 31
0.0
  0
LINE
  5
7E
100
AcDbEntity
  8
0
 62
     7
100
AcDbLine
 10
102.366878
 20
190.043353
 30
0.0
 11
109.890278
 21
197.566752
 31
0.0
  0
LINE
  5
7D
100
AcDbEntity
  8
0
 62
     7
100
AcDbLine
 10
109.890278
 20
197.566752
 30
0.0
 11
111.966637
 21
199.643283
 31
0.0
  0
LINE
  5
7C
100
AcDbEntity
  8
0
 62
     7
100
AcDbLine
 10
102.366878
 20
179.267094
 30
0.0
 11
111.966637
 21
188.867025
 31
0.0
  0
LINE
  5
7B
100
AcDbEntity
  8
0
 62
     7
100
AcDbLine
 10
105.422333
 20
171.546635
 30
0.0
 11
111.966637
 21
178.090938
 31
0.0
  0
LINE
  5
7A
100
AcDbEntity
  8
0
 62
     7
100
AcDbLine
 10
150.367049
 20
205.714575
 30
0.0
 11
152.071338
 21
207.418864
 31
0.0
  0
LINE
  5
79
100
AcDbEntity
  8
0
 62
     7
100
AcDbLine
 10
150.367049
 20
194.938144
 30
0.0
 11
159.966808
 21
204.538075
 31
0.0
  0
LINE
  5
78
100
AcDbEntity
  8
0
 62
     7
100
AcDbLine
 10
150.367049
 20
184.161886
 30
0.0
 11
159.966808
 21
193.761816
 31
0.0
  0
LINE
  5
77
100
AcDbEntity
  8
0
 62
     7
100
AcDbLine
 10
150.367049
 20
173.385455
 30
0.0
 11
159.966808
 21
182.985385
 31
0.0
  0
LINE
  5
76
100
AcDbEntity
  8
0
 62
     7
100
AcDbLine
 10
102.327949
 20
114.571129
 30
0.0
 11
104.198291
 21
116.440438
 31
0.0
  0
LINE
  5
75
100
AcDbEntity
  8
0
 62
     7
100
AcDbLine
 10
159.304316
 20
171.546635
 30
0.0
 11
159.966808
 21
172.209127
 31
0.0
  0
LINE
  5
74
100
AcDbEntity
  8
0
 62
     7
100
AcDbLine
 10
104.198291
 20
116.440438
 30
0.0
 11
111.304145
 21
123.546292
 31
0.0
  0
LINE
  5
73
100
AcDbEntity
  8
0
 62
     7
100
AcDbLine
 10
102.327949
 20
103.794181
 30
0.0
 11
111.928396
 21
113.394284
 31
0.0
  0
LINE
  5
72
100
AcDbEntity
  8
0
 62
     7
100
AcDbLine
 10
102.327949
 20
93.017923
 30
0.0
 11
111.928396
 21
102.618026
 31
0.0
  0
LINE
  5
71
100
AcDbEntity
  8
0
 62
     7
100
AcDbLine
 10
107.760864
 20
87.673891
 30
0.0
 11
111.928396
 21
91.841767
 31
0.0
  0
LINE
  5
70
100
AcDbEntity
  8
0
 62
     7
100
AcDbLine
 10
150.32812
 20
119.465921
 30
0.0
 11
154.409524
 21
123.546292
 31
0.0
  0
LINE
  5
6F
100
AcDbEntity
  8
0
 62
     7
100
AcDbLine
 10
150.32812
 20
108.688973
 30
0.0
 11
159.928223
 21
118.289076
 31
0.0
  0
LINE
  5
6E
100
AcDbEntity
  8
0
 62
     7
100
AcDbLine
 10
150.32812
 20
97.912714
 30
0.0
 11
159.928223
 21
107.512817
 31
0.0
  0
LINE
  5
6D
100
AcDbEntity
  8
0
 62
     7
100
AcDbLine
 10
150.865554
 20
87.673891
 30
0.0
 11
159.928223
 21
96.736559
 31
0.0
  0
LINE
  5
6C
100
AcDbEntity
  8
0
 62
     7
100
AcDbLine
 10
102.366878
 20
206.207741
 30
0.0
 11
103.578174
 21
207.418864
 31
0.0
  0
LINE
  5
6B
100
AcDbEntity
  8
0
 62
     7
100
AcDbLine
 10
102.992163
 20
196.056422
 30
0.0
 11
105.685883
 21
198.750659
 31
0.0
  0
LINE
  5
6A
100
AcDbEntity
  8
0
 62
     7
100
AcDbLine
 10
107.03326
 20
200.097519
 30
0.0
 11
109.72698
 21
202.791756
 31
0.0
  0
LINE
  5
69
100
AcDbEntity
  8
0
 62
     7
100
AcDbLine
 10
111.074357
 20
204.138616
 30
0.0
 11
111.966637
 21
205.031585
 31
0.0
  0
LINE
  5
68
100
AcDbEntity
  8
0
 62
     7
100
AcDbLine
 10
102.366878
 20
184.655396
 30
0.0
 11
102.992163
 21
185.280164
 31
0.0
  0
LINE
  5
67
100
AcDbEntity
  8
0
 62
     7
100
AcDbLine
 10
104.338851
 20
186.627024
 30
0.0
 11
107.03326
 21
189.321261
 31
0.0
  0
LINE
  5
66
100
AcDbEntity
  8
0
 62
     7
100
AcDbLine
 10
108.379948
 20
190.668121
 30
0.0
 11
111.074357
 21
193.362358
 31
0.0
  0
LINE
  5
65
100
AcDbEntity
  8
0
 62
     7
100
AcDbLine
 10
102.366878
 20
173.878965
 30
0.0
 11
104.338851
 21
175.850937
 31
0.0
  0
LINE
  5
64
100
AcDbEntity
  8
0
 62
     7
100
AcDbLine
 10
105.685883
 20
177.19797
 30
0.0
 11
108.379948
 21
179.892034
 31
0.0
  0
LINE
  5
63
100
AcDbEntity
  8
0
 62
     7
100
AcDbLine
 10
109.72698
 20
181.239067
 30
0.0
 11
111.966637
 21
183.478895
 31
0.0
  0
LINE
  5
62
100
AcDbEntity
  8
0
 62
     7
100
AcDbLine
 10
111.074357
 20
171.80984
 30
0.0
 11
111.966637
 21
172.702637
 31
0.0
  0
LINE
  5
61
100
AcDbEntity
  8
0
 62
     7
100
AcDbLine
 10
150.367049
 20
200.326446
 30
0.0
 11
151.485327
 21
201.444552
 31
0.0
  0
LINE
  5
60
100
AcDbEntity
  8
0
 62
     7
100
AcDbLine
 10
152.832359
 20
202.791756
 30
0.0
 11
155.526424
 21
205.485649
 31
0.0
  0
LINE
  5
5F
100
AcDbEntity
  8
0
 62
     7
100
AcDbLine
 10
156.873456
 20
206.832853
 30
0.0
 11
157.459467
 21
207.418864
 31
0.0
  0
LINE
  5
5E
100
AcDbEntity
  8
0
 62
     7
100
AcDbLine
 10
150.367049
 20
189.550187
 30
0.0
 11
152.832359
 21
192.015325
 31
0.0
  0
LINE
  5
5D
100
AcDbEntity
  8
0
 62
     7
100
AcDbLine
 10
154.179047
 20
193.362358
 30
0.0
 11
156.873456
 21
196.056422
 31
0.0
  0
LINE
  5
5C
100
AcDbEntity
  8
0
 62
     7
100
AcDbLine
 10
158.220144
 20
197.403455
 30
0.0
 11
159.966808
 21
199.150118
 31
0.0
  0
LINE
  5
5B
100
AcDbEntity
  8
0
 62
     7
100
AcDbLine
 10
151.485327
 20
179.892034
 30
0.0
 11
154.179047
 21
182.585927
 31
0.0
  0
LINE
  5
5A
100
AcDbEntity
  8
0
 62
     7
100
AcDbLine
 10
155.526424
 20
183.933131
 30
0.0
 11
158.220144
 21
186.627024
 31
0.0
  0
LINE
  5
59
100
AcDbEntity
  8
0
 62
     7
100
AcDbLine
 10
159.567521
 20
187.974228
 30
0.0
 11
159.966808
 21
188.373687
 31
0.0
  0
LINE
  5
58
100
AcDbEntity
  8
0
 62
     7
100
AcDbLine
 10
102.327949
 20
119.958569
 30
0.0
 11
102.992163
 21
120.622784
 31
0.0
  0
LINE
  5
57
100
AcDbEntity
  8
0
 62
     7
100
AcDbLine
 10
104.338851
 20
121.969127
 30
0.0
 11
105.916016
 21
123.546292
 31
0.0
  0
LINE
  5
56
100
AcDbEntity
  8
0
 62
     7
100
AcDbLine
 10
153.916187
 20
171.546635
 30
0.0
 11
155.526424
 21
173.156873
 31
0.0
  0
LINE
  5
55
100
AcDbEntity
  8
0
 62
     7
100
AcDbLine
 10
156.873456
 20
174.503733
 30
0.0
 11
159.567521
 21
177.19797
 31
0.0
  0
LINE
  5
54
100
AcDbEntity
  8
0
 62
     7
100
AcDbLine
 10
102.327949
 20
109.182311
 30
0.0
 11
104.338851
 21
111.193557
 31
0.0
  0
LINE
  5
53
100
AcDbEntity
  8
0
 62
     7
100
AcDbLine
 10
105.685883
 20
112.539901
 30
0.0
 11
108.379948
 21
115.234654
 31
0.0
  0
LINE
  5
52
100
AcDbEntity
  8
0
 62
     7
100
AcDbLine
 10
109.72698
 20
116.581687
 30
0.0
 11
111.928396
 21
118.782414
 31
0.0
  0
LINE
  5
51
100
AcDbEntity
  8
0
 62
     7
100
AcDbLine
 10
102.992163
 20
99.070266
 30
0.0
 11
105.685883
 21
101.763642
 31
0.0
  0
LINE
  5
50
100
AcDbEntity
  8
0
 62
     7
100
AcDbLine
 10
107.03326
 20
103.111363
 30
0.0
 11
109.72698
 21
105.804739
 31
0.0
  0
LINE
  5
4F
100
AcDbEntity
  8
0
 62
     7
100
AcDbLine
 10
111.074357
 20
107.15246
 30
0.0
 11
111.928396
 21
108.006155
 31
0.0
  0
LINE
  5
4E
100
AcDbEntity
  8
0
 62
     7
100
AcDbLine
 10
102.37239
 20
87.673891
 30
0.0
 11
102.992163
 21
88.293319
 31
0.0
  0
LINE
  5
4D
100
AcDbEntity
  8
0
 62
     7
100
AcDbLine
 10
104.338851
 20
89.640351
 30
0.0
 11
107.03326
 21
92.334416
 31
0.0
  0
LINE
  5
4C
100
AcDbEntity
  8
0
 62
     7
100
AcDbLine
 10
108.379948
 20
93.681448
 30
0.0
 11
111.074357
 21
96.375513
 31
0.0
  0
LINE
  5
4B
100
AcDbEntity
  8
0
 62
     7
100
AcDbLine
 10
151.485327
 20
115.234654
 30
0.0
 11
154.179047
 21
117.92803
 31
0.0
  0
LINE
  5
4A
100
AcDbEntity
  8
0
 62
     7
100
AcDbLine
 10
155.526424
 20
119.275751
 30
0.0
 11
158.220144
 21
121.969127
 31
0.0
  0
LINE
  5
49
100
AcDbEntity
  8
0
 62
     7
100
AcDbLine
 10
159.567521
 20
123.316848
 30
0.0
 11
159.797309
 21
123.546292
 31
0.0
  0
LINE
  5
48
100
AcDbEntity
  8
0
 62
     7
100
AcDbLine
 10
150.32812
 20
103.300844
 30
0.0
 11
151.485327
 21
104.457707
 31
0.0
  0
LINE
  5
47
100
AcDbEntity
  8
0
 62
     7
100
AcDbLine
 10
152.832359
 20
105.804739
 30
0.0
 11
155.526424
 21
108.498804
 31
0.0
  0
LINE
  5
46
100
AcDbEntity
  8
0
 62
     7
100
AcDbLine
 10
156.873456
 20
109.845836
 30
0.0
 11
159.567521
 21
112.539901
 31
0.0
  0
LINE
  5
45
100
AcDbEntity
  8
0
 62
     7
100
AcDbLine
 10
150.32812
 20
92.524585
 30
0.0
 11
152.832359
 21
95.029169
 31
0.0
  0
LINE
  5
44
100
AcDbEntity
  8
0
 62
     7
100
AcDbLine
 10
154.179047
 20
96.375513
 30
0.0
 11
156.873456
 21
99.070266
 31
0.0
  0
LINE
  5
43
100
AcDbEntity
  8
0
 62
     7
100
AcDbLine
 10
158.220144
 20
100.41661
 30
0.0
 11
159.928223
 21
102.124688
 31
0.0
  0
LINE
  5
42
100
AcDbEntity
  8
0
 62
     7
100
AcDbLine
 10
156.254028
 20
87.673891
 30
0.0
 11
158.220144
 21
89.640351
 31
0.0
  0
LINE
  5
41
100
AcDbEntity
  8
0
 62
     7
100
AcDbLine
 10
159.567521
 20
90.988072
 30
0.0
 11
159.928223
 21
91.348429
 31
0.0
  0
INSERT
  5
3B
100
AcDbEntity
  8
TEXT
 62
     7
100
AcDbBlockReference
  2
AI9-BLK4
 10
64.266792
 20
177.337496
 30
0.0
  0
INSERT
  5
36
100
AcDbEntity
  8
TEXT
 62
     7
100
AcDbBlockReference
  2
AI9-BLK3
 10
91.244818
 20
203.145309
 30
0.0
  0
INSERT
  5
31
100
AcDbEntity
  8
TEXT
 62
     7
100
AcDbBlockReference
  2
AI9-BLK2
 10
77.305531
 20
99.143647
 30
0.0
  0
INSERT
  5
2A
100
AcDbEntity
  8
TEXT
 62
     7
100
AcDbBlockReference
  2
AI9-BLK1
 10
49.377348
 20
144.233057
 30
0.0
  0
ENDSEC
  0
SECTION
  2
OBJECTS
  0
DICTIONARY
  5
19
100
AcDbDictionary
280
     0
281
     1
  3
ACAD_GROUP
350
1A
  3
ACAD_MLINESTYLE
350
1B
  3
ACAD_LAYOUT
350
1E
  3
ACAD_PLOTSETTINGS
350
22
  3
ACAD_PLOTSTYLENAME
350
1F
  3
ACAD_WIPEOUT_VARS
350
23
  0
DICTIONARY
  5
1A
102
{ACAD_REACTORS
330
19
102
}
100
AcDbDictionary
280
     0
281
     1
  0
DICTIONARY
  5
1B
102
{ACAD_REACTORS
330
19
102
}
100
AcDbDictionary
280
     0
281
     1
  3
Standard
350
1C
  0
MLINESTYLE
  5
1C
102
{ACAD_REACTORS
330
1B
102
}
100
AcDbMlineStyle
  2
Standard
 70
     0
  3

 62
     0
 51
90.0
 52
90.0
 71
     2
 49
0.5
 62
   256
  6
ByLayer
 49
-0.5
 62
   256
  6
ByLayer
  0
ACDBDICTIONARYWDFLT
  5
1F
102
{ACAD_REACTORS
330
19
102
}
100
AcDbDictionary
281
     1
  3
Normal
350
1D
100
AcDbDictionaryWithDefault
340
1D
  0
ACDBPLACEHOLDER
  5
1D
102
{ACAD_REACTORS
330
1F
102
}
  0
LAYOUT
  5
20
102
{ACAD_REACTORS
330
1E
102
}
100
AcDbPlotSettings
  1

  2

  4

  6

 40
0.0
 41
0.0
 42
0.0
 43
0.0
 44
0.0
 45
0.0
 46
0.0
 47
0.0
 48
0.0
 49
0.0
140
0.0
141
0.0
142
1.0
143
1.0
 70
  1024
 72
     0
 73
     0
 74
     0
  7

 75
     0
147
1.0
148
0.0
149
0.0
100
AcDbLayout
  1
Model
 70
     0
 71
     0
 10
0.0
 20
0.0
 11
0.0
 21
0.0
 12
0.0
 22
0.0
 32
0.0
 14
0.0
 24
0.0
 34
0.0
 15
0.0
 25
0.0
 35
0.0
146
0.0
 13
0.0
 23
0.0
 33
0.0
 16
0.0
 26
0.0
 36
0.0
 17
0.0
 27
0.0
 37
0.0
 76
     0
330
A
331
0
345
0
346
0
  0
LAYOUT
  5
21
102
{ACAD_REACTORS
330
1E
102
}
100
AcDbPlotSettings
  1

  2

  4

  6

 40
0.0
 41
0.0
 42
0.0
 43
0.0
 44
0.0
 45
0.0
 46
0.0
 47
0.0
 48
0.0
 49
0.0
140
0.0
141
0.0
142
1.0
143
1.0
 70
     0
 72
     0
 73
     0
 74
     0
  7

 75
     0
147
1.0
148
0.0
149
0.0
100
AcDbLayout
  1
Layout1
 70
     0
 71
     0
 10
0.0
 20
0.0
 11
0.0
 21
0.0
 12
0.0
 22
0.0
 32
0.0
 14
0.0
 24
0.0
 34
0.0
 15
0.0
 25
0.0
 35
0.0
146
0.0
 13
0.0
 23
0.0
 33
0.0
 16
0.0
 26
0.0
 36
0.0
 17
0.0
 27
0.0
 37
0.0
 76
     0
330
B
331
0
345
0
346
0
  0
DICTIONARY
  5
1E
102
{ACAD_REACTORS
330
19
102
}
100
AcDbDictionary
280
     0
281
     1
  3
Layout1
350
21
  3
Model
350
20
  0
DICTIONARY
  5
22
102
{ACAD_REACTORS
330
19
102
}
100
AcDbDictionary
280
     0
281
     1
  0
WIPEOUTVARIABLES
  5
23
100
AcDbWipeoutVariables
 70
     1
  0
ENDSEC
  0
EOF
