  0
SECTION
  2
HEADER
  9
$ACADVER
  1
AC1015
  9
$ACADMAINTVER
 70
     6
  9
$DWGCODEPAGE
  3
ANSI_932
  9
$INSBASE
 10
0.0
 20
0.0
 30
0.0
  9
$EXTMIN
 10
24.167862
 20
76.91279
 30
1.000000E+20
  9
$EXTMAX
 10
186.541241
 20
222.030031
 30
-1.000000E+20
  9
$LIMMIN
 10
24.167862
 20
76.91279
  9
$LIMMAX
 10
186.541241
 20
222.030031
  9
$ORTHOMODE
 70
     0
  9
$REGENMODE
 70
     1
  9
$FILLMODE
 70
     1
  9
$QTEXTMODE
 70
     0
  9
$MIRRTEXT
 70
     1
  9
$LTSCALE
 40
1.0
  9
$ATTMODE
 70
     1
  9
$TEXTSIZE
 40
0.2
  9
$TRACEWID
 40
0.05
  9
$TEXTSTYLE
  7
Standard
  9
$CLAYER
  8
0
  9
$CELTYPE
  6
Continuous
  9
$CECOLOR
 62
   256
  9
$CELTSCALE
 40
1.0
  9
$DISPSILH
 70
     0
  9
$DIMSCALE
 40
1.0
  9
$DIMASZ
 40
0.18
  9
$DIMEXO
 40
0.0625
  9
$DIMDLI
 40
0.38
  9
$DIMRND
 40
0.0
  9
$DIMDLE
 40
0.0
  9
$DIMEXE
 40
0.18
  9
$DIMTP
 40
0.0
  9
$DIMTM
 40
0.0
  9
$DIMTXT
 40
0.18
  9
$DIMCEN
 40
0.09
  9
$DIMTSZ
 40
0.0
  9
$DIMTOL
 70
     0
  9
$DIMLIM
 70
     0
  9
$DIMTIH
 70
     1
  9
$DIMTOH
 70
     1
  9
$DIMSE1
 70
     0
  9
$DIMSE2
 70
     0
  9
$DIMTAD
 70
     0
  9
$DIMZIN
 70
     0
  9
$DIMBLK
  1

  9
$DIMASO
 70
     1
  9
$DIMSHO
 70
     1
  9
$DIMPOST
  1

  9
$DIMAPOST
  1

  9
$DIMALT
 70
     0
  9
$DIMALTD
 70
     2
  9
$DIMALTF
 40
25.4
  9
$DIMLFAC
 40
1.0
  9
$DIMTOFL
 70
     0
  9
$DIMTVP
 40
0.0
  9
$DIMTIX
 70
     0
  9
$DIMSOXD
 70
     0
  9
$DIMSAH
 70
     0
  9
$DIMBLK1
  1

  9
$DIMBLK2
  1

  9
$DIMSTYLE
  2
Standard
  9
$DIMCLRD
 70
     0
  9
$DIMCLRE
 70
     0
  9
$DIMCLRT
 70
     0
  9
$DIMTFAC
 40
1.0
  9
$DIMGAP
 40
0.09
  9
$DIMJUST
 70
     0
  9
$DIMSD1
 70
     0
  9
$DIMSD2
 70
     0
  9
$DIMTOLJ
 70
     1
  9
$DIMTZIN
 70
     0
  9
$DIMALTZ
 70
     0
  9
$DIMALTTZ
 70
     0
  9
$DIMUPT
 70
     0
  9
$DIMDEC
 70
     4
  9
$DIMTDEC
 70
     4
  9
$DIMALTU
 70
     2
  9
$DIMALTTD
 70
     2
  9
$DIMTXSTY
  7
Standard
  9
$DIMAUNIT
 70
     0
  9
$DIMADEC
 70
     0
  9
$DIMALTRND
 40
0.0
  9
$DIMAZIN
 70
     0
  9
$DIMDSEP
 70
     0
  9
$DIMATFIT
 70
     3
  9
$DIMFRAC
 70
     0
  9
$DIMLDRBLK
  1

  9
$DIMLUNIT
 70
     2
  9
$DIMLWD
 70
     0
  9
$DIMLWE
 70
     0
  9
$DIMTMOVE
 70
     0
  9
$LUNITS
 70
     2
  9
$LUPREC
 70
     4
  9
$SKETCHINC
 40
0.1
  9
$FILLETRAD
 40
0.0
  9
$AUNITS
 70
     0
  9
$AUPREC
 70
     0
  9
$MENU
  1
acad
  9
$ELEVATION
 40
0.0
  9
$PELEVATION
 40
0.0
  9
$THICKNESS
 40
0.0
  9
$LIMCHECK
 70
     0
  9
$CHAMFERA
 40
0.0
  9
$CHAMFERB
 40
0.0
  9
$CHAMFERC
 40
0.0
  9
$CHAMFERD
 40
0.0
  9
$SKPOLY
 70
     0
  9
$TDCREATE
 40
0.000000000
  9
$TDUCREATE
 40
0.000000000
  9
$TDUPDATE
 40
0.000000000
  9
$TDUUPDATE
 40
0.000000000
  9
$TDINDWG
 40
0.0000000000
  9
$TDUSRTIMER
 40
0.0000000000
  9
$USRTIMER
 70
     1
  9
$ANGBASE
 50
0.0
  9
$ANGDIR
 70
     0
  9
$PDMODE
 70
     0
  9
$PDSIZE
 40
0.0
  9
$PLINEWID
 40
0.0
  9
$SPLFRAME
 70
     0
  9
$SPLINETYPE
 70
     6
  9
$SPLINESEGS
 70
     8
  9
$HANDSEED
  5
1AE
  9
$SURFTAB1
 70
     6
  9
$SURFTAB2
 70
     6
  9
$SURFTYPE
 70
     6
  9
$SURFU
 70
     6
  9
$SURFV
 70
     6
  9
$UCSBASE
  2

  9
$UCSNAME
  2

  9
$UCSORG
 10
0.0
 20
0.0
 30
0.0
  9
$UCSXDIR
 10
1.0
 20
0.0
 30
0.0
  9
$UCSYDIR
 10
0.0
 20
1.0
 30
0.0
  9
$UCSORTHOREF
  2

  9
$UCSORTHOVIEW
 70
     0
  9
$UCSORGTOP
 10
0.0
 20
0.0
 30
0.0
  9
$UCSORGBOTTOM
 10
0.0
 20
0.0
 30
0.0
  9
$UCSORGLEFT
 10
0.0
 20
0.0
 30
0.0
  9
$UCSORGRIGHT
 10
0.0
 20
0.0
 30
0.0
  9
$UCSORGFRONT
 10
0.0
 20
0.0
 30
0.0
  9
$UCSORGBACK
 10
0.0
 20
0.0
 30
0.0
  9
$PUCSBASE
  2

  9
$PUCSNAME
  2

  9
$PUCSORG
 10
0.0
 20
0.0
 30
0.0
  9
$PUCSXDIR
 10
1.0
 20
0.0
 30
0.0
  9
$PUCSYDIR
 10
0.0
 20
1.0
 30
0.0
  9
$PUCSORTHOREF
  2

  9
$PUCSORTHOVIEW
 70
     0
  9
$PUCSORGTOP
 10
0.0
 20
0.0
 30
0.0
  9
$PUCSORGBOTTOM
 10
0.0
 20
0.0
 30
0.0
  9
$PUCSORGLEFT
 10
0.0
 20
0.0
 30
0.0
  9
$PUCSORGRIGHT
 10
0.0
 20
0.0
 30
0.0
  9
$PUCSORGFRONT
 10
0.0
 20
0.0
 30
0.0
  9
$PUCSORGBACK
 10
0.0
 20
0.0
 30
0.0
  9
$USERI1
 70
     0
  9
$USERI2
 70
     0
  9
$USERI3
 70
     0
  9
$USERI4
 70
     0
  9
$USERI5
 70
     0
  9
$USERR1
 40
0.0
  9
$USERR2
 40
0.0
  9
$USERR3
 40
0.0
  9
$USERR4
 40
0.0
  9
$USERR5
 40
0.0
  9
$WORLDVIEW
 70
     1
  9
$SHADEDGE
 70
     3
  9
$SHADEDIF
 70
    70
  9
$TILEMODE
 70
     1
  9
$MAXACTVP
 70
    16
  9
$PINSBASE
 10
0.0
 20
0.0
 30
0.0
  9
$PLIMCHECK
 70
     0
  9
$PEXTMIN
 10
1.000000E+20
 20
1.000000E+20
 30
1.000000E+20
  9
$PEXTMAX
 10
-1.000000E+20
 20
-1.000000E+20
 30
-1.000000E+20
  9
$PLIMMIN
 10
0.0
 20
0.0
  9
$PLIMMAX
 10
12.0
 20
9.0
  9
$UNITMODE
 70
     0
  9
$VISRETAIN
 70
     0
  9
$PLINEGEN
 70
     1
  9
$PSLTSCALE
 70
     0
  9
$TREEDEPTH
 70
  3020
  9
$CMLSTYLE
  2
Standard
  9
$CMLJUST
 70
     0
  9
$CMLSCALE
 40
1.0
  9
$PROXYGRAPHICS
 70
     0
  9
$MEASUREMENT
 70
     1
  9
$CELWEIGHT
370
     0
  9
$ENDCAPS
280
     0
  9
$JOINSTYLE
280
     0
  9
$LWDISPLAY
290
     0
  9
$INSUNITS
 70
     0
  9
$HYPERLINKBASE
  1

  9
$STYLESHEET
  1

  9
$XEDIT
290
     1
  9
$CEPSNTYPE
380
     0
  9
$PSTYLEMODE
290
     1
  9
$FINGERPRINTGUID
  2

  9
$VERSIONGUID
  2

  9
$EXTNAMES
290
     1
  9
$PSVPSCALE
 40
0.0
  0
ENDSEC
  0
SECTION
  2
CLASSES
  0
CLASS
  1
LWPOLYLINE
  2
AcDbPolyline
  3
AutoCAD 2000
 90
    32768
280
     0
281
     1
  0
CLASS
  1
IMAGE
  2
AcDbRasterImage
  3
ISM
 90
    32895
280
     0
281
     1
  0
CLASS
  1
OLE2FRAME
  2
AcDbOle2Frame
  3
AutoCAD 2000
 90
    32768
280
     0
281
     1
  0
CLASS
  1
HATCH
  2
AcDbHatch
  3
AutoCAD 2000
 90
        0
280
     0
281
     1
  0
CLASS
  1
DICTIONARYVAR
  2
AcDbDictionaryVar
  3
AutoCAD 2000
 90
    32768
280
     0
281
     0
  0
CLASS
  1
RASTERVARIABLES
  2
AcDbRasterVariables
  3
ISM
 90
    32768
280
     0
281
     0
  0
CLASS
  1
IMAGEDEF
  2
AcDbRasterImageDef
  3
ISM
 90
    32768
280
     0
281
     0
  0
CLASS
  1
IMAGEDEF_REACTOR
  2
AcDbRasterImageDefReactor
  3
ISM
 90
    32769
280
     0
281
     0
  0
CLASS
  1
IDBUFFER
  2
AcDbIdBuffer
  3
AutoCAD 2000
 90
    32768
280
     0
281
     0
  0
CLASS
  1
SPATIAL_FILTER
  2
AcDbSpatialFilter
  3
AutoCAD 2000
 90
    32768
280
     0
281
     0
  0
CLASS
  1
XRECORD
  2
AcDbXrecord
  3
AutoCAD 2000
 90
    32768
280
     0
281
     0
  0
CLASS
  1
SORTENTSTABLE
  2
AcDbSortentsTable
  3
AutoCAD 2000
 90
    32768
280
     0
281
     0
  0
CLASS
  1
LAYER_INDEX
  2
AcDbLayerIndex
  3
AutoCAD 2000
 90
    32768
280
     0
281
     0
  0
CLASS
  1
SPATIAL_INDEX
  2
AcDbSpatialIndex
  3
AutoCAD 2000
 90
    32768
280
     0
281
     0
  0
CLASS
  1
OBJECT_PTR
  2
CAseDLPNTableRecord
  3
"ASE-LPNTableRecord"
 90
    32769
280
     0
281
     0
  0
CLASS
  1
LAYOUT
  2
AcDbLayout
  3
AutoCAD 2000
 90
        0
280
     0
281
     0
  0
CLASS
  1
PLOTSETTINGS
  2
AcDbPlotSettings
  3
AutoCAD 2000
 90
    32768
280
     0
281
     0
  0
CLASS
  1
ACDBDICTIONARYWDFLT
  2
AcDbDictionaryWithDefault
  3
AutoCAD 2000
 90
        0
280
     0
281
     0
  0
CLASS
  1
ACDBPLACEHOLDER
  2
AcDbPlaceHolder
  3
AutoCAD 2000
 90
        0
280
     0
281
     0
  0
CLASS
  1
VBA_PROJECT
  2
AcDbVbaProject
  3
acadvba
 90
    32768
280
     0
281
     0
  0
CLASS
  1
WIPEOUT
  2
AcDbWipeout
  3
WipeOut|AutoCAD Express Tool|expresstools@autodesk.com
 90
    32895
280
     0
281
     1
  0
CLASS
  1
WIPEOUTVARIABLES
  2
AcDbWipeoutVariables
  3
WipeOut|AutoCAD Express Tool|expresstools@autodesk.com
 90
        0
280
     0
281
     0
  0
CLASS
  1
RTEXT
  2
RText
  3
RText|AutoCAD Express Tool|expresstools@autodesk.com
 90
    32768
280
     0
281
     1
  0
CLASS
  1
ARCALIGNEDTEXT
  2
AcDbArcAlignedText
  3
ATEXT|AutoCAD Express Tool|expresstools@autodesk.com
 90
    32768
280
     0
281
     1
  0
ENDSEC
  0
SECTION
  2
TABLES
  0
TABLE
  2
VPORT
  5
7
100
AcDbSymbolTable
 70
     1
  0
VPORT
  5
15
100
AcDbSymbolTableRecord
100
AcDbViewportTableRecord
  2
*ACTIVE
 70
     0
 10
0.0
 20
0.0
 11
1.0
 21
1.0
 12
6.591288
 22
4.579184
 13
0.0
 23
0.0
 14
1.0
 24
1.0
 15
0.0
 25
0.0
 16
0.0
 26
0.0
 36
1.0
 17
0.0
 27
0.0
 37
0.0
 40
9.158369
 41
0.688564
 42
50.0
 43
0.0
 44
0.0
 50
0.0
 51
0.0
 71
     0
 72
   100
 73
     1
 74
     1
 75
     0
 76
     0
 77
     0
 78
     0
281
     0
 65
     0
110
0.0
120
0.0
130
0.0
111
1.0
121
0.0
131
0.0
112
0.0
122
1.0
132
0.0
345
0
346
0
 79
     0
146
0.0
  0
ENDTAB
  0
TABLE
  2
LTYPE
  5
4
100
AcDbSymbolTable
 70
     5
  0
LTYPE
  5
11
100
AcDbSymbolTableRecord
100
AcDbLinetypeTableRecord
  2
ByBlock
 70
    64
  3

 72
    65
 73
     0
 40
0.0
  0
LTYPE
  5
12
100
AcDbSymbolTableRecord
100
AcDbLinetypeTableRecord
  2
ByLayer
 70
    64
  3

 72
    65
 73
     0
 40
0.0
  0
LTYPE
  5
13
100
AcDbSymbolTableRecord
100
AcDbLinetypeTableRecord
  2
Continuous
 70
    64
  3
Solid line
 72
    65
 73
     0
 40
0.0
  0
LTYPE
  5
82
100
AcDbSymbolTableRecord
100
AcDbLinetypeTableRecord
  2
AI9-LType1
 70
    64
  3
Illustrator Dash Style No.1
 72
    65
 73
     4
 40
14.816667
 49
8.466667
 74
     0
 49
-2.822222
 74
     0
 49
0.705556
 74
     0
 49
-2.822222
 74
     0
  0
LTYPE
  5
103
100
AcDbSymbolTableRecord
100
AcDbLinetypeTableRecord
  2
AI9-LType2
 70
    64
  3
Illustrator Dash Style No.2
 72
    65
 73
     6
 40
17.638889
 49
8.466667
 74
     0
 49
-2.822222
 74
     0
 49
0.705556
 74
     0
 49
-2.116667
 74
     0
 49
0.705556
 74
     0
 49
-2.822222
 74
     0
  0
ENDTAB
  0
TABLE
  2
LAYER
  5
2
100
AcDbSymbolTable
 70
    14
  0
LAYER
  5
14
100
AcDbSymbolTableRecord
100
AcDbLayerTableRecord
  2
0
 70
     0
 62
     7
  6
Continuous
290
     1
370
    -3
390
1D
  0
LAYER
  5
28
100
AcDbSymbolTableRecord
100
AcDbLayerTableRecord
  2
RAHMEN
 70
     0
 62
     3
  6
Continuous
290
     1
370
    -3
390
1D
  0
LAYER
  5
36
100
AcDbSymbolTableRecord
100
AcDbLayerTableRecord
  2
TEXT
 70
     0
 62
     1
  6
Continuous
290
     1
370
    -3
390
1D
  0
LAYER
  5
3E
100
AcDbSymbolTableRecord
100
AcDbLayerTableRecord
  2
TEXTSTRICH
 70
     0
 62
     5
  6
Continuous
290
     1
370
    -3
390
1D
  0
LAYER
  5
41
100
AcDbSymbolTableRecord
100
AcDbLayerTableRecord
  2
AM_0
 70
     0
 62
   160
  6
Continuous
290
     1
370
    -3
390
1D
  0
LAYER
  5
77
100
AcDbSymbolTableRecord
100
AcDbLayerTableRecord
  2
AM_8
 70
     0
 62
     7
  6
Continuous
290
     1
370
    -3
390
1D
  0
LAYER
  5
7A
100
AcDbSymbolTableRecord
100
AcDbLayerTableRecord
  2
OBJEKT
 70
     0
 62
   253
  6
Continuous
290
     1
370
    -3
390
1D
  0
LAYER
  5
7F
100
AcDbSymbolTableRecord
100
AcDbLayerTableRecord
  2
MITTELLINIE
 70
     0
 62
     4
  6
Continuous
290
     1
370
    -3
390
1D
  0
LAYER
  5
84
100
AcDbSymbolTableRecord
100
AcDbLayerTableRecord
  2
EBENE_13
 70
     0
 62
     4
  6
Continuous
290
     1
370
    -3
390
1D
  0
LAYER
  5
C9
100
AcDbSymbolTableRecord
100
AcDbLayerTableRecord
  2
SCHRAFFUR
 70
     0
 62
     6
  6
Continuous
290
     1
370
    -3
390
1D
  0
LAYER
  5
FD
100
AcDbSymbolTableRecord
100
AcDbLayerTableRecord
  2
EBENE_1
 70
     0
 62
     2
  6
Continuous
290
     1
370
    -3
390
1D
  0
LAYER
  5
102
100
AcDbSymbolTableRecord
100
AcDbLayerTableRecord
  2
GETRENNT
 70
     0
 62
     3
  6
Continuous
290
     1
370
    -3
390
1D
  0
LAYER
  5
106
100
AcDbSymbolTableRecord
100
AcDbLayerTableRecord
  2
RIOHR
 70
     0
 62
     1
  6
Continuous
290
     1
370
    -3
390
1D
  0
LAYER
  5
189
100
AcDbSymbolTableRecord
100
AcDbLayerTableRecord
  2
SCHRAUBE
 70
     0
 62
   160
  6
Continuous
290
     1
370
    -3
390
1D
  0
ENDTAB
  0
TABLE
  2
STYLE
  5
3
100
AcDbSymbolTable
 70
     5
  0
STYLE
  5
17
100
AcDbSymbolTableRecord
100
AcDbTextStyleTableRecord
  2
Standard
 70
     0
 40
0.0
 41
1.0
 50
0.0
 71
     0
 42
0.0
  3
txt
  4

  0
STYLE
  5
24
100
AcDbSymbolTableRecord
100
AcDbTextStyleTableRecord
  2
STD
 70
     0
 40
0.0
 41
1.0
 50
0.0
 71
     0
 42
0.0
  3
txt
  4

  0
STYLE
  5
25
100
AcDbSymbolTableRecord
100
AcDbTextStyleTableRecord
  2
TATESTD
 70
     4
 40
0.0
 41
1.0
 50
0.0
 71
     0
 42
0.0
  3
txt
  4

  0
STYLE
  5
26
100
AcDbSymbolTableRecord
100
AcDbTextStyleTableRecord
  2
KANJISTD
 70
     0
 40
0.0
 41
1.0
 50
0.0
 71
     0
 42
0.0
  3
txt
  4
extfont
  0
STYLE
  5
27
100
AcDbSymbolTableRecord
100
AcDbTextStyleTableRecord
  2
KANJITATE
 70
     4
 40
0.0
 41
1.0
 50
0.0
 71
     0
 42
0.0
  3
txt
  4
extfont
  0
ENDTAB
  0
TABLE
  2
VIEW
  5
5
100
AcDbSymbolTable
 70
     0
  0
ENDTAB
  0
TABLE
  2
UCS
  5
6
100
AcDbSymbolTable
 70
     0
  0
ENDTAB
  0
TABLE
  2
APPID
  5
8
100
AcDbSymbolTable
 70
     1
  0
APPID
  5
16
100
AcDbSymbolTableRecord
100
AcDbRegAppTableRecord
  2
ACAD
 70
     0
  0
ENDTAB
  0
TABLE
  2
DIMSTYLE
  5
9
100
AcDbSymbolTable
 70
     1
100
AcDbDimStyleTable
 71
     0
  0
DIMSTYLE
105
18
100
AcDbSymbolTableRecord
100
AcDbDimStyleTableRecord
  2
Standard
 70
     0
  3

  4

 40
1.0
 41
0.18
 42
0.0625
 43
0.38
 44
0.18
 45
0.0
 46
0.0
 47
0.0
 48
0.0
 71
     0
 72
     0
 73
     1
 74
     1
 75
     0
 76
     0
 77
     0
 78
     0
 79
     0
140
0.18
141
0.09
142
0.0
143
25.4
144
1.0
145
0.0
146
1.0
147
0.09
148
0.0
170
     0
171
     2
172
     0
173
     0
174
     0
175
     0
176
     0
177
     0
178
     0
179
     0
271
     4
272
     4
273
     2
274
     2
275
     0
276
     0
277
     2
278
    46
279
     0
280
     0
281
     0
282
     0
283
     1
284
     0
285
     0
286
     0
288
     0
340
17
341
0
342
0
343
0
344
0
371
    -2
372
    -2
  0
ENDTAB
  0
TABLE
  2
BLOCK_RECORD
  5
1
100
AcDbSymbolTable
 70
     4
  0
BLOCK_RECORD
  5
A
100
AcDbSymbolTableRecord
100
AcDbBlockTableRecord
  2
*MODEL_SPACE
340
20
  0
BLOCK_RECORD
  5
B
100
AcDbSymbolTableRecord
100
AcDbBlockTableRecord
  2
*PAPER_SPACE
340
21
  0
BLOCK_RECORD
  5
37
100
AcDbSymbolTableRecord
100
AcDbBlockTableRecord
  2
AI9-BLK1
340
0
102
{BLKREFS
331
38
102
}
  0
BLOCK_RECORD
  5
72
100
AcDbSymbolTableRecord
100
AcDbBlockTableRecord
  2
AI9-BLK2
340
0
102
{BLKREFS
331
73
102
}
  0
BLOCK_RECORD
  5
107
100
AcDbSymbolTableRecord
100
AcDbBlockTableRecord
  2
AI9-BLK3
340
0
102
{BLKREFS
331
108
102
}
  0
BLOCK_RECORD
  5
148
100
AcDbSymbolTableRecord
100
AcDbBlockTableRecord
  2
AI9-BLK4
340
0
102
{BLKREFS
331
149
102
}
  0
ENDTAB
  0
ENDSEC
  0
SECTION
  2
BLOCKS
  0
BLOCK
  5
D
100
AcDbEntity
  8
0
100
AcDbBlockBegin
  2
*MODEL_SPACE
 70
     0
 10
0.0
 20
0.0
 30
0.0
  3
*MODEL_SPACE
  1

  0
ENDBLK
  5
E
100
AcDbEntity
  8
0
100
AcDbBlockEnd
  0
BLOCK
  5
F
100
AcDbEntity
 67
     1
  8
0
100
AcDbBlockBegin
  2
*PAPER_SPACE
 70
     0
 10
0.0
 20
0.0
 30
0.0
  3
*PAPER_SPACE
  1

  0
ENDBLK
  5
10
100
AcDbEntity
 67
     1
  8
0
100
AcDbBlockEnd
  0
BLOCK
  5
39
100
AcDbEntity
  8
TEXT
 62
     7
100
AcDbBlockBegin
  2
AI9-BLK1
 70
     0
 10
0.0
 20
0.0
 30
0.0
  3
AI9-BLK1
  1

  0
MTEXT
  5
3C
100
AcDbEntity
  8
TEXT
 62
     7
100
AcDbMText
 10
-16.35249
 20
-3.617351
 30
0.0
 40
5.512152
 41
0.0
 71
     1
 72
     2
  1
\fArial|b0|i0;\H5.5122;\C7;\U+0033\U+0030
  7
STD
210
0.0
220
0.0
230
1.0
 73
     1
 44
1.0
  0
MTEXT
  5
3B
100
AcDbEntity
  8
TEXT
 62
     7
100
AcDbMText
 10
-16.35249
 20
3.790983
 30
0.0
 40
5.512152
 41
0.0
 71
     1
 72
     2
  1
\fArial|b0|i0;\H5.5122;\C7;\U+0053\U+0074\U+0061\U+006E\U+0064\U+0061\U+0072\U+0064\U+0020
  7
STD
210
0.0
220
0.0
230
1.0
 73
     1
 44
1.0
  0
MTEXT
  5
3A
100
AcDbEntity
  8
TEXT
 62
     7
100
AcDbMText
 10
-16.35249
 20
11.199316
 30
0.0
 40
5.512152
 41
0.0
 71
     1
 72
     2
  1
\fArial|b0|i0;\H5.5122;\C7;\U+0046\U+0048\U+0052\U+004B\U+002D
  7
STD
210
0.0
220
0.0
230
1.0
 73
     1
 44
1.0
  0
ENDBLK
  5
3D
100
AcDbEntity
  8
TEXT
100
AcDbBlockEnd
  0
BLOCK
  5
74
100
AcDbEntity
  8
AM_0
 62
     7
100
AcDbBlockBegin
  2
AI9-BLK2
 70
     0
 10
0.0
 20
0.0
 30
0.0
  3
AI9-BLK2
  1

  0
MTEXT
  5
75
100
AcDbEntity
  8
AM_0
 62
     7
100
AcDbMText
 10
-31.120495
 20
4.920371
 30
0.0
 40
5.512152
 41
0.0
 71
     1
 72
     2
  1
\fArial|b0|i0;\H5.5122;\C7;\U+0046\U+0075\U+0074\U+0074\U+0065\U+0072\U+0072\U+006F\U+0068\U+0072
  7
STD
210
0.0
220
0.0
230
1.0
 73
     1
 44
1.0
  0
ENDBLK
  5
76
100
AcDbEntity
  8
AM_0
100
AcDbBlockEnd
  0
BLOCK
  5
109
100
AcDbEntity
  8
RIOHR
  6
AI9-LType2
 62
     7
100
AcDbBlockBegin
  2
AI9-BLK3
 70
     0
 10
0.0
 20
0.0
 30
0.0
  3
AI9-BLK3
  1

  0
LINE
  5
146
100
AcDbEntity
  8
RIOHR
 62
     7
100
AcDbLine
 10
0.946023
 20
-0.579723
 30
0.0
 11
1.78387
 21
0.258124
 31
0.0
  0
LINE
  5
145
100
AcDbEntity
  8
RIOHR
 62
     7
100
AcDbLine
 10
0.967383
 20
-0.071227
 30
0.0
 11
1.834858
 21
0.79642
 31
0.0
  0
LINE
  5
144
100
AcDbEntity
  8
RIOHR
 62
     7
100
AcDbLine
 10
-1.620573
 20
-0.222639
 30
0.0
 11
-0.915362
 21
0.482916
 31
0.0
  0
LINE
  5
143
100
AcDbEntity
  8
RIOHR
 62
     7
100
AcDbLine
 10
0.341064
 20
-6.057425
 30
0.0
 11
0.604614
 21
-5.793875
 31
0.0
  0
LINE
  5
142
100
AcDbEntity
  8
RIOHR
 62
     7
100
AcDbLine
 10
-0.181901
 20
-6.580391
 30
0.0
 11
-0.12299
 21
-6.52148
 31
0.0
  0
LINE
  5
141
100
AcDbEntity
  8
RIOHR
 62
     7
100
AcDbLine
 10
-0.285943
 20
-6.196952
 30
0.0
 11
-0.199471
 21
-6.110824
 31
0.0
  0
LINE
  5
140
100
AcDbEntity
  8
RIOHR
 62
     7
100
AcDbLine
 10
0.114033
 20
-7.259075
 30
0.0
 11
0.159163
 21
-7.213944
 31
0.0
  0
LINE
  5
13F
100
AcDbEntity
  8
RIOHR
 62
     7
100
AcDbLine
 10
0.031006
 20
-7.341757
 30
0.0
 11
0.039274
 21
-7.333489
 31
0.0
  0
LINE
  5
13E
100
AcDbEntity
  8
RIOHR
 62
     7
100
AcDbLine
 10
0.232544
 20
-6.652738
 30
0.0
 11
0.394119
 21
-6.491507
 31
0.0
  0
LINE
  5
13D
100
AcDbEntity
  8
RIOHR
 62
     7
100
AcDbLine
 10
-0.076137
 20
-6.961763
 30
0.0
 11
-0.043408
 21
-6.929379
 31
0.0
  0
LINE
  5
13C
100
AcDbEntity
  8
RIOHR
 62
     7
100
AcDbLine
 10
0.74104
 20
-3.220906
 30
0.0
 11
1.368736
 21
-2.593037
 31
0.0
  0
LINE
  5
13B
100
AcDbEntity
  8
RIOHR
 62
     7
100
AcDbLine
 10
-1.055233
 20
-3.068288
 30
0.0
 11
-0.68833
 21
-2.701558
 31
0.0
  0
LINE
  5
13A
100
AcDbEntity
  8
RIOHR
 62
     7
100
AcDbLine
 10
-0.488859
 20
-5.425595
 30
0.0
 11
-0.342787
 21
-5.279178
 31
0.0
  0
LINE
  5
139
100
AcDbEntity
  8
RIOHR
 62
     7
100
AcDbLine
 10
-0.587733
 20
-5.036988
 30
0.0
 11
-0.409277
 21
-4.858532
 31
0.0
  0
LINE
  5
138
100
AcDbEntity
  8
RIOHR
 62
     7
100
AcDbLine
 10
-0.684885
 20
-4.646659
 30
0.0
 11
-0.472323
 21
-4.434269
 31
0.0
  0
LINE
  5
137
100
AcDbEntity
  8
RIOHR
 62
     7
100
AcDbLine
 10
-0.77997
 20
-4.254779
 30
0.0
 11
-0.531923
 21
-4.006732
 31
0.0
  0
LINE
  5
136
100
AcDbEntity
  8
RIOHR
 62
     7
100
AcDbLine
 10
-0.873332
 20
-3.861005
 30
0.0
 11
-0.587733
 21
-3.575406
 31
0.0
  0
LINE
  5
135
100
AcDbEntity
  8
RIOHR
 62
     7
100
AcDbLine
 10
-0.965316
 20
-3.46568
 30
0.0
 11
-0.639754
 21
-3.140291
 31
0.0
  0
LINE
  5
134
100
AcDbEntity
  8
RIOHR
 62
     7
100
AcDbLine
 10
-0.388262
 20
-5.812134
 30
0.0
 11
-0.272852
 21
-5.696379
 31
0.0
  0
LINE
  5
133
100
AcDbEntity
  8
RIOHR
 62
     7
100
AcDbLine
 10
0.527444
 20
-4.896428
 30
0.0
 11
0.962215
 21
-4.461657
 31
0.0
  0
LINE
  5
132
100
AcDbEntity
  8
RIOHR
 62
     7
100
AcDbLine
 10
0.678339
 20
-3.77126
 30
0.0
 11
1.248503
 21
-3.200752
 31
0.0
  0
LINE
  5
131
100
AcDbEntity
  8
RIOHR
 62
     7
100
AcDbLine
 10
0.438561
 20
-5.472104
 30
0.0
 11
0.793061
 21
-5.117948
 31
0.0
  0
LINE
  5
130
100
AcDbEntity
  8
RIOHR
 62
     7
100
AcDbLine
 10
0.607026
 20
-4.329365
 30
0.0
 11
1.113455
 21
-3.823281
 31
0.0
  0
LINE
  5
12F
100
AcDbEntity
  8
RIOHR
 62
     7
100
AcDbLine
 10
-1.143083
 20
-2.669002
 30
0.0
 11
-0.733461
 21
-2.259035
 31
0.0
  0
LINE
  5
12E
100
AcDbEntity
  8
RIOHR
 62
     7
100
AcDbLine
 10
-1.229555
 20
-2.267992
 30
0.0
 11
-0.774113
 21
-1.812551
 31
0.0
  0
LINE
  5
12D
100
AcDbEntity
  8
RIOHR
 62
     7
100
AcDbLine
 10
-1.313615
 20
-1.864916
 30
0.0
 11
-0.810975
 21
-1.361932
 31
0.0
  0
LINE
  5
12C
100
AcDbEntity
  8
RIOHR
 62
     7
100
AcDbLine
 10
-1.551326
 20
-0.640702
 30
0.0
 11
-0.895725
 21
0.015072
 31
0.0
  0
LINE
  5
12B
100
AcDbEntity
  8
RIOHR
 62
     7
100
AcDbLine
 10
-1.476568
 20
-1.05308
 30
0.0
 11
-0.871265
 21
-0.448293
 31
0.0
  0
LINE
  5
12A
100
AcDbEntity
  8
RIOHR
 62
     7
100
AcDbLine
 10
-1.394919
 20
-1.466491
 30
0.0
 11
-0.843015
 21
-0.914414
 31
0.0
  0
LINE
  5
129
100
AcDbEntity
  8
RIOHR
 62
     7
100
AcDbLine
 10
0.796162
 20
-2.678648
 30
0.0
 11
1.475879
 21
-1.999275
 31
0.0
  0
LINE
  5
128
100
AcDbEntity
  8
RIOHR
 62
     7
100
AcDbLine
 10
0.843704
 20
-2.143452
 30
0.0
 11
1.569241
 21
-1.417915
 31
0.0
  0
LINE
  5
127
100
AcDbEntity
  8
RIOHR
 62
     7
100
AcDbLine
 10
0.918807
 20
-1.094421
 30
0.0
 11
1.722892
 21
-0.290163
 31
0.0
  0
LINE
  5
126
100
AcDbEntity
  8
RIOHR
 62
     7
100
AcDbLine
 10
0.884701
 20
-1.615664
 30
0.0
 11
1.651923
 21
-0.848441
 31
0.0
  0
LINE
  5
125
100
AcDbEntity
  8
RIOHR
 62
     7
100
AcDbLine
 10
0.637687
 20
5.933574
 30
0.0
 11
1.419035
 21
6.715094
 31
0.0
  0
LINE
  5
124
100
AcDbEntity
  8
RIOHR
 62
     7
100
AcDbLine
 10
0.797884
 20
5.606462
 30
0.0
 11
1.629186
 21
6.438108
 31
0.0
  0
LINE
  5
123
100
AcDbEntity
  8
RIOHR
 62
     7
100
AcDbLine
 10
0.842326
 20
5.163595
 30
0.0
 11
1.792139
 21
6.113408
 31
0.0
  0
LINE
  5
122
100
AcDbEntity
  8
RIOHR
 62
     7
100
AcDbLine
 10
-1.887912
 20
5.844691
 30
0.0
 11
-0.436149
 21
7.296282
 31
0.0
  0
LINE
  5
121
100
AcDbEntity
  8
RIOHR
 62
     7
100
AcDbLine
 10
-1.940622
 20
5.304327
 30
0.0
 11
0.096463
 21
7.341757
 31
0.0
  0
LINE
  5
120
100
AcDbEntity
  8
RIOHR
 62
     7
100
AcDbLine
 10
-1.95647
 20
4.800999
 30
0.0
 11
0.515042
 21
7.272683
 31
0.0
  0
LINE
  5
11F
100
AcDbEntity
  8
RIOHR
 62
     7
100
AcDbLine
 10
0.973928
 20
2.859343
 30
0.0
 11
1.963704
 21
3.848947
 31
0.0
  0
LINE
  5
11E
100
AcDbEntity
  8
RIOHR
 62
     7
100
AcDbLine
 10
0.986331
 20
2.384092
 30
0.0
 11
1.961637
 21
3.359226
 31
0.0
  0
LINE
  5
11D
100
AcDbEntity
  8
RIOHR
 62
     7
100
AcDbLine
 10
-1.934766
 20
2.873813
 30
0.0
 11
-0.914673
 21
3.894078
 31
0.0
  0
LINE
  5
11C
100
AcDbEntity
  8
RIOHR
 62
     7
100
AcDbLine
 10
-1.909961
 20
2.411481
 30
0.0
 11
-0.930176
 21
3.391094
 31
0.0
  0
LINE
  5
11B
100
AcDbEntity
  8
RIOHR
 62
     7
100
AcDbLine
 10
-1.877922
 20
1.956211
 30
0.0
 11
-0.940511
 21
2.89345
 31
0.0
  0
LINE
  5
11A
100
AcDbEntity
  8
RIOHR
 62
     7
100
AcDbLine
 10
-1.839336
 20
1.508004
 30
0.0
 11
-0.945679
 21
2.401145
 31
0.0
  0
LINE
  5
119
100
AcDbEntity
  8
RIOHR
 62
     7
100
AcDbLine
 10
-1.793861
 20
1.066171
 30
0.0
 11
-0.945334
 21
1.914353
 31
0.0
  0
LINE
  5
118
100
AcDbEntity
  8
RIOHR
 62
     7
100
AcDbLine
 10
-1.742185
 20
0.630539
 30
0.0
 11
-0.940167
 21
1.432212
 31
0.0
  0
LINE
  5
117
100
AcDbEntity
  8
RIOHR
 62
     7
100
AcDbLine
 10
-1.684307
 20
0.201107
 30
0.0
 11
-0.929831
 21
0.955239
 31
0.0
  0
LINE
  5
116
100
AcDbEntity
  8
RIOHR
 62
     7
100
AcDbLine
 10
0.993221
 20
1.903846
 30
0.0
 11
1.951647
 21
2.862444
 31
0.0
  0
LINE
  5
115
100
AcDbEntity
  8
RIOHR
 62
     7
100
AcDbLine
 10
0.995288
 20
1.41826
 30
0.0
 11
1.934766
 21
2.358082
 31
0.0
  0
LINE
  5
114
100
AcDbEntity
  8
RIOHR
 62
     7
100
AcDbLine
 10
0.991498
 20
0.927678
 30
0.0
 11
1.909961
 21
1.845968
 31
0.0
  0
LINE
  5
113
100
AcDbEntity
  8
RIOHR
 62
     7
100
AcDbLine
 10
0.982197
 20
0.431068
 30
0.0
 11
1.876888
 21
1.325587
 31
0.0
  0
LINE
  5
112
100
AcDbEntity
  8
RIOHR
 62
     7
100
AcDbLine
 10
-1.963704
 20
4.3068
 30
0.0
 11
-0.833024
 21
5.437136
 31
0.0
  0
LINE
  5
111
100
AcDbEntity
  8
RIOHR
 62
     7
100
AcDbLine
 10
-1.962326
 20
3.821042
 30
0.0
 11
-0.865752
 21
4.917615
 31
0.0
  0
LINE
  5
110
100
AcDbEntity
  8
RIOHR
 62
     7
100
AcDbLine
 10
-1.952336
 20
3.343551
 30
0.0
 11
-0.892969
 21
4.402918
 31
0.0
  0
LINE
  5
10F
100
AcDbEntity
  8
RIOHR
 62
     7
100
AcDbLine
 10
0.877466
 20
4.711599
 30
0.0
 11
1.89687
 21
5.731002
 31
0.0
  0
LINE
  5
10E
100
AcDbEntity
  8
RIOHR
 62
     7
100
AcDbLine
 10
0.908472
 20
4.25564
 30
0.0
 11
1.930632
 21
5.277456
 31
0.0
  0
LINE
  5
10D
100
AcDbEntity
  8
RIOHR
 62
     7
100
AcDbLine
 10
0.935343
 20
3.794687
 30
0.0
 11
1.948201
 21
4.807717
 31
0.0
  0
LINE
  5
10C
100
AcDbEntity
  8
RIOHR
 62
     7
100
AcDbLine
 10
0.957048
 20
3.329254
 30
0.0
 11
1.95957
 21
4.331605
 31
0.0
  0
LINE
  5
10B
100
AcDbEntity
  8
RIOHR
 62
     7
100
AcDbLine
 10
-0.028939
 20
6.241738
 30
0.0
 11
0.865408
 21
7.136085
 31
0.0
  0
LINE
  5
10A
100
AcDbEntity
  8
RIOHR
 62
     7
100
AcDbLine
 10
0.36897
 20
6.151821
 30
0.0
 11
1.164787
 21
6.948155
 31
0.0
  0
ENDBLK
  5
147
100
AcDbEntity
  8
RIOHR
100
AcDbBlockEnd
  0
BLOCK
  5
14A
100
AcDbEntity
  8
RIOHR
 62
     7
100
AcDbBlockBegin
  2
AI9-BLK4
 70
     0
 10
0.0
 20
0.0
 30
0.0
  3
AI9-BLK4
  1

  0
LINE
  5
187
100
AcDbEntity
  8
RIOHR
 62
     7
100
AcDbLine
 10
1.878008
 20
-1.956211
 30
0.0
 11
0.940597
 21
-2.893622
 31
0.0
  0
LINE
  5
186
100
AcDbEntity
  8
RIOHR
 62
     7
100
AcDbLine
 10
-0.993135
 20
-1.90419
 30
0.0
 11
-1.951733
 21
-2.862616
 31
0.0
  0
LINE
  5
185
100
AcDbEntity
  8
RIOHR
 62
     7
100
AcDbLine
 10
-0.994857
 20
-1.418432
 30
0.0
 11
-1.934852
 21
-2.358254
 31
0.0
  0
LINE
  5
184
100
AcDbEntity
  8
RIOHR
 62
     7
100
AcDbLine
 10
1.83925
 20
-1.50766
 30
0.0
 11
0.945765
 21
-2.401318
 31
0.0
  0
LINE
  5
183
100
AcDbEntity
  8
RIOHR
 62
     7
100
AcDbLine
 10
1.887826
 20
-5.844346
 30
0.0
 11
0.436235
 21
-7.296109
 31
0.0
  0
LINE
  5
182
100
AcDbEntity
  8
RIOHR
 62
     7
100
AcDbLine
 10
1.940881
 20
-5.3045
 30
0.0
 11
-0.096721
 21
-7.341929
 31
0.0
  0
LINE
  5
181
100
AcDbEntity
  8
RIOHR
 62
     7
100
AcDbLine
 10
1.9569
 20
-4.801171
 30
0.0
 11
-0.514783
 21
-7.272683
 31
0.0
  0
LINE
  5
180
100
AcDbEntity
  8
RIOHR
 62
     7
100
AcDbLine
 10
-0.908558
 20
-4.255468
 30
0.0
 11
-1.930718
 21
-5.277628
 31
0.0
  0
LINE
  5
17F
100
AcDbEntity
  8
RIOHR
 62
     7
100
AcDbLine
 10
-0.841895
 20
-5.163251
 30
0.0
 11
-1.792053
 21
-6.113753
 31
0.0
  0
LINE
  5
17E
100
AcDbEntity
  8
RIOHR
 62
     7
100
AcDbLine
 10
-0.87738
 20
-4.711599
 30
0.0
 11
-1.896611
 21
-5.731347
 31
0.0
  0
LINE
  5
17D
100
AcDbEntity
  8
RIOHR
 62
     7
100
AcDbLine
 10
-0.637601
 20
-5.933919
 30
0.0
 11
-1.419121
 21
-6.715266
 31
0.0
  0
LINE
  5
17C
100
AcDbEntity
  8
RIOHR
 62
     7
100
AcDbLine
 10
-0.368539
 20
-6.151993
 30
0.0
 11
-1.164873
 21
-6.948155
 31
0.0
  0
LINE
  5
17B
100
AcDbEntity
  8
RIOHR
 62
     7
100
AcDbLine
 10
0.028853
 20
-6.24191
 30
0.0
 11
-0.865666
 21
-7.136257
 31
0.0
  0
LINE
  5
17A
100
AcDbEntity
  8
RIOHR
 62
     7
100
AcDbLine
 10
-0.797798
 20
-5.606635
 30
0.0
 11
-1.629272
 21
-6.438281
 31
0.0
  0
LINE
  5
179
100
AcDbEntity
  8
RIOHR
 62
     7
100
AcDbLine
 10
-0.956961
 20
-3.329426
 30
0.0
 11
-1.95914
 21
-4.331949
 31
0.0
  0
LINE
  5
178
100
AcDbEntity
  8
RIOHR
 62
     7
100
AcDbLine
 10
-0.974015
 20
-2.859171
 30
0.0
 11
-1.963791
 21
-3.849291
 31
0.0
  0
LINE
  5
177
100
AcDbEntity
  8
RIOHR
 62
     7
100
AcDbLine
 10
-0.986072
 20
-2.384092
 30
0.0
 11
-1.961551
 21
-3.359399
 31
0.0
  0
LINE
  5
176
100
AcDbEntity
  8
RIOHR
 62
     7
100
AcDbLine
 10
-0.934913
 20
-3.794859
 30
0.0
 11
-1.948115
 21
-4.807717
 31
0.0
  0
LINE
  5
175
100
AcDbEntity
  8
RIOHR
 62
     7
100
AcDbLine
 10
1.963791
 20
-4.307145
 30
0.0
 11
0.83311
 21
-5.437136
 31
0.0
  0
LINE
  5
174
100
AcDbEntity
  8
RIOHR
 62
     7
100
AcDbLine
 10
1.952422
 20
-3.343896
 30
0.0
 11
0.893055
 21
-4.403263
 31
0.0
  0
LINE
  5
173
100
AcDbEntity
  8
RIOHR
 62
     7
100
AcDbLine
 10
1.934852
 20
-2.873985
 30
0.0
 11
0.914587
 21
-3.894078
 31
0.0
  0
LINE
  5
172
100
AcDbEntity
  8
RIOHR
 62
     7
100
AcDbLine
 10
1.96224
 20
-3.821386
 30
0.0
 11
0.865666
 21
-4.91796
 31
0.0
  0
LINE
  5
171
100
AcDbEntity
  8
RIOHR
 62
     7
100
AcDbLine
 10
1.910047
 20
-2.411653
 30
0.0
 11
0.930606
 21
-3.391438
 31
0.0
  0
LINE
  5
170
100
AcDbEntity
  8
RIOHR
 62
     7
100
AcDbLine
 10
-0.678081
 20
3.770915
 30
0.0
 11
-1.248589
 21
3.200408
 31
0.0
  0
LINE
  5
16F
100
AcDbEntity
  8
RIOHR
 62
     7
100
AcDbLine
 10
0.873762
 20
3.860832
 30
0.0
 11
0.587992
 21
3.575234
 31
0.0
  0
LINE
  5
16E
100
AcDbEntity
  8
RIOHR
 62
     7
100
AcDbLine
 10
-0.918721
 20
1.094076
 30
0.0
 11
-1.722978
 21
0.289991
 31
0.0
  0
LINE
  5
16D
100
AcDbEntity
  8
RIOHR
 62
     7
100
AcDbLine
 10
-0.99124
 20
-0.927506
 30
0.0
 11
-1.909875
 21
-1.846313
 31
0.0
  0
LINE
  5
16C
100
AcDbEntity
  8
RIOHR
 62
     7
100
AcDbLine
 10
-0.946109
 20
0.579379
 30
0.0
 11
-1.783784
 21
-0.258124
 31
0.0
  0
LINE
  5
16B
100
AcDbEntity
  8
RIOHR
 62
     7
100
AcDbLine
 10
-0.966952
 20
0.071572
 30
0.0
 11
-1.834944
 21
-0.796592
 31
0.0
  0
LINE
  5
16A
100
AcDbEntity
  8
RIOHR
 62
     7
100
AcDbLine
 10
-0.981938
 20
-0.431412
 30
0.0
 11
-1.876802
 21
-1.325759
 31
0.0
  0
LINE
  5
169
100
AcDbEntity
  8
RIOHR
 62
     7
100
AcDbLine
 10
-0.740954
 20
3.221078
 30
0.0
 11
-1.368823
 21
2.592693
 31
0.0
  0
LINE
  5
168
100
AcDbEntity
  8
RIOHR
 62
     7
100
AcDbLine
 10
-0.796248
 20
2.678476
 30
0.0
 11
-1.475448
 21
1.999103
 31
0.0
  0
LINE
  5
167
100
AcDbEntity
  8
RIOHR
 62
     7
100
AcDbLine
 10
-0.843962
 20
2.143108
 30
0.0
 11
-1.569499
 21
1.417571
 31
0.0
  0
LINE
  5
166
100
AcDbEntity
  8
RIOHR
 62
     7
100
AcDbLine
 10
-0.884787
 20
1.615664
 30
0.0
 11
-1.651665
 21
0.848096
 31
0.0
  0
LINE
  5
165
100
AcDbEntity
  8
RIOHR
 62
     7
100
AcDbLine
 10
1.476482
 20
1.052735
 30
0.0
 11
0.871695
 21
0.448121
 31
0.0
  0
LINE
  5
164
100
AcDbEntity
  8
RIOHR
 62
     7
100
AcDbLine
 10
1.793775
 20
-1.065999
 30
0.0
 11
0.945248
 21
-1.914526
 31
0.0
  0
LINE
  5
163
100
AcDbEntity
  8
RIOHR
 62
     7
100
AcDbLine
 10
1.620487
 20
0.222467
 30
0.0
 11
0.915103
 21
-0.483089
 31
0.0
  0
LINE
  5
162
100
AcDbEntity
  8
RIOHR
 62
     7
100
AcDbLine
 10
1.55124
 20
0.640357
 30
0.0
 11
0.895639
 21
-0.015245
 31
0.0
  0
LINE
  5
161
100
AcDbEntity
  8
RIOHR
 62
     7
100
AcDbLine
 10
1.684221
 20
-0.200935
 30
0.0
 11
0.93009
 21
-0.955411
 31
0.0
  0
LINE
  5
160
100
AcDbEntity
  8
RIOHR
 62
     7
100
AcDbLine
 10
1.741926
 20
-0.630194
 30
0.0
 11
0.94008
 21
-1.432212
 31
0.0
  0
LINE
  5
15F
100
AcDbEntity
  8
RIOHR
 62
     7
100
AcDbLine
 10
1.395178
 20
1.466147
 30
0.0
 11
0.842929
 21
0.914242
 31
0.0
  0
LINE
  5
15E
100
AcDbEntity
  8
RIOHR
 62
     7
100
AcDbLine
 10
0.965402
 20
3.46568
 30
0.0
 11
0.640185
 21
3.140118
 31
0.0
  0
LINE
  5
15D
100
AcDbEntity
  8
RIOHR
 62
     7
100
AcDbLine
 10
1.143169
 20
2.668829
 30
0.0
 11
0.733202
 21
2.258863
 31
0.0
  0
LINE
  5
15C
100
AcDbEntity
  8
RIOHR
 62
     7
100
AcDbLine
 10
1.055147
 20
3.068116
 30
0.0
 11
0.688416
 21
2.701213
 31
0.0
  0
LINE
  5
15B
100
AcDbEntity
  8
RIOHR
 62
     7
100
AcDbLine
 10
1.229468
 20
2.26782
 30
0.0
 11
0.774027
 21
1.812379
 31
0.0
  0
LINE
  5
15A
100
AcDbEntity
  8
RIOHR
 62
     7
100
AcDbLine
 10
1.313701
 20
1.865089
 30
0.0
 11
0.810717
 21
1.36176
 31
0.0
  0
LINE
  5
159
100
AcDbEntity
  8
RIOHR
 62
     7
100
AcDbLine
 10
0.587647
 20
5.036816
 30
0.0
 11
0.409191
 21
4.858532
 31
0.0
  0
LINE
  5
158
100
AcDbEntity
  8
RIOHR
 62
     7
100
AcDbLine
 10
0.684799
 20
4.646659
 30
0.0
 11
0.472236
 21
4.434441
 31
0.0
  0
LINE
  5
157
100
AcDbEntity
  8
RIOHR
 62
     7
100
AcDbLine
 10
-0.52753
 20
4.896256
 30
0.0
 11
-0.962129
 21
4.461657
 31
0.0
  0
LINE
  5
156
100
AcDbEntity
  8
RIOHR
 62
     7
100
AcDbLine
 10
-0.607112
 20
4.329365
 30
0.0
 11
-1.113541
 21
3.822936
 31
0.0
  0
LINE
  5
155
100
AcDbEntity
  8
RIOHR
 62
     7
100
AcDbLine
 10
-0.23263
 20
6.652738
 30
0.0
 11
-0.393861
 21
6.491507
 31
0.0
  0
LINE
  5
154
100
AcDbEntity
  8
RIOHR
 62
     7
100
AcDbLine
 10
-0.438819
 20
5.472276
 30
0.0
 11
-0.793147
 21
5.117948
 31
0.0
  0
LINE
  5
153
100
AcDbEntity
  8
RIOHR
 62
     7
100
AcDbLine
 10
0.181987
 20
6.580219
 30
0.0
 11
0.123076
 21
6.52148
 31
0.0
  0
LINE
  5
152
100
AcDbEntity
  8
RIOHR
 62
     7
100
AcDbLine
 10
0.388176
 20
5.811962
 30
0.0
 11
0.272765
 21
5.696552
 31
0.0
  0
LINE
  5
151
100
AcDbEntity
  8
RIOHR
 62
     7
100
AcDbLine
 10
-0.340978
 20
6.057425
 30
0.0
 11
-0.604528
 21
5.793875
 31
0.0
  0
LINE
  5
150
100
AcDbEntity
  8
RIOHR
 62
     7
100
AcDbLine
 10
0.488773
 20
5.425422
 30
0.0
 11
0.342701
 21
5.279178
 31
0.0
  0
LINE
  5
14F
100
AcDbEntity
  8
RIOHR
 62
     7
100
AcDbLine
 10
0.286201
 20
6.196952
 30
0.0
 11
0.199557
 21
6.110652
 31
0.0
  0
LINE
  5
14E
100
AcDbEntity
  8
RIOHR
 62
     7
100
AcDbLine
 10
-0.113774
 20
7.258902
 30
0.0
 11
-0.158733
 21
7.213944
 31
0.0
  0
LINE
  5
14D
100
AcDbEntity
  8
RIOHR
 62
     7
100
AcDbLine
 10
-0.031092
 20
7.341929
 30
0.0
 11
-0.03936
 21
7.333661
 31
0.0
  0
LINE
  5
14C
100
AcDbEntity
  8
RIOHR
 62
     7
100
AcDbLine
 10
0.076395
 20
6.961763
 30
0.0
 11
0.043494
 21
6.929034
 31
0.0
  0
LINE
  5
14B
100
AcDbEntity
  8
RIOHR
 62
     7
100
AcDbLine
 10
0.779883
 20
4.254607
 30
0.0
 11
0.531837
 21
4.00656
 31
0.0
  0
ENDBLK
  5
188
100
AcDbEntity
  8
RIOHR
100
AcDbBlockEnd
  0
ENDSEC
  0
SECTION
  2
ENTITIES
  0
POLYLINE
  5
1A8
100
AcDbEntity
  8
SCHRAUBE
 62
     7
100
AcDb2dPolyline
 66
     1
 10
0.0
 20
0.0
 30
0.0
 70
     1
  0
VERTEX
  5
1A9
100
AcDbEntity
  8
SCHRAUBE
 62
     7
100
AcDbVertex
100
AcDb2dVertex
 10
111.646243
 20
167.288152
 30
0.0
  0
VERTEX
  5
1AA
100
AcDbEntity
  8
SCHRAUBE
 62
     7
100
AcDbVertex
100
AcDb2dVertex
 10
111.646243
 20
163.054302
 30
0.0
  0
VERTEX
  5
1AB
100
AcDbEntity
  8
SCHRAUBE
 62
     7
100
AcDbVertex
100
AcDb2dVertex
 10
112.08756
 20
163.054302
 30
0.0
  0
VERTEX
  5
1AC
100
AcDbEntity
  8
SCHRAUBE
 62
     7
100
AcDbVertex
100
AcDb2dVertex
 10
112.08756
 20
167.288152
 30
0.0
  0
SEQEND
  5
1AD
100
AcDbEntity
  8
SCHRAUBE
 62
     7
  0
POLYLINE
  5
1A2
100
AcDbEntity
  8
SCHRAUBE
 62
     7
100
AcDb2dPolyline
 66
     1
 10
0.0
 20
0.0
 30
0.0
 70
     1
  0
VERTEX
  5
1A3
100
AcDbEntity
  8
SCHRAUBE
 62
     7
100
AcDbVertex
100
AcDb2dVertex
 10
111.646243
 20
128.740118
 30
0.0
  0
VERTEX
  5
1A4
100
AcDbEntity
  8
SCHRAUBE
 62
     7
100
AcDbVertex
100
AcDb2dVertex
 10
111.646243
 20
132.973796
 30
0.0
  0
VERTEX
  5
1A5
100
AcDbEntity
  8
SCHRAUBE
 62
     7
100
AcDbVertex
100
AcDb2dVertex
 10
112.08756
 20
132.973796
 30
0.0
  0
VERTEX
  5
1A6
100
AcDbEntity
  8
SCHRAUBE
 62
     7
100
AcDbVertex
100
AcDb2dVertex
 10
112.08756
 20
128.740118
 30
0.0
  0
SEQEND
  5
1A7
100
AcDbEntity
  8
SCHRAUBE
 62
     7
  0
LINE
  5
1A1
100
AcDbEntity
  8
SCHRAUBE
 62
     7
100
AcDbLine
 10
112.08756
 20
164.253368
 30
0.0
 11
112.08756
 21
166.089259
 31
0.0
  0
LINE
  5
1A0
100
AcDbEntity
  8
SCHRAUBE
 62
     7
100
AcDbLine
 10
113.18999
 20
164.253368
 30
0.0
 11
113.18999
 21
166.089259
 31
0.0
  0
SPLINE
  5
19F
100
AcDbEntity
  8
SCHRAUBE
 62
     7
100
AcDbSpline
210
0.0
220
0.0
230
1.0
 70
     8
 71
     3
 72
     8
 73
     4
 74
     0
 42
0.00000001
 43
0.00000001
 40
0.0
 40
0.0
 40
0.0
 40
0.0
 40
1.0
 40
1.0
 40
1.0
 40
1.0
 10
113.0849148220486
 20
165.78333468967011
 30
0.0
 10
113.22513020833333
 20
165.38714870876734
 30
0.0
 10
113.22513020833333
 20
164.95513373480901
 30
0.0
 10
113.0849148220486
 20
164.55929226345484
 30
0.0
  0
SPLINE
  5
19E
100
AcDbEntity
  8
SCHRAUBE
 62
     7
100
AcDbSpline
210
0.0
220
0.0
230
1.0
 70
     8
 71
     3
 72
     8
 73
     4
 74
     0
 42
0.00000001
 43
0.00000001
 40
0.0
 40
0.0
 40
0.0
 40
0.0
 40
1.0
 40
1.0
 40
1.0
 40
1.0
 10
112.19263509114582
 20
164.55929226345484
 30
0.0
 10
112.05241970486109
 20
164.95513373480901
 30
0.0
 10
112.05241970486109
 20
165.38714870876734
 30
0.0
 10
112.19263509114582
 20
165.78333468967011
 30
0.0
  0
LINE
  5
19D
100
AcDbEntity
  8
SCHRAUBE
 62
     7
100
AcDbLine
 10
113.084915
 20
163.947443
 30
0.0
 11
112.192635
 21
163.947443
 31
0.0
  0
SPLINE
  5
19C
100
AcDbEntity
  8
SCHRAUBE
 62
     7
100
AcDbSpline
210
0.0
220
0.0
230
1.0
 70
     8
 71
     3
 72
     8
 73
     4
 74
     0
 42
0.00000001
 43
0.00000001
 40
0.0
 40
0.0
 40
0.0
 40
0.0
 40
1.0
 40
1.0
 40
1.0
 40
1.0
 10
113.0849148220486
 20
164.55929226345484
 30
0.0
 10
113.22513020833333
 20
164.37945827907984
 30
0.0
 10
113.22513020833333
 20
164.1272772894965
 30
0.0
 10
113.0849148220486
 20
163.94744330512151
 30
0.0
  0
LINE
  5
19B
100
AcDbEntity
  8
SCHRAUBE
 62
     7
100
AcDbLine
 10
113.084915
 20
164.559292
 30
0.0
 11
112.192635
 21
164.559292
 31
0.0
  0
SPLINE
  5
19A
100
AcDbEntity
  8
SCHRAUBE
 62
     7
100
AcDbSpline
210
0.0
220
0.0
230
1.0
 70
     8
 71
     3
 72
     8
 73
     4
 74
     0
 42
0.00000001
 43
0.00000001
 40
0.0
 40
0.0
 40
0.0
 40
0.0
 40
1.0
 40
1.0
 40
1.0
 40
1.0
 10
112.19263509114582
 20
163.94744330512151
 30
0.0
 10
112.05241970486109
 20
164.1272772894965
 30
0.0
 10
112.05241970486109
 20
164.37945827907984
 30
0.0
 10
112.19263509114582
 20
164.55929226345484
 30
0.0
  0
LINE
  5
199
100
AcDbEntity
  8
SCHRAUBE
 62
     7
100
AcDbLine
 10
113.084915
 20
165.783335
 30
0.0
 11
112.192635
 21
165.783335
 31
0.0
  0
SPLINE
  5
198
100
AcDbEntity
  8
SCHRAUBE
 62
     7
100
AcDbSpline
210
0.0
220
0.0
230
1.0
 70
     8
 71
     3
 72
     8
 73
     4
 74
     0
 42
0.00000001
 43
0.00000001
 40
0.0
 40
0.0
 40
0.0
 40
0.0
 40
1.0
 40
1.0
 40
1.0
 40
1.0
 10
113.0849148220486
 20
166.39518364800347
 30
0.0
 10
113.22513020833333
 20
166.21500515407985
 30
0.0
 10
113.22513020833333
 20
165.96316867404514
 30
0.0
 10
113.0849148220486
 20
165.78333468967011
 30
0.0
  0
SPLINE
  5
197
100
AcDbEntity
  8
SCHRAUBE
 62
     7
100
AcDbSpline
210
0.0
220
0.0
230
1.0
 70
     8
 71
     3
 72
     8
 73
     4
 74
     0
 42
0.00000001
 43
0.00000001
 40
0.0
 40
0.0
 40
0.0
 40
0.0
 40
1.0
 40
1.0
 40
1.0
 40
1.0
 10
112.19263509114582
 20
165.78333468967011
 30
0.0
 10
112.05241970486109
 20
165.96316867404514
 30
0.0
 10
112.05241970486109
 20
166.21500515407985
 30
0.0
 10
112.19263509114582
 20
166.39518364800347
 30
0.0
  0
LINE
  5
196
100
AcDbEntity
  8
SCHRAUBE
 62
     7
100
AcDbLine
 10
113.084915
 20
166.395184
 30
0.0
 11
112.192635
 21
166.395184
 31
0.0
  0
LINE
  5
195
100
AcDbEntity
  8
SCHRAUBE
 62
     7
100
AcDbLine
 10
112.08756
 20
129.939011
 30
0.0
 11
112.08756
 21
131.774902
 31
0.0
  0
LINE
  5
194
100
AcDbEntity
  8
SCHRAUBE
 62
     7
100
AcDbLine
 10
113.18999
 20
129.939011
 30
0.0
 11
113.18999
 21
131.774902
 31
0.0
  0
SPLINE
  5
193
100
AcDbEntity
  8
SCHRAUBE
 62
     7
100
AcDbSpline
210
0.0
220
0.0
230
1.0
 70
     8
 71
     3
 72
     8
 73
     4
 74
     0
 42
0.00000001
 43
0.00000001
 40
0.0
 40
0.0
 40
0.0
 40
0.0
 40
1.0
 40
1.0
 40
1.0
 40
1.0
 10
113.0849148220486
 20
131.46897786458331
 30
0.0
 10
113.22513020833333
 20
131.07279188368054
 30
0.0
 10
113.22513020833333
 20
130.64077690972221
 30
0.0
 10
113.0849148220486
 20
130.24493543836803
 30
0.0
  0
SPLINE
  5
192
100
AcDbEntity
  8
SCHRAUBE
 62
     7
100
AcDbSpline
210
0.0
220
0.0
230
1.0
 70
     8
 71
     3
 72
     8
 73
     4
 74
     0
 42
0.00000001
 43
0.00000001
 40
0.0
 40
0.0
 40
0.0
 40
0.0
 40
1.0
 40
1.0
 40
1.0
 40
1.0
 10
112.19263509114582
 20
130.24493543836803
 30
0.0
 10
112.05241970486109
 20
130.64077690972221
 30
0.0
 10
112.05241970486109
 20
131.07279188368054
 30
0.0
 10
112.19263509114582
 20
131.46897786458331
 30
0.0
  0
LINE
  5
191
100
AcDbEntity
  8
SCHRAUBE
 62
     7
100
AcDbLine
 10
113.084915
 20
129.633086
 30
0.0
 11
112.192635
 21
129.633086
 31
0.0
  0
SPLINE
  5
190
100
AcDbEntity
  8
SCHRAUBE
 62
     7
100
AcDbSpline
210
0.0
220
0.0
230
1.0
 70
     8
 71
     3
 72
     8
 73
     4
 74
     0
 42
0.00000001
 43
0.00000001
 40
0.0
 40
0.0
 40
0.0
 40
0.0
 40
1.0
 40
1.0
 40
1.0
 40
1.0
 10
113.0849148220486
 20
130.24493543836803
 30
0.0
 10
113.22513020833333
 20
130.06510145399304
 30
0.0
 10
113.22513020833333
 20
129.8129204644097
 30
0.0
 10
113.0849148220486
 20
129.63308648003471
 30
0.0
  0
LINE
  5
18F
100
AcDbEntity
  8
SCHRAUBE
 62
     7
100
AcDbLine
 10
113.084915
 20
130.244935
 30
0.0
 11
112.192635
 21
130.244935
 31
0.0
  0
SPLINE
  5
18E
100
AcDbEntity
  8
SCHRAUBE
 62
     7
100
AcDbSpline
210
0.0
220
0.0
230
1.0
 70
     8
 71
     3
 72
     8
 73
     4
 74
     0
 42
0.00000001
 43
0.00000001
 40
0.0
 40
0.0
 40
0.0
 40
0.0
 40
1.0
 40
1.0
 40
1.0
 40
1.0
 10
112.19263509114582
 20
129.63308648003471
 30
0.0
 10
112.05241970486109
 20
129.8129204644097
 30
0.0
 10
112.05241970486109
 20
130.06510145399304
 30
0.0
 10
112.19263509114582
 20
130.24493543836803
 30
0.0
  0
LINE
  5
18D
100
AcDbEntity
  8
SCHRAUBE
 62
     7
100
AcDbLine
 10
113.084915
 20
131.468978
 30
0.0
 11
112.192635
 21
131.468978
 31
0.0
  0
SPLINE
  5
18C
100
AcDbEntity
  8
SCHRAUBE
 62
     7
100
AcDbSpline
210
0.0
220
0.0
230
1.0
 70
     8
 71
     3
 72
     8
 73
     4
 74
     0
 42
0.00000001
 43
0.00000001
 40
0.0
 40
0.0
 40
0.0
 40
0.0
 40
1.0
 40
1.0
 40
1.0
 40
1.0
 10
113.0849148220486
 20
132.08082682291666
 30
0.0
 10
113.22513020833333
 20
131.90099283854167
 30
0.0
 10
113.22513020833333
 20
131.64881184895833
 30
0.0
 10
113.0849148220486
 20
131.46897786458331
 30
0.0
  0
SPLINE
  5
18B
100
AcDbEntity
  8
SCHRAUBE
 62
     7
100
AcDbSpline
210
0.0
220
0.0
230
1.0
 70
     8
 71
     3
 72
     8
 73
     4
 74
     0
 42
0.00000001
 43
0.00000001
 40
0.0
 40
0.0
 40
0.0
 40
0.0
 40
1.0
 40
1.0
 40
1.0
 40
1.0
 10
112.19263509114582
 20
131.46897786458331
 30
0.0
 10
112.05241970486109
 20
131.64881184895833
 30
0.0
 10
112.05241970486109
 20
131.90099283854167
 30
0.0
 10
112.19263509114582
 20
132.08082682291666
 30
0.0
  0
LINE
  5
18A
100
AcDbEntity
  8
SCHRAUBE
 62
     7
100
AcDbLine
 10
113.084915
 20
132.080827
 30
0.0
 11
112.192635
 21
132.080827
 31
0.0
  0
INSERT
  5
149
100
AcDbEntity
  8
RIOHR
 62
     7
100
AcDbBlockReference
  2
AI9-BLK4
 10
94.383989
 20
143.161718
 30
0.0
  0
INSERT
  5
108
100
AcDbEntity
  8
RIOHR
  6
AI9-LType2
 62
     7
100
AcDbBlockReference
  2
AI9-BLK3
 10
162.867578
 20
152.640382
 30
0.0
  0
LINE
  5
105
100
AcDbEntity
  8
GETRENNT
  6
AI9-LType2
 62
     7
100
AcDbLine
 10
100.205425
 20
92.88632
 30
0.0
 11
153.108312
 21
92.88632
 31
0.0
  0
LINE
  5
104
100
AcDbEntity
  8
GETRENNT
  6
AI9-LType2
 62
     7
100
AcDbLine
 10
100.205425
 20
203.141778
 30
0.0
 11
153.108312
 21
203.141778
 31
0.0
  0
HATCH
  5
101
100
AcDbEntity
  8
EBENE_1
 62
   152
100
AcDbHatch
 10
0.0
 20
0.0
 30
0.0
210
0.0
220
0.0
230
1.0
  2
SOLID
 70
     1
 71
     0
 91
        1
 92
        1
 93
        1
 72
     4
 94
        3
 73
     0
 74
     0
 95
       23
 96
       19
 40
0.0
 40
0.0
 40
0.0
 40
0.0
 40
1.0
 40
1.0
 40
1.0
 40
2.0
 40
2.0
 40
2.0
 40
3.0
 40
3.0
 40
3.0
 40
4.0
 40
4.0
 40
4.0
 40
5.0
 40
5.0
 40
5.0
 40
6.0
 40
6.0
 40
6.0
 40
6.0
 10
84.862692599826374
 20
129.67580566406249
 10
84.862692599826374
 20
129.67580566406249
 10
84.472018771701386
 20
129.91661783854167
 10
83.94112955729166
 20
130.17052137586805
 10
79.561724175347209
 20
132.26479492187499
 10
80.629876030815964
 20
128.02078179253471
 10
76.294740125868046
 20
130.68831922743055
 10
75.683752441406241
 20
131.06452365451386
 10
75.11944580078125
 20
130.14778374565972
 10
75.730777994791666
 20
129.77157931857639
 10
75.730777994791666
 20
129.77157931857639
 10
76.121107313368043
 20
129.53076714409721
 10
76.652168782552081
 20
129.27686360677083
 10
81.026234266493049
 20
127.18362358940971
 10
79.963250054253464
 20
131.42005750868054
 10
84.298902723524293
 20
128.7587212456597
 10
84.91006266276041
 20
128.38286132812499
 10
85.474024793836804
 20
129.29960123697916
 10
84.862692599826374
 20
129.67580566406249
 97
        0
 75
     0
 76
     1
 98
        1
 10
0.0
 20
0.0
  0
HATCH
  5
100
100
AcDbEntity
  8
EBENE_1
 62
   152
100
AcDbHatch
 10
0.0
 20
0.0
 30
0.0
210
0.0
220
0.0
230
1.0
  2
SOLID
 70
     1
 71
     0
 91
        1
 92
        1
 93
        1
 72
     4
 94
        3
 73
     0
 74
     0
 95
       23
 96
       19
 40
0.0
 40
0.0
 40
0.0
 40
0.0
 40
1.0
 40
1.0
 40
1.0
 40
2.0
 40
2.0
 40
2.0
 40
3.0
 40
3.0
 40
3.0
 40
4.0
 40
4.0
 40
4.0
 40
5.0
 40
5.0
 40
5.0
 40
6.0
 40
6.0
 40
6.0
 40
6.0
 10
84.862692599826374
 20
124.61220431857637
 10
84.862692599826374
 20
124.61220431857637
 10
84.472018771701386
 20
124.85301649305555
 10
83.94112955729166
 20
125.10657552083332
 10
79.561724175347209
 20
127.20153808593749
 10
80.629876030815964
 20
122.95683593749999
 10
76.294740125868046
 20
125.62506239149305
 10
75.683752441406241
 20
126.00126681857638
 10
75.11944580078125
 20
125.08452690972221
 10
75.730777994791666
 20
124.70832248263888
 10
75.730777994791666
 20
124.70832248263888
 10
76.121107313368043
 20
124.46751030815972
 10
76.652168782552081
 20
124.21326226128471
 10
81.026234266493049
 20
122.11967773437499
 10
79.963250054253464
 20
126.35680067274305
 10
84.298902723524293
 20
123.69546440972221
 10
84.91006266276041
 20
123.31925998263888
 10
85.474024793836804
 20
124.23634440104165
 10
84.862692599826374
 20
124.61220431857637
 97
        0
 75
     0
 76
     1
 98
        1
 10
0.0
 20
0.0
  0
HATCH
  5
FF
100
AcDbEntity
  8
EBENE_1
 62
   152
100
AcDbHatch
 10
0.0
 20
0.0
 30
0.0
210
0.0
220
0.0
230
1.0
  2
SOLID
 70
     1
 71
     0
 91
        1
 92
        1
 93
        1
 72
     4
 94
        3
 73
     0
 74
     0
 95
       23
 96
       19
 40
0.0
 40
0.0
 40
0.0
 40
0.0
 40
1.0
 40
1.0
 40
1.0
 40
2.0
 40
2.0
 40
2.0
 40
3.0
 40
3.0
 40
3.0
 40
4.0
 40
4.0
 40
4.0
 40
5.0
 40
5.0
 40
5.0
 40
6.0
 40
6.0
 40
6.0
 40
6.0
 10
84.862692599826374
 20
127.14434950086805
 10
84.862692599826374
 20
127.14434950086805
 10
84.472018771701386
 20
127.38447265624998
 10
83.94112955729166
 20
127.63837619357638
 10
79.561724175347209
 20
129.73333875868053
 10
80.629876030815964
 20
125.48898111979166
 10
76.294740125868046
 20
128.15651855468749
 10
75.683752441406241
 20
128.53272298177083
 10
75.11944580078125
 20
127.61598307291665
 10
75.730777994791666
 20
127.23977864583333
 10
75.730777994791666
 20
127.23977864583333
 10
76.121107313368043
 20
126.99896647135415
 10
76.652168782552081
 20
126.74540744357638
 10
81.026234266493049
 20
124.65182291666666
 10
79.963250054253464
 20
128.88825683593748
 10
84.298902723524293
 20
126.22692057291665
 10
84.91006266276041
 20
125.85071614583332
 10
85.474024793836804
 20
126.76814507378471
 10
84.862692599826374
 20
127.14434950086805
 97
        0
 75
     0
 76
     1
 98
        1
 10
0.0
 20
0.0
  0
HATCH
  5
FE
100
AcDbEntity
  8
EBENE_1
 62
   152
100
AcDbHatch
 10
0.0
 20
0.0
 30
0.0
210
0.0
220
0.0
230
1.0
  2
SOLID
 70
     1
 71
     0
 91
        1
 92
        1
 93
        1
 72
     4
 94
        3
 73
     0
 74
     0
 95
       23
 96
       19
 40
0.0
 40
0.0
 40
0.0
 40
0.0
 40
1.0
 40
1.0
 40
1.0
 40
2.0
 40
2.0
 40
2.0
 40
3.0
 40
3.0
 40
3.0
 40
4.0
 40
4.0
 40
4.0
 40
5.0
 40
5.0
 40
5.0
 40
6.0
 40
6.0
 40
6.0
 40
6.0
 10
84.862692599826374
 20
132.20278320312499
 10
84.862692599826374
 20
132.20278320312499
 10
84.472018771701386
 20
132.44359537760417
 10
83.94112955729166
 20
132.69784342447915
 10
79.561724175347209
 20
134.79246148003472
 10
80.629876030815964
 20
130.54775933159721
 10
76.294740125868046
 20
133.21564127604165
 10
75.683752441406241
 20
133.59184570312499
 10
75.11944580078125
 20
132.67510579427082
 10
75.730777994791666
 20
132.29890136718748
 10
75.730777994791666
 20
132.29890136718748
 10
76.121107313368043
 20
132.05808919270831
 10
76.652168782552081
 20
131.80384114583333
 10
81.026234266493049
 20
129.71094563802083
 10
79.963250054253464
 20
133.94737955729167
 10
84.298902723524293
 20
131.28604329427083
 10
84.91006266276041
 20
130.90983886718749
 10
85.474024793836804
 20
131.82726779513888
 10
84.862692599826374
 20
132.20278320312499
 97
        0
 75
     0
 76
     1
 98
        1
 10
0.0
 20
0.0
  0
POLYLINE
  5
F7
100
AcDbEntity
  8
SCHRAFFUR
 62
     7
100
AcDb2dPolyline
 66
     1
 10
0.0
 20
0.0
 30
0.0
 70
     1
  0
VERTEX
  5
F8
100
AcDbEntity
  8
SCHRAFFUR
 62
     7
100
AcDbVertex
100
AcDb2dVertex
 10
103.072262
 20
170.065244
 30
0.0
  0
VERTEX
  5
F9
100
AcDbEntity
  8
SCHRAFFUR
 62
     7
100
AcDbVertex
100
AcDb2dVertex
 10
109.88201
 20
170.065244
 30
0.0
  0
VERTEX
  5
FA
100
AcDbEntity
  8
SCHRAFFUR
 62
     7
100
AcDbVertex
100
AcDb2dVertex
 10
109.88201
 20
125.963026
 30
0.0
  0
VERTEX
  5
FB
100
AcDbEntity
  8
SCHRAFFUR
 62
     7
100
AcDbVertex
100
AcDb2dVertex
 10
103.072262
 20
125.963026
 30
0.0
  0
SEQEND
  5
FC
100
AcDbEntity
  8
SCHRAFFUR
 62
     7
  0
HATCH
  5
F6
100
AcDbEntity
  8
SCHRAFFUR
 62
     7
100
AcDbHatch
 10
0.0
 20
0.0
 30
0.0
210
0.0
220
0.0
230
1.0
  2
SOLID
 70
     1
 71
     0
 91
        1
 92
        3
 72
     0
 73
     1
 93
        4
 10
103.07226155598957
 20
170.06524386935763
 10
109.88200954861109
 20
170.06524386935763
 10
109.88200954861109
 20
125.96302625868054
 10
103.07226155598957
 20
125.96302625868054
 97
        0
 75
     0
 76
     1
 98
        1
 10
0.0
 20
0.0
  0
LINE
  5
F5
100
AcDbEntity
  8
SCHRAFFUR
 62
     7
100
AcDbLine
 10
100.205425
 20
196.55355
 30
0.0
 11
106.793826
 21
203.141778
 31
0.0
  0
LINE
  5
F4
100
AcDbEntity
  8
SCHRAFFUR
 62
     7
100
AcDbLine
 10
100.205425
 20
179.311363
 30
0.0
 11
124.03584
 21
203.141778
 31
0.0
  0
LINE
  5
F3
100
AcDbEntity
  8
SCHRAFFUR
 62
     7
100
AcDbLine
 10
112.139925
 20
174.003677
 30
0.0
 11
141.278198
 21
203.141778
 31
0.0
  0
LINE
  5
F2
100
AcDbEntity
  8
SCHRAFFUR
 62
     7
100
AcDbLine
 10
129.381595
 20
174.003677
 30
0.0
 11
153.108312
 21
197.730222
 31
0.0
  0
LINE
  5
F1
100
AcDbEntity
  8
SCHRAFFUR
 62
     7
100
AcDbLine
 10
146.623953
 20
174.003677
 30
0.0
 11
153.108312
 21
180.488036
 31
0.0
  0
LINE
  5
F0
100
AcDbEntity
  8
SCHRAFFUR
 62
     7
100
AcDbLine
 10
100.205425
 20
110.343308
 30
0.0
 11
111.887055
 21
122.024593
 31
0.0
  0
LINE
  5
EF
100
AcDbEntity
  8
SCHRAFFUR
 62
     7
100
AcDbLine
 10
100.205425
 20
93.100949
 30
0.0
 11
129.129069
 21
122.024593
 31
0.0
  0
LINE
  5
EE
100
AcDbEntity
  8
SCHRAFFUR
 62
     7
100
AcDbLine
 10
117.233154
 20
92.88632
 30
0.0
 11
146.371427
 21
122.024593
 31
0.0
  0
LINE
  5
ED
100
AcDbEntity
  8
SCHRAFFUR
 62
     7
100
AcDbLine
 10
134.474824
 20
92.88632
 30
0.0
 11
153.108312
 21
111.519808
 31
0.0
  0
LINE
  5
EC
100
AcDbEntity
  8
SCHRAFFUR
 62
     7
100
AcDbLine
 10
151.717182
 20
92.88632
 30
0.0
 11
153.108312
 21
94.27745
 31
0.0
  0
LINE
  5
EB
100
AcDbEntity
  8
SCHRAFFUR
 62
     7
100
AcDbLine
 10
100.205425
 20
187.93237
 30
0.0
 11
102.789075
 21
190.516192
 31
0.0
  0
LINE
  5
EA
100
AcDbEntity
  8
SCHRAFFUR
 62
     7
100
AcDbLine
 10
104.944499
 20
192.671271
 30
0.0
 11
109.254658
 21
196.981947
 31
0.0
  0
LINE
  5
E9
100
AcDbEntity
  8
SCHRAFFUR
 62
     7
100
AcDbLine
 10
111.410254
 20
199.137027
 30
0.0
 11
115.414488
 21
203.141778
 31
0.0
  0
LINE
  5
E8
100
AcDbEntity
  8
SCHRAFFUR
 62
     7
100
AcDbLine
 10
103.518746
 20
174.003677
 30
0.0
 11
104.944499
 21
175.429258
 31
0.0
  0
LINE
  5
E7
100
AcDbEntity
  8
SCHRAFFUR
 62
     7
100
AcDbLine
 10
107.09975
 20
177.584682
 30
0.0
 11
111.410254
 21
181.895013
 31
0.0
  0
LINE
  5
E6
100
AcDbEntity
  8
SCHRAFFUR
 62
     7
100
AcDbLine
 10
113.565506
 20
184.050437
 30
0.0
 11
117.876009
 21
188.360768
 31
0.0
  0
LINE
  5
E5
100
AcDbEntity
  8
SCHRAFFUR
 62
     7
100
AcDbLine
 10
120.031261
 20
190.516192
 30
0.0
 11
124.341764
 21
194.826695
 31
0.0
  0
LINE
  5
E4
100
AcDbEntity
  8
SCHRAFFUR
 62
     7
100
AcDbLine
 10
126.497016
 20
196.981947
 30
0.0
 11
130.80752
 21
201.292451
 31
0.0
  0
LINE
  5
E3
100
AcDbEntity
  8
SCHRAFFUR
 62
     7
100
AcDbLine
 10
122.186168
 20
175.429258
 30
0.0
 11
126.497016
 21
179.739761
 31
0.0
  0
LINE
  5
E2
100
AcDbEntity
  8
SCHRAFFUR
 62
     7
100
AcDbLine
 10
128.651923
 20
181.895013
 30
0.0
 11
132.962771
 21
186.205516
 31
0.0
  0
LINE
  5
E1
100
AcDbEntity
  8
SCHRAFFUR
 62
     7
100
AcDbLine
 10
135.117678
 20
188.360768
 30
0.0
 11
139.428526
 21
192.671271
 31
0.0
  0
LINE
  5
E0
100
AcDbEntity
  8
SCHRAFFUR
 62
     7
100
AcDbLine
 10
141.584123
 20
194.826695
 30
0.0
 11
145.894282
 21
199.137027
 31
0.0
  0
LINE
  5
DF
100
AcDbEntity
  8
SCHRAFFUR
 62
     7
100
AcDbLine
 10
148.049878
 20
201.292451
 30
0.0
 11
149.899205
 21
203.141778
 31
0.0
  0
LINE
  5
DE
100
AcDbEntity
  8
SCHRAFFUR
 62
     7
100
AcDbLine
 10
137.468956
 20
173.469859
 30
0.0
 11
141.584123
 21
177.584682
 31
0.0
  0
LINE
  5
DD
100
AcDbEntity
  8
SCHRAFFUR
 62
     7
100
AcDbLine
 10
143.73903
 20
179.739761
 30
0.0
 11
148.049878
 21
184.050437
 31
0.0
  0
LINE
  5
DC
100
AcDbEntity
  8
SCHRAFFUR
 62
     7
100
AcDbLine
 10
150.204785
 20
186.205516
 30
0.0
 11
153.108312
 21
189.109043
 31
0.0
  0
LINE
  5
DB
100
AcDbEntity
  8
SCHRAFFUR
 62
     7
100
AcDbLine
 10
100.633823
 20
119.392196
 30
0.0
 11
103.266048
 21
122.024593
 31
0.0
  0
LINE
  5
DA
100
AcDbEntity
  8
SCHRAFFUR
 62
     7
100
AcDbLine
 10
100.205425
 20
101.721956
 30
0.0
 11
100.633823
 21
102.150526
 31
0.0
  0
LINE
  5
D9
100
AcDbEntity
  8
SCHRAFFUR
 62
     7
100
AcDbLine
 10
102.789075
 20
104.305778
 30
0.0
 11
107.09975
 21
108.616281
 31
0.0
  0
LINE
  5
D8
100
AcDbEntity
  8
SCHRAFFUR
 62
     7
100
AcDbLine
 10
109.254658
 20
110.771533
 30
0.0
 11
113.565506
 21
115.082037
 31
0.0
  0
LINE
  5
D7
100
AcDbEntity
  8
SCHRAFFUR
 62
     7
100
AcDbLine
 10
115.720413
 20
117.237288
 30
0.0
 11
120.031261
 21
121.547792
 31
0.0
  0
LINE
  5
D6
100
AcDbEntity
  8
SCHRAFFUR
 62
     7
100
AcDbLine
 10
108.611803
 20
92.88632
 30
0.0
 11
109.254658
 21
93.529175
 31
0.0
  0
LINE
  5
D5
100
AcDbEntity
  8
SCHRAFFUR
 62
     7
100
AcDbLine
 10
111.410254
 20
95.684771
 30
0.0
 11
115.720413
 21
99.99493
 31
0.0
  0
LINE
  5
D4
100
AcDbEntity
  8
SCHRAFFUR
 62
     7
100
AcDbLine
 10
117.876009
 20
102.150526
 30
0.0
 11
122.186168
 21
106.460685
 31
0.0
  0
LINE
  5
D3
100
AcDbEntity
  8
SCHRAFFUR
 62
     7
100
AcDbLine
 10
124.341764
 20
108.616281
 30
0.0
 11
128.651923
 21
112.92644
 31
0.0
  0
LINE
  5
D2
100
AcDbEntity
  8
SCHRAFFUR
 62
     7
100
AcDbLine
 10
130.80752
 20
115.082037
 30
0.0
 11
135.117678
 21
119.392196
 31
0.0
  0
LINE
  5
D1
100
AcDbEntity
  8
SCHRAFFUR
 62
     7
100
AcDbLine
 10
137.273275
 20
121.547792
 30
0.0
 11
138.247892
 21
122.522409
 31
0.0
  0
LINE
  5
D0
100
AcDbEntity
  8
SCHRAFFUR
 62
     7
100
AcDbLine
 10
126.497016
 20
93.529175
 30
0.0
 11
130.80752
 21
97.840023
 31
0.0
  0
LINE
  5
CF
100
AcDbEntity
  8
SCHRAFFUR
 62
     7
100
AcDbLine
 10
132.962771
 20
99.99493
 30
0.0
 11
137.273275
 21
104.305778
 31
0.0
  0
LINE
  5
CE
100
AcDbEntity
  8
SCHRAFFUR
 62
     7
100
AcDbLine
 10
139.428526
 20
106.460685
 30
0.0
 11
143.73903
 21
110.771533
 31
0.0
  0
LINE
  5
CD
100
AcDbEntity
  8
SCHRAFFUR
 62
     7
100
AcDbLine
 10
145.894282
 20
112.92644
 30
0.0
 11
150.204785
 21
117.237288
 31
0.0
  0
LINE
  5
CC
100
AcDbEntity
  8
SCHRAFFUR
 62
     7
100
AcDbLine
 10
152.360037
 20
119.392196
 30
0.0
 11
153.108312
 21
120.14047
 31
0.0
  0
LINE
  5
CB
100
AcDbEntity
  8
SCHRAFFUR
 62
     7
100
AcDbLine
 10
143.096175
 20
92.88632
 30
0.0
 11
145.894282
 21
95.684771
 31
0.0
  0
LINE
  5
CA
100
AcDbEntity
  8
SCHRAFFUR
 62
     7
100
AcDbLine
 10
148.049878
 20
97.840023
 30
0.0
 11
152.360037
 21
102.150526
 31
0.0
  0
LINE
  5
C8
100
AcDbEntity
  8
EBENE_13
 62
     7
100
AcDbLine
 10
152.537115
 20
174.072751
 30
0.0
 11
153.153787
 21
173.456079
 31
0.0
  0
LINE
  5
C7
100
AcDbEntity
  8
EBENE_13
 62
     7
100
AcDbLine
 10
148.226611
 20
174.072751
 30
0.0
 11
152.165044
 21
170.13449
 31
0.0
  0
LINE
  5
C6
100
AcDbEntity
  8
EBENE_13
 62
     7
100
AcDbLine
 10
144.323663
 20
173.665369
 30
0.0
 11
147.854541
 21
170.13449
 31
0.0
  0
LINE
  5
C5
100
AcDbEntity
  8
EBENE_13
 62
     7
100
AcDbLine
 10
139.605604
 20
174.072751
 30
0.0
 11
143.544038
 21
170.13449
 31
0.0
  0
LINE
  5
C4
100
AcDbEntity
  8
EBENE_13
 62
     7
100
AcDbLine
 10
135.295101
 20
174.072751
 30
0.0
 11
139.233534
 21
170.13449
 31
0.0
  0
LINE
  5
C3
100
AcDbEntity
  8
EBENE_13
 62
     7
100
AcDbLine
 10
130.984597
 20
174.072751
 30
0.0
 11
131.08106
 21
173.976461
 31
0.0
  0
LINE
  5
C2
100
AcDbEntity
  8
EBENE_13
 62
     7
100
AcDbLine
 10
131.349778
 20
173.707571
 30
0.0
 11
134.923031
 21
170.13449
 31
0.0
  0
LINE
  5
C1
100
AcDbEntity
  8
EBENE_13
 62
     7
100
AcDbLine
 10
126.965549
 20
173.781641
 30
0.0
 11
130.612527
 21
170.13449
 31
0.0
  0
LINE
  5
C0
100
AcDbEntity
  8
EBENE_13
 62
     7
100
AcDbLine
 10
122.36359
 20
174.072751
 30
0.0
 11
126.302024
 21
170.13449
 31
0.0
  0
LINE
  5
BF
100
AcDbEntity
  8
EBENE_13
 62
     7
100
AcDbLine
 10
118.053087
 20
174.072751
 30
0.0
 11
121.99152
 21
170.13449
 31
0.0
  0
LINE
  5
BE
100
AcDbEntity
  8
EBENE_13
 62
     7
100
AcDbLine
 10
113.742584
 20
174.072751
 30
0.0
 11
117.681017
 21
170.13449
 31
0.0
  0
LINE
  5
BD
100
AcDbEntity
  8
EBENE_13
 62
     7
100
AcDbLine
 10
109.43208
 20
174.072751
 30
0.0
 11
113.370513
 21
170.13449
 31
0.0
  0
LINE
  5
BC
100
AcDbEntity
  8
EBENE_13
 62
     7
100
AcDbLine
 10
105.471943
 20
173.722385
 30
0.0
 11
109.06001
 21
170.13449
 31
0.0
  0
LINE
  5
BB
100
AcDbEntity
  8
EBENE_13
 62
     7
100
AcDbLine
 10
100.810901
 20
174.072751
 30
0.0
 11
104.749334
 21
170.13449
 31
0.0
  0
LINE
  5
BA
100
AcDbEntity
  8
EBENE_13
 62
     7
100
AcDbLine
 10
100.265198
 20
170.308123
 30
0.0
 11
100.438831
 21
170.13449
 31
0.0
  0
LINE
  5
B9
100
AcDbEntity
  8
EBENE_13
 62
     7
100
AcDbLine
 10
100.265198
 20
125.912383
 30
0.0
 11
100.438831
 21
126.086016
 31
0.0
  0
LINE
  5
B8
100
AcDbEntity
  8
EBENE_13
 62
     7
100
AcDbLine
 10
100.810901
 20
122.147583
 30
0.0
 11
104.749334
 21
126.086016
 31
0.0
  0
LINE
  5
B7
100
AcDbEntity
  8
EBENE_13
 62
     7
100
AcDbLine
 10
105.471943
 20
122.497605
 30
0.0
 11
109.06001
 21
126.086016
 31
0.0
  0
LINE
  5
B6
100
AcDbEntity
  8
EBENE_13
 62
     7
100
AcDbLine
 10
109.43208
 20
122.147583
 30
0.0
 11
113.370513
 21
126.086016
 31
0.0
  0
LINE
  5
B5
100
AcDbEntity
  8
EBENE_13
 62
     7
100
AcDbLine
 10
113.742584
 20
122.147583
 30
0.0
 11
117.681017
 21
126.086016
 31
0.0
  0
LINE
  5
B4
100
AcDbEntity
  8
EBENE_13
 62
     7
100
AcDbLine
 10
118.053087
 20
122.147583
 30
0.0
 11
121.99152
 21
126.086016
 31
0.0
  0
LINE
  5
B3
100
AcDbEntity
  8
EBENE_13
 62
     7
100
AcDbLine
 10
122.36359
 20
122.147583
 30
0.0
 11
126.302024
 21
126.086016
 31
0.0
  0
LINE
  5
B2
100
AcDbEntity
  8
EBENE_13
 62
     7
100
AcDbLine
 10
126.965549
 20
122.439038
 30
0.0
 11
130.612527
 21
126.086016
 31
0.0
  0
LINE
  5
B1
100
AcDbEntity
  8
EBENE_13
 62
     7
100
AcDbLine
 10
130.984597
 20
122.147583
 30
0.0
 11
131.08106
 21
122.244046
 31
0.0
  0
LINE
  5
B0
100
AcDbEntity
  8
EBENE_13
 62
     7
100
AcDbLine
 10
131.349778
 20
122.512763
 30
0.0
 11
134.923031
 21
126.086016
 31
0.0
  0
LINE
  5
AF
100
AcDbEntity
  8
EBENE_13
 62
     7
100
AcDbLine
 10
135.295101
 20
122.147583
 30
0.0
 11
139.233534
 21
126.086016
 31
0.0
  0
LINE
  5
AE
100
AcDbEntity
  8
EBENE_13
 62
     7
100
AcDbLine
 10
139.605604
 20
122.147583
 30
0.0
 11
143.544038
 21
126.086016
 31
0.0
  0
LINE
  5
AD
100
AcDbEntity
  8
EBENE_13
 62
     7
100
AcDbLine
 10
144.323663
 20
122.554793
 30
0.0
 11
147.854541
 21
126.086016
 31
0.0
  0
LINE
  5
AC
100
AcDbEntity
  8
EBENE_13
 62
     7
100
AcDbLine
 10
148.226611
 20
122.147583
 30
0.0
 11
152.165044
 21
126.086016
 31
0.0
  0
LINE
  5
AB
100
AcDbEntity
  8
EBENE_13
 62
     7
100
AcDbLine
 10
152.537115
 20
122.147583
 30
0.0
 11
153.153787
 21
122.764255
 31
0.0
  0
SPLINE
  5
AA
100
AcDbEntity
  8
EBENE_13
 62
     7
100
AcDbSpline
210
0.0
220
0.0
230
1.0
 70
     8
 71
     3
 72
    11
 73
     7
 74
     0
 42
0.00000001
 43
0.00000001
 40
0.0
 40
0.0
 40
0.0
 40
0.0
 40
1.0
 40
1.0
 40
1.0
 40
2.0
 40
2.0
 40
2.0
 40
2.0
 10
105.78234592013888
 20
174.07275119357638
 30
0.0
 10
105.45971272786457
 20
173.51447347005208
 30
0.0
 10
104.74571668836805
 20
173.3230984157986
 30
0.0
 10
104.18709445529512
 20
173.64538709852428
 30
0.0
 10
104.00984429253471
 20
173.7480509440104
 30
0.0
 10
103.86239420572916
 20
173.89550103081595
 30
0.0
 10
103.75990261501735
 20
174.07275119357638
 30
0.0
  0
SPLINE
  5
A9
100
AcDbEntity
  8
EBENE_13
 62
     7
100
AcDbSpline
210
0.0
220
0.0
230
1.0
 70
     8
 71
     3
 72
    11
 73
     7
 74
     0
 42
0.00000001
 43
0.00000001
 40
0.0
 40
0.0
 40
0.0
 40
0.0
 40
1.0
 40
1.0
 40
1.0
 40
2.0
 40
2.0
 40
2.0
 40
2.0
 10
144.71743706597221
 20
174.07275119357638
 30
0.0
 10
144.39497612847222
 20
173.51447347005208
 30
0.0
 10
143.68080783420137
 20
173.3230984157986
 30
0.0
 10
143.12235785590278
 20
173.64538709852428
 30
0.0
 10
142.94493543836805
 20
173.7480509440104
 30
0.0
 10
142.7974853515625
 20
173.89550103081595
 30
0.0
 10
142.69482150607638
 20
174.07275119357638
 30
0.0
  0
SPLINE
  5
A8
100
AcDbEntity
  8
EBENE_13
 62
     7
100
AcDbSpline
210
0.0
220
0.0
230
1.0
 70
     8
 71
     3
 72
    11
 73
     7
 74
     0
 42
0.00000001
 43
0.00000001
 40
0.0
 40
0.0
 40
0.0
 40
0.0
 40
1.0
 40
1.0
 40
1.0
 40
2.0
 40
2.0
 40
2.0
 40
2.0
 10
150.5554958767361
 20
174.07275119357638
 30
0.0
 10
150.23303493923609
 20
173.51447347005208
 30
0.0
 10
149.51921115451387
 20
173.3230984157986
 30
0.0
 10
148.96041666666665
 20
173.64538709852428
 30
0.0
 10
148.78299424913192
 20
173.7480509440104
 30
0.0
 10
148.63554416232637
 20
173.89550103081595
 30
0.0
 10
148.53322482638887
 20
174.07275119357638
 30
0.0
  0
SPLINE
  5
A7
100
AcDbEntity
  8
EBENE_13
 62
     7
100
AcDbSpline
210
0.0
220
0.0
230
1.0
 70
     8
 71
     3
 72
    11
 73
     7
 74
     0
 42
0.00000001
 43
0.00000001
 40
0.0
 40
0.0
 40
0.0
 40
0.0
 40
1.0
 40
1.0
 40
1.0
 40
2.0
 40
2.0
 40
2.0
 40
2.0
 10
138.87903374565971
 20
174.07275119357638
 30
0.0
 10
138.55691731770833
 20
173.51447347005208
 30
0.0
 10
137.84274902343748
 20
173.3230984157986
 30
0.0
 10
137.28429904513888
 20
173.64538709852428
 30
0.0
 10
137.10653211805555
 20
173.7480509440104
 30
0.0
 10
136.9594265407986
 20
173.89550103081595
 30
0.0
 10
136.85676269531248
 20
174.07275119357638
 30
0.0
  0
SPLINE
  5
A6
100
AcDbEntity
  8
EBENE_13
 62
     7
100
AcDbSpline
210
0.0
220
0.0
230
1.0
 70
     8
 71
     3
 72
    11
 73
     7
 74
     0
 42
0.00000001
 43
0.00000001
 40
0.0
 40
0.0
 40
0.0
 40
0.0
 40
1.0
 40
1.0
 40
1.0
 40
2.0
 40
2.0
 40
2.0
 40
2.0
 10
133.04131944444444
 20
174.07275119357638
 30
0.0
 10
132.71885850694443
 20
173.51447347005208
 30
0.0
 10
132.00469021267361
 20
173.3230984157986
 30
0.0
 10
131.44624023437498
 20
173.64538709852428
 30
0.0
 10
131.26881781684025
 20
173.7480509440104
 30
0.0
 10
131.12102322048611
 20
173.89550103081595
 30
0.0
 10
131.01904839409721
 20
174.07275119357638
 30
0.0
  0
SPLINE
  5
A5
100
AcDbEntity
  8
EBENE_13
 62
     7
100
AcDbSpline
210
0.0
220
0.0
230
1.0
 70
     8
 71
     3
 72
    11
 73
     7
 74
     0
 42
0.00000001
 43
0.00000001
 40
0.0
 40
0.0
 40
0.0
 40
0.0
 40
1.0
 40
1.0
 40
1.0
 40
2.0
 40
2.0
 40
2.0
 40
2.0
 10
127.20326063368054
 20
174.07275119357638
 30
0.0
 10
126.88079969618055
 20
173.51447347005208
 30
0.0
 10
126.1662868923611
 20
173.3230984157986
 30
0.0
 10
125.6081814236111
 20
173.64538709852428
 30
0.0
 10
125.43041449652776
 20
173.7480509440104
 30
0.0
 10
125.28296440972221
 20
173.89550103081595
 30
0.0
 10
125.18064507378472
 20
174.07275119357638
 30
0.0
  0
SPLINE
  5
A4
100
AcDbEntity
  8
EBENE_13
 62
     7
100
AcDbSpline
210
0.0
220
0.0
230
1.0
 70
     8
 71
     3
 72
    11
 73
     7
 74
     0
 42
0.00000001
 43
0.00000001
 40
0.0
 40
0.0
 40
0.0
 40
0.0
 40
1.0
 40
1.0
 40
1.0
 40
2.0
 40
2.0
 40
2.0
 40
2.0
 10
122.19478081597221
 20
174.07275119357638
 30
0.0
 10
121.87266438802082
 20
173.51447347005208
 30
0.0
 10
121.15849609374999
 20
173.3230984157986
 30
0.0
 10
120.60004611545138
 20
173.64538709852428
 30
0.0
 10
120.42262369791665
 20
173.7480509440104
 30
0.0
 10
120.2751736111111
 20
173.89550103081595
 30
0.0
 10
120.17250976562499
 20
174.07275119357638
 30
0.0
  0
SPLINE
  5
A3
100
AcDbEntity
  8
EBENE_13
 62
     7
100
AcDbSpline
210
0.0
220
0.0
230
1.0
 70
     8
 71
     3
 72
    11
 73
     7
 74
     0
 42
0.00000001
 43
0.00000001
 40
0.0
 40
0.0
 40
0.0
 40
0.0
 40
1.0
 40
1.0
 40
1.0
 40
2.0
 40
2.0
 40
2.0
 40
2.0
 10
116.62819552951387
 20
174.07275119357638
 30
0.0
 10
116.30573459201388
 20
173.51447347005208
 30
0.0
 10
115.59191080729165
 20
173.3230984157986
 30
0.0
 10
115.03346082899304
 20
173.64538709852428
 30
0.0
 10
114.85569390190972
 20
173.7480509440104
 30
0.0
 10
114.70858832465277
 20
173.89550103081595
 30
0.0
 10
114.60592447916666
 20
174.07275119357638
 30
0.0
  0
SPLINE
  5
A2
100
AcDbEntity
  8
EBENE_13
 62
     7
100
AcDbSpline
210
0.0
220
0.0
230
1.0
 70
     8
 71
     3
 72
    11
 73
     7
 74
     0
 42
0.00000001
 43
0.00000001
 40
0.0
 40
0.0
 40
0.0
 40
0.0
 40
1.0
 40
1.0
 40
1.0
 40
2.0
 40
2.0
 40
2.0
 40
2.0
 10
111.62040473090276
 20
174.07275119357638
 30
0.0
 10
111.29794379340277
 20
173.51447347005208
 30
0.0
 10
110.58377549913193
 20
173.3230984157986
 30
0.0
 10
110.02532552083332
 20
173.64538709852428
 30
0.0
 10
109.84790310329861
 20
173.7480509440104
 30
0.0
 10
109.70045301649304
 20
173.89550103081595
 30
0.0
 10
109.59813368055555
 20
174.07275119357638
 30
0.0
  0
LINE
  5
A1
100
AcDbEntity
  8
EBENE_13
 62
     7
100
AcDbLine
 10
142.694822
 20
174.072751
 30
0.0
 11
138.879034
 21
174.072751
 31
0.0
  0
LINE
  5
A0
100
AcDbEntity
  8
EBENE_13
 62
     7
100
AcDbLine
 10
120.17251
 20
174.072751
 30
0.0
 11
116.628196
 21
174.072751
 31
0.0
  0
LINE
  5
9F
100
AcDbEntity
  8
EBENE_13
 62
     7
100
AcDbLine
 10
105.782346
 20
174.072751
 30
0.0
 11
109.598134
 21
174.072751
 31
0.0
  0
LINE
  5
9E
100
AcDbEntity
  8
EBENE_13
 62
     7
100
AcDbLine
 10
100.265198
 20
174.072751
 30
0.0
 11
103.759903
 21
174.072751
 31
0.0
  0
LINE
  5
9D
100
AcDbEntity
  8
EBENE_13
 62
     7
100
AcDbLine
 10
114.605924
 20
174.072751
 30
0.0
 11
111.620405
 21
174.072751
 31
0.0
  0
LINE
  5
9C
100
AcDbEntity
  8
EBENE_13
 62
     7
100
AcDbLine
 10
131.019048
 20
174.072751
 30
0.0
 11
127.203261
 21
174.072751
 31
0.0
  0
LINE
  5
9B
100
AcDbEntity
  8
EBENE_13
 62
     7
100
AcDbLine
 10
125.180645
 20
174.072751
 30
0.0
 11
122.194781
 21
174.072751
 31
0.0
  0
LINE
  5
9A
100
AcDbEntity
  8
EBENE_13
 62
     7
100
AcDbLine
 10
136.856763
 20
174.072751
 30
0.0
 11
133.041319
 21
174.072751
 31
0.0
  0
LINE
  5
99
100
AcDbEntity
  8
EBENE_13
 62
     7
100
AcDbLine
 10
148.533225
 20
174.072751
 30
0.0
 11
144.717437
 21
174.072751
 31
0.0
  0
LINE
  5
98
100
AcDbEntity
  8
EBENE_13
 62
     7
100
AcDbLine
 10
153.153787
 20
174.072751
 30
0.0
 11
150.555496
 21
174.072751
 31
0.0
  0
SPLINE
  5
97
100
AcDbEntity
  8
EBENE_13
 62
     7
100
AcDbSpline
210
0.0
220
0.0
230
1.0
 70
     8
 71
     3
 72
    11
 73
     7
 74
     0
 42
0.00000001
 43
0.00000001
 40
0.0
 40
0.0
 40
0.0
 40
0.0
 40
1.0
 40
1.0
 40
1.0
 40
2.0
 40
2.0
 40
2.0
 40
2.0
 10
105.78234592013888
 20
122.14758300781249
 30
0.0
 10
105.45971272786457
 20
122.70568847656249
 30
0.0
 10
104.74571668836805
 20
122.89723578559027
 30
0.0
 10
104.18709445529512
 20
122.57477484809027
 30
0.0
 10
104.00984429253471
 20
122.47211100260415
 30
0.0
 10
103.86239420572916
 20
122.32534993489583
 30
0.0
 10
103.75990261501735
 20
122.14758300781249
 30
0.0
  0
SPLINE
  5
96
100
AcDbEntity
  8
EBENE_13
 62
     7
100
AcDbSpline
210
0.0
220
0.0
230
1.0
 70
     8
 71
     3
 72
    11
 73
     7
 74
     0
 42
0.00000001
 43
0.00000001
 40
0.0
 40
0.0
 40
0.0
 40
0.0
 40
1.0
 40
1.0
 40
1.0
 40
2.0
 40
2.0
 40
2.0
 40
2.0
 10
144.71743706597221
 20
122.14758300781249
 30
0.0
 10
144.39497612847222
 20
122.70568847656249
 30
0.0
 10
143.68080783420137
 20
122.89723578559027
 30
0.0
 10
143.12235785590278
 20
122.57477484809027
 30
0.0
 10
142.94493543836805
 20
122.47211100260415
 30
0.0
 10
142.7974853515625
 20
122.32534993489583
 30
0.0
 10
142.69482150607638
 20
122.14758300781249
 30
0.0
  0
SPLINE
  5
95
100
AcDbEntity
  8
EBENE_13
 62
     7
100
AcDbSpline
210
0.0
220
0.0
230
1.0
 70
     8
 71
     3
 72
    11
 73
     7
 74
     0
 42
0.00000001
 43
0.00000001
 40
0.0
 40
0.0
 40
0.0
 40
0.0
 40
1.0
 40
1.0
 40
1.0
 40
2.0
 40
2.0
 40
2.0
 40
2.0
 10
150.5554958767361
 20
122.14758300781249
 30
0.0
 10
150.23303493923609
 20
122.70568847656249
 30
0.0
 10
149.51921115451387
 20
122.89723578559027
 30
0.0
 10
148.96041666666665
 20
122.57477484809027
 30
0.0
 10
148.78299424913192
 20
122.47211100260415
 30
0.0
 10
148.63554416232637
 20
122.32534993489583
 30
0.0
 10
148.53322482638887
 20
122.14758300781249
 30
0.0
  0
SPLINE
  5
94
100
AcDbEntity
  8
EBENE_13
 62
     7
100
AcDbSpline
210
0.0
220
0.0
230
1.0
 70
     8
 71
     3
 72
    11
 73
     7
 74
     0
 42
0.00000001
 43
0.00000001
 40
0.0
 40
0.0
 40
0.0
 40
0.0
 40
1.0
 40
1.0
 40
1.0
 40
2.0
 40
2.0
 40
2.0
 40
2.0
 10
138.87903374565971
 20
122.14758300781249
 30
0.0
 10
138.55691731770833
 20
122.70568847656249
 30
0.0
 10
137.84274902343748
 20
122.89723578559027
 30
0.0
 10
137.28429904513888
 20
122.57477484809027
 30
0.0
 10
137.10653211805555
 20
122.47211100260415
 30
0.0
 10
136.9594265407986
 20
122.32534993489583
 30
0.0
 10
136.85676269531248
 20
122.14758300781249
 30
0.0
  0
SPLINE
  5
93
100
AcDbEntity
  8
EBENE_13
 62
     7
100
AcDbSpline
210
0.0
220
0.0
230
1.0
 70
     8
 71
     3
 72
    11
 73
     7
 74
     0
 42
0.00000001
 43
0.00000001
 40
0.0
 40
0.0
 40
0.0
 40
0.0
 40
1.0
 40
1.0
 40
1.0
 40
2.0
 40
2.0
 40
2.0
 40
2.0
 10
133.04131944444444
 20
122.14758300781249
 30
0.0
 10
132.71885850694443
 20
122.70568847656249
 30
0.0
 10
132.00469021267361
 20
122.89723578559027
 30
0.0
 10
131.44624023437498
 20
122.57477484809027
 30
0.0
 10
131.26881781684025
 20
122.47211100260415
 30
0.0
 10
131.12102322048611
 20
122.32534993489583
 30
0.0
 10
131.01904839409721
 20
122.14758300781249
 30
0.0
  0
SPLINE
  5
92
100
AcDbEntity
  8
EBENE_13
 62
     7
100
AcDbSpline
210
0.0
220
0.0
230
1.0
 70
     8
 71
     3
 72
    11
 73
     7
 74
     0
 42
0.00000001
 43
0.00000001
 40
0.0
 40
0.0
 40
0.0
 40
0.0
 40
1.0
 40
1.0
 40
1.0
 40
2.0
 40
2.0
 40
2.0
 40
2.0
 10
127.20326063368054
 20
122.14758300781249
 30
0.0
 10
126.88079969618055
 20
122.70568847656249
 30
0.0
 10
126.1662868923611
 20
122.89723578559027
 30
0.0
 10
125.6081814236111
 20
122.57477484809027
 30
0.0
 10
125.43041449652776
 20
122.47211100260415
 30
0.0
 10
125.28296440972221
 20
122.32534993489583
 30
0.0
 10
125.18064507378472
 20
122.14758300781249
 30
0.0
  0
SPLINE
  5
91
100
AcDbEntity
  8
EBENE_13
 62
     7
100
AcDbSpline
210
0.0
220
0.0
230
1.0
 70
     8
 71
     3
 72
    11
 73
     7
 74
     0
 42
0.00000001
 43
0.00000001
 40
0.0
 40
0.0
 40
0.0
 40
0.0
 40
1.0
 40
1.0
 40
1.0
 40
2.0
 40
2.0
 40
2.0
 40
2.0
 10
122.19478081597221
 20
122.14758300781249
 30
0.0
 10
121.87266438802082
 20
122.70568847656249
 30
0.0
 10
121.15849609374999
 20
122.89723578559027
 30
0.0
 10
120.60004611545138
 20
122.57477484809027
 30
0.0
 10
120.42262369791665
 20
122.47211100260415
 30
0.0
 10
120.2751736111111
 20
122.32534993489583
 30
0.0
 10
120.17250976562499
 20
122.14758300781249
 30
0.0
  0
SPLINE
  5
90
100
AcDbEntity
  8
EBENE_13
 62
     7
100
AcDbSpline
210
0.0
220
0.0
230
1.0
 70
     8
 71
     3
 72
    11
 73
     7
 74
     0
 42
0.00000001
 43
0.00000001
 40
0.0
 40
0.0
 40
0.0
 40
0.0
 40
1.0
 40
1.0
 40
1.0
 40
2.0
 40
2.0
 40
2.0
 40
2.0
 10
116.62819552951387
 20
122.14758300781249
 30
0.0
 10
116.30573459201388
 20
122.70568847656249
 30
0.0
 10
115.59191080729165
 20
122.89723578559027
 30
0.0
 10
115.03346082899304
 20
122.57477484809027
 30
0.0
 10
114.85569390190972
 20
122.47211100260415
 30
0.0
 10
114.70858832465277
 20
122.32534993489583
 30
0.0
 10
114.60592447916666
 20
122.14758300781249
 30
0.0
  0
SPLINE
  5
8F
100
AcDbEntity
  8
EBENE_13
 62
     7
100
AcDbSpline
210
0.0
220
0.0
230
1.0
 70
     8
 71
     3
 72
    11
 73
     7
 74
     0
 42
0.00000001
 43
0.00000001
 40
0.0
 40
0.0
 40
0.0
 40
0.0
 40
1.0
 40
1.0
 40
1.0
 40
2.0
 40
2.0
 40
2.0
 40
2.0
 10
111.62040473090276
 20
122.14758300781249
 30
0.0
 10
111.29794379340277
 20
122.70568847656249
 30
0.0
 10
110.58377549913193
 20
122.89723578559027
 30
0.0
 10
110.02532552083332
 20
122.57477484809027
 30
0.0
 10
109.84790310329861
 20
122.47211100260415
 30
0.0
 10
109.70045301649304
 20
122.32534993489583
 30
0.0
 10
109.59813368055555
 20
122.14758300781249
 30
0.0
  0
LINE
  5
8E
100
AcDbEntity
  8
EBENE_13
 62
     7
100
AcDbLine
 10
142.694822
 20
122.147583
 30
0.0
 11
138.879034
 21
122.147583
 31
0.0
  0
LINE
  5
8D
100
AcDbEntity
  8
EBENE_13
 62
     7
100
AcDbLine
 10
120.17251
 20
122.147583
 30
0.0
 11
116.628196
 21
122.147583
 31
0.0
  0
LINE
  5
8C
100
AcDbEntity
  8
EBENE_13
 62
     7
100
AcDbLine
 10
105.782346
 20
122.147583
 30
0.0
 11
109.598134
 21
122.147583
 31
0.0
  0
LINE
  5
8B
100
AcDbEntity
  8
EBENE_13
 62
     7
100
AcDbLine
 10
100.265198
 20
122.147583
 30
0.0
 11
103.759903
 21
122.147583
 31
0.0
  0
LINE
  5
8A
100
AcDbEntity
  8
EBENE_13
 62
     7
100
AcDbLine
 10
114.605924
 20
122.147583
 30
0.0
 11
111.620405
 21
122.147583
 31
0.0
  0
LINE
  5
89
100
AcDbEntity
  8
EBENE_13
 62
     7
100
AcDbLine
 10
131.019048
 20
122.147583
 30
0.0
 11
127.203261
 21
122.147583
 31
0.0
  0
LINE
  5
88
100
AcDbEntity
  8
EBENE_13
 62
     7
100
AcDbLine
 10
125.180645
 20
122.147583
 30
0.0
 11
122.194781
 21
122.147583
 31
0.0
  0
LINE
  5
87
100
AcDbEntity
  8
EBENE_13
 62
     7
100
AcDbLine
 10
136.856763
 20
122.147583
 30
0.0
 11
133.041319
 21
122.147583
 31
0.0
  0
LINE
  5
86
100
AcDbEntity
  8
EBENE_13
 62
     7
100
AcDbLine
 10
148.533225
 20
122.147583
 30
0.0
 11
144.717437
 21
122.147583
 31
0.0
  0
LINE
  5
85
100
AcDbEntity
  8
EBENE_13
 62
     7
100
AcDbLine
 10
153.153787
 20
122.147583
 30
0.0
 11
150.555496
 21
122.147583
 31
0.0
  0
LINE
  5
83
100
AcDbEntity
  8
MITTELLINIE
  6
AI9-LType1
 62
     7
100
AcDbLine
 10
164.151221
 20
148.014049
 30
0.0
 11
90.206897
 21
148.014049
 31
0.0
  0
LINE
  5
81
100
AcDbEntity
  8
MITTELLINIE
 62
     7
100
AcDbLine
 10
99.540866
 20
165.171141
 30
0.0
 11
111.635563
 21
165.171141
 31
0.0
  0
LINE
  5
80
100
AcDbEntity
  8
MITTELLINIE
 62
     7
100
AcDbLine
 10
99.374813
 20
130.856784
 30
0.0
 11
111.635563
 21
130.856784
 31
0.0
  0
LINE
  5
7E
100
AcDbEntity
  8
OBJEKT
 62
     7
100
AcDbLine
 10
153.108312
 20
170.065244
 30
0.0
 11
100.205425
 21
170.065244
 31
0.0
  0
LINE
  5
7D
100
AcDbEntity
  8
OBJEKT
 62
     7
100
AcDbLine
 10
100.205425
 20
170.065244
 30
0.0
 11
100.205425
 21
172.608241
 31
0.0
  0
LINE
  5
7C
100
AcDbEntity
  8
OBJEKT
 62
     7
100
AcDbLine
 10
153.108312
 20
125.963026
 30
0.0
 11
100.205425
 21
125.963026
 31
0.0
  0
LINE
  5
7B
100
AcDbEntity
  8
OBJEKT
 62
     7
100
AcDbLine
 10
100.205425
 20
125.963026
 30
0.0
 11
100.205425
 21
123.419857
 31
0.0
  0
LINE
  5
79
100
AcDbEntity
  8
AM_8
 62
     7
100
AcDbLine
 10
107.259258
 20
164.50641
 30
0.0
 11
90.827531
 21
172.186734
 31
0.0
  0
LINE
  5
78
100
AcDbEntity
  8
AM_8
 62
     7
100
AcDbLine
 10
104.672336
 20
158.5147
 30
0.0
 11
81.97777
 21
160.596054
 31
0.0
  0
INSERT
  5
73
100
AcDbEntity
  8
AM_0
 62
     7
100
AcDbBlockReference
  2
AI9-BLK2
 10
78.358438
 20
186.649847
 30
0.0
  0
LINE
  5
71
100
AcDbEntity
  8
AM_0
 62
     7
100
AcDbLine
 10
153.108312
 20
203.141778
 30
0.0
 11
153.108312
 21
160.142335
 31
0.0
  0
LINE
  5
70
100
AcDbEntity
  8
AM_0
 62
     7
100
AcDbLine
 10
100.205425
 20
92.88632
 30
0.0
 11
100.205425
 21
125.963026
 31
0.0
  0
LINE
  5
6F
100
AcDbEntity
  8
AM_0
 62
     7
100
AcDbLine
 10
100.205425
 20
170.065244
 30
0.0
 11
100.205425
 21
203.141778
 31
0.0
  0
LINE
  5
6E
100
AcDbEntity
  8
AM_0
 62
     7
100
AcDbLine
 10
153.108312
 20
170.065244
 30
0.0
 11
100.205425
 21
170.065244
 31
0.0
  0
LINE
  5
6D
100
AcDbEntity
  8
AM_0
 62
     7
100
AcDbLine
 10
153.108312
 20
125.963026
 30
0.0
 11
100.205425
 21
125.963026
 31
0.0
  0
LINE
  5
6C
100
AcDbEntity
  8
AM_0
 62
     7
100
AcDbLine
 10
100.205425
 20
125.963026
 30
0.0
 11
100.205425
 21
135.885935
 31
0.0
  0
LINE
  5
6B
100
AcDbEntity
  8
AM_0
 62
     7
100
AcDbLine
 10
100.205425
 20
160.142335
 30
0.0
 11
100.205425
 21
170.065244
 31
0.0
  0
LINE
  5
6A
100
AcDbEntity
  8
AM_0
 62
     7
100
AcDbLine
 10
101.308028
 20
160.142335
 30
0.0
 11
94.434546
 21
160.142335
 31
0.0
  0
LINE
  5
69
100
AcDbEntity
  8
AM_0
 62
     7
100
AcDbLine
 10
162.875846
 20
160.142335
 30
0.0
 11
111.646243
 21
160.142335
 31
0.0
  0
LINE
  5
68
100
AcDbEntity
  8
AM_0
 62
     7
100
AcDbLine
 10
162.875846
 20
135.885935
 30
0.0
 11
111.646243
 21
135.885935
 31
0.0
  0
LINE
  5
67
100
AcDbEntity
  8
AM_0
 62
     7
100
AcDbLine
 10
101.308028
 20
135.885935
 30
0.0
 11
94.434546
 21
135.885935
 31
0.0
  0
SPLINE
  5
66
100
AcDbEntity
  8
AM_0
 62
     7
100
AcDbSpline
210
0.0
220
0.0
230
1.0
 70
     8
 71
     3
 72
     8
 73
     4
 74
     0
 42
0.00000001
 43
0.00000001
 40
0.0
 40
0.0
 40
0.0
 40
0.0
 40
1.0
 40
1.0
 40
1.0
 40
1.0
 10
162.9516384548611
 20
145.32205132378471
 30
0.0
 10
164.40443522135416
 20
149.5105984157986
 30
0.0
 10
165.03178710937499
 20
153.94081895616318
 30
0.0
 10
164.79924316406249
 20
158.36793891059025
 30
0.0
  0
SPLINE
  5
65
100
AcDbEntity
  8
AM_0
 62
     7
100
AcDbSpline
210
0.0
220
0.0
230
1.0
 70
     8
 71
     3
 72
     8
 73
     4
 74
     0
 42
0.00000001
 43
0.00000001
 40
0.0
 40
0.0
 40
0.0
 40
0.0
 40
1.0
 40
1.0
 40
1.0
 40
1.0
 10
161.41547037760415
 20
151.69582248263887
 30
0.0
 10
161.8354275173611
 20
149.54987250434027
 30
0.0
 10
162.34805772569442
 20
147.42355957031248
 30
0.0
 10
162.9516384548611
 20
145.32205132378471
 30
0.0
  0
SPLINE
  5
64
100
AcDbEntity
  8
AM_0
 62
     7
100
AcDbSpline
210
0.0
220
0.0
230
1.0
 70
     8
 71
     3
 72
     8
 73
     4
 74
     0
 42
0.00000001
 43
0.00000001
 40
0.0
 40
0.0
 40
0.0
 40
0.0
 40
1.0
 40
1.0
 40
1.0
 40
1.0
 10
160.95589463975693
 20
158.40462917751734
 30
0.0
 10
160.83187120225693
 20
156.01648898654511
 30
0.0
 10
161.01446126302082
 20
153.62180311414929
 30
0.0
 10
161.49815266927081
 20
151.27982720269097
 30
0.0
  0
SPLINE
  5
63
100
AcDbEntity
  8
AM_0
 62
     7
100
AcDbSpline
210
0.0
220
0.0
230
1.0
 70
     8
 71
     3
 72
     8
 73
     4
 74
     0
 42
0.00000001
 43
0.00000001
 40
0.0
 40
0.0
 40
0.0
 40
0.0
 40
1.0
 40
1.0
 40
1.0
 40
1.0
 10
162.9516384548611
 20
145.32205132378471
 30
0.0
 10
163.8353054470486
 20
149.55848524305554
 30
0.0
 10
164.08851996527775
 20
153.90240614149303
 30
0.0
 10
163.70266927083333
 20
158.21273735894096
 30
0.0
  0
SPLINE
  5
62
100
AcDbEntity
  8
AM_0
 62
     7
100
AcDbSpline
210
0.0
220
0.0
230
1.0
 70
     8
 71
     3
 72
     8
 73
     4
 74
     0
 42
0.00000001
 43
0.00000001
 40
0.0
 40
0.0
 40
0.0
 40
0.0
 40
1.0
 40
1.0
 40
1.0
 40
1.0
 10
162.04902343749998
 20
158.21273735894096
 30
0.0
 10
161.74757758246525
 20
153.89482693142361
 30
0.0
 10
162.05143500434028
 20
149.55590142144095
 30
0.0
 10
162.9516384548611
 20
145.32205132378471
 30
0.0
  0
SPLINE
  5
61
100
AcDbEntity
  8
AM_0
 62
     7
100
AcDbSpline
210
0.0
220
0.0
230
1.0
 70
     8
 71
     3
 72
    11
 73
     7
 74
     0
 42
0.00000001
 43
0.00000001
 40
0.0
 40
0.0
 40
0.0
 40
0.0
 40
1.0
 40
1.0
 40
1.0
 40
2.0
 40
2.0
 40
2.0
 40
2.0
 10
163.70266927083333
 20
158.21273735894096
 30
0.0
 10
163.70266927083333
 20
158.66955702039928
 30
0.0
 10
163.33266601562499
 20
159.03956027560761
 30
0.0
 10
162.87584635416664
 20
159.03956027560761
 30
0.0
 10
162.41902669270831
 20
159.03956027560761
 30
0.0
 10
162.04902343749998
 20
158.66955702039928
 30
0.0
 10
162.04902343749998
 20
158.21273735894096
 30
0.0
  0
SPLINE
  5
60
100
AcDbEntity
  8
AM_0
 62
     7
100
AcDbSpline
210
0.0
220
0.0
230
1.0
 70
     8
 71
     3
 72
    11
 73
     7
 74
     0
 42
0.00000001
 43
0.00000001
 40
0.0
 40
0.0
 40
0.0
 40
0.0
 40
1.0
 40
1.0
 40
1.0
 40
2.0
 40
2.0
 40
2.0
 40
2.0
 10
164.80475531684027
 20
158.25356174045137
 30
0.0
 10
164.78201768663192
 20
159.31878526475694
 30
0.0
 10
163.90041775173609
 20
160.16421169704859
 30
0.0
 10
162.83484971788192
 20
160.14181857638889
 30
0.0
 10
161.78340657552081
 20
160.11959771050346
 30
0.0
 10
160.94314778645833
 20
159.25884060329861
 30
0.0
 10
160.94624837239581
 20
158.20670844184028
 30
0.0
  0
SPLINE
  5
5F
100
AcDbEntity
  8
AM_0
 62
     7
100
AcDbSpline
210
0.0
220
0.0
230
1.0
 70
     8
 71
     3
 72
     8
 73
     4
 74
     0
 42
0.00000001
 43
0.00000001
 40
0.0
 40
0.0
 40
0.0
 40
0.0
 40
1.0
 40
1.0
 40
1.0
 40
1.0
 10
162.9516384548611
 20
145.32205132378471
 30
0.0
 10
163.46736924913193
 20
143.00212402343749
 30
0.0
 10
164.05406901041664
 20
140.69838867187499
 30
0.0
 10
164.71035970052083
 20
138.41394585503471
 30
0.0
  0
LINE
  5
5E
100
AcDbEntity
  8
AM_0
 62
     7
100
AcDbLine
 10
103.072262
 20
170.065244
 30
0.0
 11
103.072262
 21
125.963026
 31
0.0
  0
SPLINE
  5
5D
100
AcDbEntity
  8
AM_0
 62
     7
100
AcDbSpline
210
0.0
220
0.0
230
1.0
 70
     8
 71
     3
 72
     8
 73
     4
 74
     0
 42
0.00000001
 43
0.00000001
 40
0.0
 40
0.0
 40
0.0
 40
0.0
 40
1.0
 40
1.0
 40
1.0
 40
1.0
 10
94.358753797743049
 20
150.70621880425347
 30
0.0
 10
92.906129286024296
 20
146.51784396701387
 30
0.0
 10
92.27877739800347
 20
142.08745117187499
 30
0.0
 10
92.51132134331597
 20
137.66050347222222
 30
0.0
  0
SPLINE
  5
5C
100
AcDbEntity
  8
AM_0
 62
     7
100
AcDbSpline
210
0.0
220
0.0
230
1.0
 70
     8
 71
     3
 72
     8
 73
     4
 74
     0
 42
0.00000001
 43
0.00000001
 40
0.0
 40
0.0
 40
0.0
 40
0.0
 40
1.0
 40
1.0
 40
1.0
 40
1.0
 10
94.358753797743049
 20
150.70621880425347
 30
0.0
 10
93.842850748697913
 20
153.02614610460068
 30
0.0
 10
93.25649549696179
 20
155.32988145616318
 30
0.0
 10
92.600549316406244
 20
157.61432427300346
 30
0.0
  0
SPLINE
  5
5B
100
AcDbEntity
  8
AM_0
 62
     7
100
AcDbSpline
210
0.0
220
0.0
230
1.0
 70
     8
 71
     3
 72
     8
 73
     4
 74
     0
 42
0.00000001
 43
0.00000001
 40
0.0
 40
0.0
 40
0.0
 40
0.0
 40
1.0
 40
1.0
 40
1.0
 40
1.0
 10
163.98585611979166
 20
136.23733452690971
 30
0.0
 10
164.56911078559025
 20
136.83815917968749
 30
0.0
 10
164.82852647569442
 20
137.68255208333332
 30
0.0
 10
164.68348795572916
 20
138.50730794270831
 30
0.0
  0
LINE
  5
5A
100
AcDbEntity
  8
AM_0
 62
     7
100
AcDbLine
 10
101.308028
 20
126.404343
 30
0.0
 11
101.308028
 21
169.624099
 31
0.0
  0
SPLINE
  5
59
100
AcDbEntity
  8
AM_0
 62
     7
100
AcDbSpline
210
0.0
220
0.0
230
1.0
 70
     8
 71
     3
 72
     8
 73
     4
 74
     0
 42
0.00000001
 43
0.00000001
 40
0.0
 40
0.0
 40
0.0
 40
0.0
 40
1.0
 40
1.0
 40
1.0
 40
1.0
 10
162.87584635416664
 20
135.88593478732636
 30
0.0
 10
163.27306586371526
 20
135.88593478732636
 30
0.0
 10
163.66063910590276
 20
136.00892469618054
 30
0.0
 10
163.98585611979166
 20
136.23733452690971
 30
0.0
  0
SPLINE
  5
58
100
AcDbEntity
  8
AM_0
 62
     7
100
AcDbSpline
210
0.0
220
0.0
230
1.0
 70
     8
 71
     3
 72
     8
 73
     4
 74
     0
 42
0.00000001
 43
0.00000001
 40
0.0
 40
0.0
 40
0.0
 40
0.0
 40
1.0
 40
1.0
 40
1.0
 40
1.0
 10
94.434545898437491
 20
160.14233534071178
 30
0.0
 10
94.037326388888886
 20
160.14233534071178
 30
0.0
 10
93.649580891927073
 20
160.01951768663193
 30
0.0
 10
93.324536132812497
 20
159.79093560112847
 30
0.0
  0
SPLINE
  5
57
100
AcDbEntity
  8
AM_0
 62
     7
100
AcDbSpline
210
0.0
220
0.0
230
1.0
 70
     8
 71
     3
 72
     8
 73
     4
 74
     0
 42
0.00000001
 43
0.00000001
 40
0.0
 40
0.0
 40
0.0
 40
0.0
 40
1.0
 40
1.0
 40
1.0
 40
1.0
 10
93.324536132812497
 20
159.79093560112847
 30
0.0
 10
92.741281467013877
 20
159.19011094835068
 30
0.0
 10
92.481865776909714
 20
158.34571804470485
 30
0.0
 10
92.627076551649296
 20
157.52096218532984
 30
0.0
  0
SPLINE
  5
56
100
AcDbEntity
  8
AM_0
 62
     7
100
AcDbSpline
210
0.0
220
0.0
230
1.0
 70
     8
 71
     3
 72
     8
 73
     4
 74
     0
 42
0.00000001
 43
0.00000001
 40
0.0
 40
0.0
 40
0.0
 40
0.0
 40
1.0
 40
1.0
 40
1.0
 40
1.0
 10
95.261541069878461
 20
137.81553276909722
 30
0.0
 10
95.562814670138877
 20
142.13361545138886
 30
0.0
 10
95.258957248263883
 20
146.47236870659722
 30
0.0
 10
94.358753797743049
 20
150.70621880425347
 30
0.0
  0
SPLINE
  5
55
100
AcDbEntity
  8
AM_0
 62
     7
100
AcDbSpline
210
0.0
220
0.0
230
1.0
 70
     8
 71
     3
 72
     8
 73
     4
 74
     0
 42
0.00000001
 43
0.00000001
 40
0.0
 40
0.0
 40
0.0
 40
0.0
 40
1.0
 40
1.0
 40
1.0
 40
1.0
 10
96.354842122395823
 20
137.62329644097221
 30
0.0
 10
96.478521050347211
 20
140.01178114149303
 30
0.0
 10
96.296447753906236
 20
142.40646701388889
 30
0.0
 10
95.812756347656247
 20
144.74844292534721
 30
0.0
  0
SPLINE
  5
54
100
AcDbEntity
  8
AM_0
 62
     7
100
AcDbSpline
210
0.0
220
0.0
230
1.0
 70
     8
 71
     3
 72
     8
 73
     4
 74
     0
 42
0.00000001
 43
0.00000001
 40
0.0
 40
0.0
 40
0.0
 40
0.0
 40
1.0
 40
1.0
 40
1.0
 40
1.0
 10
94.358753797743049
 20
150.70621880425347
 30
0.0
 10
93.475086805555549
 20
146.46961263020833
 30
0.0
 10
93.222216796874989
 20
142.12569173177081
 30
0.0
 10
93.60772298177082
 20
137.81553276909722
 30
0.0
  0
SPLINE
  5
53
100
AcDbEntity
  8
AM_0
 62
     7
100
AcDbSpline
210
0.0
220
0.0
230
1.0
 70
     8
 71
     3
 72
     8
 73
     4
 74
     0
 42
0.00000001
 43
0.00000001
 40
0.0
 40
0.0
 40
0.0
 40
0.0
 40
1.0
 40
1.0
 40
1.0
 40
1.0
 10
95.895438639322904
 20
144.332275390625
 30
0.0
 10
95.47530924479166
 20
146.47788085937498
 30
0.0
 10
94.962679036458326
 20
148.60471055772567
 30
0.0
 10
94.358753797743049
 20
150.70621880425347
 30
0.0
  0
SPLINE
  5
52
100
AcDbEntity
  8
AM_0
 62
     7
100
AcDbSpline
210
0.0
220
0.0
230
1.0
 70
     8
 71
     3
 72
    11
 73
     7
 74
     0
 42
0.00000001
 43
0.00000001
 40
0.0
 40
0.0
 40
0.0
 40
0.0
 40
1.0
 40
1.0
 40
1.0
 40
2.0
 40
2.0
 40
2.0
 40
2.0
 10
93.60772298177082
 20
137.81553276909722
 30
0.0
 10
93.60772298177082
 20
137.35871310763886
 30
0.0
 10
93.977898491753464
 20
136.98870985243053
 30
0.0
 10
94.434545898437491
 20
136.98870985243053
 30
0.0
 10
94.891365559895831
 20
136.98870985243053
 30
0.0
 10
95.261541069878461
 20
137.35871310763886
 30
0.0
 10
95.261541069878461
 20
137.81553276909722
 30
0.0
  0
SPLINE
  5
51
100
AcDbEntity
  8
AM_0
 62
     7
100
AcDbSpline
210
0.0
220
0.0
230
1.0
 70
     8
 71
     3
 72
    11
 73
     7
 74
     0
 42
0.00000001
 43
0.00000001
 40
0.0
 40
0.0
 40
0.0
 40
0.0
 40
1.0
 40
1.0
 40
1.0
 40
2.0
 40
2.0
 40
2.0
 40
2.0
 10
92.505636935763874
 20
137.7745361328125
 30
0.0
 10
92.528202311197902
 20
136.70896809895831
 30
0.0
 10
93.410319010416657
 20
135.86354166666666
 30
0.0
 10
94.475542534722209
 20
135.88627929687499
 30
0.0
 10
95.527502441406241
 20
135.90867241753472
 30
0.0
 10
96.367416720920133
 20
136.76960177951386
 30
0.0
 10
96.364143880208331
 20
137.821044921875
 30
0.0
  0
LINE
  5
50
100
AcDbEntity
  8
AM_0
 62
     7
100
AcDbLine
 10
109.88201
 20
126.404343
 30
0.0
 11
109.88201
 21
169.624099
 31
0.0
  0
LINE
  5
4F
100
AcDbEntity
  8
AM_0
 62
     7
100
AcDbLine
 10
111.646243
 20
169.624099
 30
0.0
 11
111.646243
 21
126.404343
 31
0.0
  0
LINE
  5
4E
100
AcDbEntity
  8
AM_0
 62
     7
100
AcDbLine
 10
109.88201
 20
125.963026
 30
0.0
 11
109.88201
 21
170.065244
 31
0.0
  0
LINE
  5
4D
100
AcDbEntity
  8
AM_0
 62
     7
100
AcDbLine
 10
111.646243
 20
126.404343
 30
0.0
 11
109.88201
 21
126.404343
 31
0.0
  0
LINE
  5
4C
100
AcDbEntity
  8
AM_0
 62
     7
100
AcDbLine
 10
109.88201
 20
169.624099
 30
0.0
 11
111.646243
 21
169.624099
 31
0.0
  0
LINE
  5
4B
100
AcDbEntity
  8
AM_0
 62
     7
100
AcDbLine
 10
107.482156
 20
170.065244
 30
0.0
 11
103.072262
 21
170.065244
 31
0.0
  0
LINE
  5
4A
100
AcDbEntity
  8
AM_0
 62
     7
100
AcDbLine
 10
103.072262
 20
125.963026
 30
0.0
 11
107.482156
 21
125.963026
 31
0.0
  0
LINE
  5
49
100
AcDbEntity
  8
AM_0
 62
     7
100
AcDbLine
 10
103.072262
 20
169.624099
 30
0.0
 11
103.072262
 21
126.404343
 31
0.0
  0
LINE
  5
48
100
AcDbEntity
  8
AM_0
 62
     7
100
AcDbLine
 10
101.308028
 20
169.624099
 30
0.0
 11
103.072262
 21
169.624099
 31
0.0
  0
LINE
  5
47
100
AcDbEntity
  8
AM_0
 62
     7
100
AcDbLine
 10
103.072262
 20
126.404343
 30
0.0
 11
101.308028
 21
126.404343
 31
0.0
  0
LINE
  5
46
100
AcDbEntity
  8
AM_0
 62
     7
100
AcDbLine
 10
153.108312
 20
125.963026
 30
0.0
 11
100.205425
 21
125.963026
 31
0.0
  0
LINE
  5
45
100
AcDbEntity
  8
AM_0
 62
     7
100
AcDbLine
 10
109.88201
 20
126.404343
 30
0.0
 11
111.646243
 21
126.404343
 31
0.0
  0
LINE
  5
44
100
AcDbEntity
  8
AM_0
 62
     7
100
AcDbLine
 10
107.482156
 20
125.963026
 30
0.0
 11
103.072262
 21
125.963026
 31
0.0
  0
LINE
  5
43
100
AcDbEntity
  8
AM_0
 62
     7
100
AcDbLine
 10
101.308028
 20
126.404343
 30
0.0
 11
103.072262
 21
126.404343
 31
0.0
  0
LINE
  5
42
100
AcDbEntity
  8
AM_0
 62
     7
100
AcDbLine
 10
153.108312
 20
135.885935
 30
0.0
 11
153.108312
 21
92.88632
 31
0.0
  0
LINE
  5
40
100
AcDbEntity
  8
TEXTSTRICH
 62
     7
100
AcDbLine
 10
71.987854
 20
184.703282
 30
0.0
 11
104.594305
 21
172.800477
 31
0.0
  0
LINE
  5
3F
100
AcDbEntity
  8
TEXTSTRICH
 62
     7
100
AcDbLine
 10
109.247423
 20
162.294142
 30
0.0
 11
71.853151
 21
166.131289
 31
0.0
  0
INSERT
  5
38
100
AcDbEntity
  8
TEXT
 62
     7
100
AcDbBlockReference
  2
AI9-BLK1
 10
63.841064
 20
159.314307
 30
0.0
  0
POLYLINE
  5
30
100
AcDbEntity
  8
RAHMEN
 62
     7
100
AcDb2dPolyline
 66
     1
 10
0.0
 20
0.0
 30
0.0
 70
     1
  0
VERTEX
  5
31
100
AcDbEntity
  8
RAHMEN
 62
     7
100
AcDbVertex
100
AcDb2dVertex
 10
24.520639
 20
221.677253
 30
0.0
  0
VERTEX
  5
32
100
AcDbEntity
  8
RAHMEN
 62
     7
100
AcDbVertex
100
AcDb2dVertex
 10
24.520639
 20
77.417497
 30
0.0
  0
VERTEX
  5
33
100
AcDbEntity
  8
RAHMEN
 62
     7
100
AcDbVertex
100
AcDb2dVertex
 10
186.188463
 20
77.417497
 30
0.0
  0
VERTEX
  5
34
100
AcDbEntity
  8
RAHMEN
 62
     7
100
AcDbVertex
100
AcDb2dVertex
 10
186.188463
 20
221.677253
 30
0.0
  0
SEQEND
  5
35
100
AcDbEntity
  8
RAHMEN
 62
     7
  0
POLYLINE
  5
2A
100
AcDbEntity
  8
RAHMEN
 62
     7
100
AcDb2dPolyline
 66
     1
 10
0.0
 20
0.0
 30
0.0
 70
     1
  0
VERTEX
  5
2B
100
AcDbEntity
  8
RAHMEN
 62
     7
100
AcDbVertex
100
AcDb2dVertex
 10
167.027875
 20
94.023201
 30
0.0
  0
VERTEX
  5
2C
100
AcDbEntity
  8
RAHMEN
 62
     7
100
AcDbVertex
100
AcDb2dVertex
 10
186.077875
 20
94.023201
 30
0.0
  0
VERTEX
  5
2D
100
AcDbEntity
  8
RAHMEN
 62
     7
100
AcDbVertex
100
AcDb2dVertex
 10
186.077875
 20
77.265568
 30
0.0
  0
VERTEX
  5
2E
100
AcDbEntity
  8
RAHMEN
 62
     7
100
AcDbVertex
100
AcDb2dVertex
 10
167.027875
 20
77.265568
 30
0.0
  0
SEQEND
  5
2F
100
AcDbEntity
  8
RAHMEN
 62
     7
  0
MTEXT
  5
29
100
AcDbEntity
  8
RAHMEN
 62
     7
100
AcDbMText
 10
168.174059
 20
91.5667
 30
0.0
 40
9.449404
 41
0.0
 71
     1
 72
     2
  1
\fMyriad Roman|b0|i0;\H9.4494;\C7;\U+0035\U+002E\U+0034
  7
STD
210
0.0
220
0.0
230
1.0
 73
     1
 44
1.0
  0
ENDSEC
  0
SECTION
  2
OBJECTS
  0
DICTIONARY
  5
19
100
AcDbDictionary
280
     0
281
     1
  3
ACAD_GROUP
350
1A
  3
ACAD_MLINESTYLE
350
1B
  3
ACAD_LAYOUT
350
1E
  3
ACAD_PLOTSETTINGS
350
22
  3
ACAD_PLOTSTYLENAME
350
1F
  3
ACAD_WIPEOUT_VARS
350
23
  0
DICTIONARY
  5
1A
102
{ACAD_REACTORS
330
19
102
}
100
AcDbDictionary
280
     0
281
     1
  0
DICTIONARY
  5
1B
102
{ACAD_REACTORS
330
19
102
}
100
AcDbDictionary
280
     0
281
     1
  3
Standard
350
1C
  0
MLINESTYLE
  5
1C
102
{ACAD_REACTORS
330
1B
102
}
100
AcDbMlineStyle
  2
Standard
 70
     0
  3

 62
     0
 51
90.0
 52
90.0
 71
     2
 49
0.5
 62
   256
  6
ByLayer
 49
-0.5
 62
   256
  6
ByLayer
  0
ACDBDICTIONARYWDFLT
  5
1F
102
{ACAD_REACTORS
330
19
102
}
100
AcDbDictionary
281
     1
  3
Normal
350
1D
100
AcDbDictionaryWithDefault
340
1D
  0
ACDBPLACEHOLDER
  5
1D
102
{ACAD_REACTORS
330
1F
102
}
  0
LAYOUT
  5
20
102
{ACAD_REACTORS
330
1E
102
}
100
AcDbPlotSettings
  1

  2

  4

  6

 40
0.0
 41
0.0
 42
0.0
 43
0.0
 44
0.0
 45
0.0
 46
0.0
 47
0.0
 48
0.0
 49
0.0
140
0.0
141
0.0
142
1.0
143
1.0
 70
  1024
 72
     0
 73
     0
 74
     0
  7

 75
     0
147
1.0
148
0.0
149
0.0
100
AcDbLayout
  1
Model
 70
     0
 71
     0
 10
0.0
 20
0.0
 11
0.0
 21
0.0
 12
0.0
 22
0.0
 32
0.0
 14
0.0
 24
0.0
 34
0.0
 15
0.0
 25
0.0
 35
0.0
146
0.0
 13
0.0
 23
0.0
 33
0.0
 16
0.0
 26
0.0
 36
0.0
 17
0.0
 27
0.0
 37
0.0
 76
     0
330
A
331
0
345
0
346
0
  0
LAYOUT
  5
21
102
{ACAD_REACTORS
330
1E
102
}
100
AcDbPlotSettings
  1

  2

  4

  6

 40
0.0
 41
0.0
 42
0.0
 43
0.0
 44
0.0
 45
0.0
 46
0.0
 47
0.0
 48
0.0
 49
0.0
140
0.0
141
0.0
142
1.0
143
1.0
 70
     0
 72
     0
 73
     0
 74
     0
  7

 75
     0
147
1.0
148
0.0
149
0.0
100
AcDbLayout
  1
Layout1
 70
     0
 71
     0
 10
0.0
 20
0.0
 11
0.0
 21
0.0
 12
0.0
 22
0.0
 32
0.0
 14
0.0
 24
0.0
 34
0.0
 15
0.0
 25
0.0
 35
0.0
146
0.0
 13
0.0
 23
0.0
 33
0.0
 16
0.0
 26
0.0
 36
0.0
 17
0.0
 27
0.0
 37
0.0
 76
     0
330
B
331
0
345
0
346
0
  0
DICTIONARY
  5
1E
102
{ACAD_REACTORS
330
19
102
}
100
AcDbDictionary
280
     0
281
     1
  3
Layout1
350
21
  3
Model
350
20
  0
DICTIONARY
  5
22
102
{ACAD_REACTORS
330
19
102
}
100
AcDbDictionary
280
     0
281
     1
  0
WIPEOUTVARIABLES
  5
23
100
AcDbWipeoutVariables
 70
     1
  0
ENDSEC
  0
EOF
