  0
SECTION
  2
HEADER
  9
$ACADVER
  1
AC1015
  9
$ACADMAINTVER
 70
     6
  9
$DWGCODEPAGE
  3
ANSI_932
  9
$INSBASE
 10
0.0
 20
0.0
 30
0.0
  9
$EXTMIN
 10
24.167862
 20
76.91279
 30
1.000000E+20
  9
$EXTMAX
 10
186.541241
 20
222.030031
 30
-1.000000E+20
  9
$LIMMIN
 10
24.167862
 20
76.91279
  9
$LIMMAX
 10
186.541241
 20
222.030031
  9
$ORTHOMODE
 70
     0
  9
$REGENMODE
 70
     1
  9
$FILLMODE
 70
     1
  9
$QTEXTMODE
 70
     0
  9
$MIRRTEXT
 70
     1
  9
$LTSCALE
 40
1.0
  9
$ATTMODE
 70
     1
  9
$TEXTSIZE
 40
0.2
  9
$TRACEWID
 40
0.05
  9
$TEXTSTYLE
  7
Standard
  9
$CLAYER
  8
0
  9
$CELTYPE
  6
Continuous
  9
$CECOLOR
 62
   256
  9
$CELTSCALE
 40
1.0
  9
$DISPSILH
 70
     0
  9
$DIMSCALE
 40
1.0
  9
$DIMASZ
 40
0.18
  9
$DIMEXO
 40
0.0625
  9
$DIMDLI
 40
0.38
  9
$DIMRND
 40
0.0
  9
$DIMDLE
 40
0.0
  9
$DIMEXE
 40
0.18
  9
$DIMTP
 40
0.0
  9
$DIMTM
 40
0.0
  9
$DIMTXT
 40
0.18
  9
$DIMCEN
 40
0.09
  9
$DIMTSZ
 40
0.0
  9
$DIMTOL
 70
     0
  9
$DIMLIM
 70
     0
  9
$DIMTIH
 70
     1
  9
$DIMTOH
 70
     1
  9
$DIMSE1
 70
     0
  9
$DIMSE2
 70
     0
  9
$DIMTAD
 70
     0
  9
$DIMZIN
 70
     0
  9
$DIMBLK
  1

  9
$DIMASO
 70
     1
  9
$DIMSHO
 70
     1
  9
$DIMPOST
  1

  9
$DIMAPOST
  1

  9
$DIMALT
 70
     0
  9
$DIMALTD
 70
     2
  9
$DIMALTF
 40
25.4
  9
$DIMLFAC
 40
1.0
  9
$DIMTOFL
 70
     0
  9
$DIMTVP
 40
0.0
  9
$DIMTIX
 70
     0
  9
$DIMSOXD
 70
     0
  9
$DIMSAH
 70
     0
  9
$DIMBLK1
  1

  9
$DIMBLK2
  1

  9
$DIMSTYLE
  2
Standard
  9
$DIMCLRD
 70
     0
  9
$DIMCLRE
 70
     0
  9
$DIMCLRT
 70
     0
  9
$DIMTFAC
 40
1.0
  9
$DIMGAP
 40
0.09
  9
$DIMJUST
 70
     0
  9
$DIMSD1
 70
     0
  9
$DIMSD2
 70
     0
  9
$DIMTOLJ
 70
     1
  9
$DIMTZIN
 70
     0
  9
$DIMALTZ
 70
     0
  9
$DIMALTTZ
 70
     0
  9
$DIMUPT
 70
     0
  9
$DIMDEC
 70
     4
  9
$DIMTDEC
 70
     4
  9
$DIMALTU
 70
     2
  9
$DIMALTTD
 70
     2
  9
$DIMTXSTY
  7
Standard
  9
$DIMAUNIT
 70
     0
  9
$DIMADEC
 70
     0
  9
$DIMALTRND
 40
0.0
  9
$DIMAZIN
 70
     0
  9
$DIMDSEP
 70
     0
  9
$DIMATFIT
 70
     3
  9
$DIMFRAC
 70
     0
  9
$DIMLDRBLK
  1

  9
$DIMLUNIT
 70
     2
  9
$DIMLWD
 70
     0
  9
$DIMLWE
 70
     0
  9
$DIMTMOVE
 70
     0
  9
$LUNITS
 70
     2
  9
$LUPREC
 70
     4
  9
$SKETCHINC
 40
0.1
  9
$FILLETRAD
 40
0.0
  9
$AUNITS
 70
     0
  9
$AUPREC
 70
     0
  9
$MENU
  1
acad
  9
$ELEVATION
 40
0.0
  9
$PELEVATION
 40
0.0
  9
$THICKNESS
 40
0.0
  9
$LIMCHECK
 70
     0
  9
$CHAMFERA
 40
0.0
  9
$CHAMFERB
 40
0.0
  9
$CHAMFERC
 40
0.0
  9
$CHAMFERD
 40
0.0
  9
$SKPOLY
 70
     0
  9
$TDCREATE
 40
0.000000000
  9
$TDUCREATE
 40
0.000000000
  9
$TDUPDATE
 40
0.000000000
  9
$TDUUPDATE
 40
0.000000000
  9
$TDINDWG
 40
0.0000000000
  9
$TDUSRTIMER
 40
0.0000000000
  9
$USRTIMER
 70
     1
  9
$ANGBASE
 50
0.0
  9
$ANGDIR
 70
     0
  9
$PDMODE
 70
     0
  9
$PDSIZE
 40
0.0
  9
$PLINEWID
 40
0.0
  9
$SPLFRAME
 70
     0
  9
$SPLINETYPE
 70
     6
  9
$SPLINESEGS
 70
     8
  9
$HANDSEED
  5
20F
  9
$SURFTAB1
 70
     6
  9
$SURFTAB2
 70
     6
  9
$SURFTYPE
 70
     6
  9
$SURFU
 70
     6
  9
$SURFV
 70
     6
  9
$UCSBASE
  2

  9
$UCSNAME
  2

  9
$UCSORG
 10
0.0
 20
0.0
 30
0.0
  9
$UCSXDIR
 10
1.0
 20
0.0
 30
0.0
  9
$UCSYDIR
 10
0.0
 20
1.0
 30
0.0
  9
$UCSORTHOREF
  2

  9
$UCSORTHOVIEW
 70
     0
  9
$UCSORGTOP
 10
0.0
 20
0.0
 30
0.0
  9
$UCSORGBOTTOM
 10
0.0
 20
0.0
 30
0.0
  9
$UCSORGLEFT
 10
0.0
 20
0.0
 30
0.0
  9
$UCSORGRIGHT
 10
0.0
 20
0.0
 30
0.0
  9
$UCSORGFRONT
 10
0.0
 20
0.0
 30
0.0
  9
$UCSORGBACK
 10
0.0
 20
0.0
 30
0.0
  9
$PUCSBASE
  2

  9
$PUCSNAME
  2

  9
$PUCSORG
 10
0.0
 20
0.0
 30
0.0
  9
$PUCSXDIR
 10
1.0
 20
0.0
 30
0.0
  9
$PUCSYDIR
 10
0.0
 20
1.0
 30
0.0
  9
$PUCSORTHOREF
  2

  9
$PUCSORTHOVIEW
 70
     0
  9
$PUCSORGTOP
 10
0.0
 20
0.0
 30
0.0
  9
$PUCSORGBOTTOM
 10
0.0
 20
0.0
 30
0.0
  9
$PUCSORGLEFT
 10
0.0
 20
0.0
 30
0.0
  9
$PUCSORGRIGHT
 10
0.0
 20
0.0
 30
0.0
  9
$PUCSORGFRONT
 10
0.0
 20
0.0
 30
0.0
  9
$PUCSORGBACK
 10
0.0
 20
0.0
 30
0.0
  9
$USERI1
 70
     0
  9
$USERI2
 70
     0
  9
$USERI3
 70
     0
  9
$USERI4
 70
     0
  9
$USERI5
 70
     0
  9
$USERR1
 40
0.0
  9
$USERR2
 40
0.0
  9
$USERR3
 40
0.0
  9
$USERR4
 40
0.0
  9
$USERR5
 40
0.0
  9
$WORLDVIEW
 70
     1
  9
$SHADEDGE
 70
     3
  9
$SHADEDIF
 70
    70
  9
$TILEMODE
 70
     1
  9
$MAXACTVP
 70
    16
  9
$PINSBASE
 10
0.0
 20
0.0
 30
0.0
  9
$PLIMCHECK
 70
     0
  9
$PEXTMIN
 10
1.000000E+20
 20
1.000000E+20
 30
1.000000E+20
  9
$PEXTMAX
 10
-1.000000E+20
 20
-1.000000E+20
 30
-1.000000E+20
  9
$PLIMMIN
 10
0.0
 20
0.0
  9
$PLIMMAX
 10
12.0
 20
9.0
  9
$UNITMODE
 70
     0
  9
$VISRETAIN
 70
     0
  9
$PLINEGEN
 70
     1
  9
$PSLTSCALE
 70
     0
  9
$TREEDEPTH
 70
  3020
  9
$CMLSTYLE
  2
Standard
  9
$CMLJUST
 70
     0
  9
$CMLSCALE
 40
1.0
  9
$PROXYGRAPHICS
 70
     0
  9
$MEASUREMENT
 70
     1
  9
$CELWEIGHT
370
     0
  9
$ENDCAPS
280
     0
  9
$JOINSTYLE
280
     0
  9
$LWDISPLAY
290
     0
  9
$INSUNITS
 70
     0
  9
$HYPERLINKBASE
  1

  9
$STYLESHEET
  1

  9
$XEDIT
290
     1
  9
$CEPSNTYPE
380
     0
  9
$PSTYLEMODE
290
     1
  9
$FINGERPRINTGUID
  2

  9
$VERSIONGUID
  2

  9
$EXTNAMES
290
     1
  9
$PSVPSCALE
 40
0.0
  0
ENDSEC
  0
SECTION
  2
CLASSES
  0
CLASS
  1
LWPOLYLINE
  2
AcDbPolyline
  3
AutoCAD 2000
 90
    32768
280
     0
281
     1
  0
CLASS
  1
IMAGE
  2
AcDbRasterImage
  3
ISM
 90
    32895
280
     0
281
     1
  0
CLASS
  1
OLE2FRAME
  2
AcDbOle2Frame
  3
AutoCAD 2000
 90
    32768
280
     0
281
     1
  0
CLASS
  1
HATCH
  2
AcDbHatch
  3
AutoCAD 2000
 90
        0
280
     0
281
     1
  0
CLASS
  1
DICTIONARYVAR
  2
AcDbDictionaryVar
  3
AutoCAD 2000
 90
    32768
280
     0
281
     0
  0
CLASS
  1
RASTERVARIABLES
  2
AcDbRasterVariables
  3
ISM
 90
    32768
280
     0
281
     0
  0
CLASS
  1
IMAGEDEF
  2
AcDbRasterImageDef
  3
ISM
 90
    32768
280
     0
281
     0
  0
CLASS
  1
IMAGEDEF_REACTOR
  2
AcDbRasterImageDefReactor
  3
ISM
 90
    32769
280
     0
281
     0
  0
CLASS
  1
IDBUFFER
  2
AcDbIdBuffer
  3
AutoCAD 2000
 90
    32768
280
     0
281
     0
  0
CLASS
  1
SPATIAL_FILTER
  2
AcDbSpatialFilter
  3
AutoCAD 2000
 90
    32768
280
     0
281
     0
  0
CLASS
  1
XRECORD
  2
AcDbXrecord
  3
AutoCAD 2000
 90
    32768
280
     0
281
     0
  0
CLASS
  1
SORTENTSTABLE
  2
AcDbSortentsTable
  3
AutoCAD 2000
 90
    32768
280
     0
281
     0
  0
CLASS
  1
LAYER_INDEX
  2
AcDbLayerIndex
  3
AutoCAD 2000
 90
    32768
280
     0
281
     0
  0
CLASS
  1
SPATIAL_INDEX
  2
AcDbSpatialIndex
  3
AutoCAD 2000
 90
    32768
280
     0
281
     0
  0
CLASS
  1
OBJECT_PTR
  2
CAseDLPNTableRecord
  3
"ASE-LPNTableRecord"
 90
    32769
280
     0
281
     0
  0
CLASS
  1
LAYOUT
  2
AcDbLayout
  3
AutoCAD 2000
 90
        0
280
     0
281
     0
  0
CLASS
  1
PLOTSETTINGS
  2
AcDbPlotSettings
  3
AutoCAD 2000
 90
    32768
280
     0
281
     0
  0
CLASS
  1
ACDBDICTIONARYWDFLT
  2
AcDbDictionaryWithDefault
  3
AutoCAD 2000
 90
        0
280
     0
281
     0
  0
CLASS
  1
ACDBPLACEHOLDER
  2
AcDbPlaceHolder
  3
AutoCAD 2000
 90
        0
280
     0
281
     0
  0
CLASS
  1
VBA_PROJECT
  2
AcDbVbaProject
  3
acadvba
 90
    32768
280
     0
281
     0
  0
CLASS
  1
WIPEOUT
  2
AcDbWipeout
  3
WipeOut|AutoCAD Express Tool|expresstools@autodesk.com
 90
    32895
280
     0
281
     1
  0
CLASS
  1
WIPEOUTVARIABLES
  2
AcDbWipeoutVariables
  3
WipeOut|AutoCAD Express Tool|expresstools@autodesk.com
 90
        0
280
     0
281
     0
  0
CLASS
  1
RTEXT
  2
RText
  3
RText|AutoCAD Express Tool|expresstools@autodesk.com
 90
    32768
280
     0
281
     1
  0
CLASS
  1
ARCALIGNEDTEXT
  2
AcDbArcAlignedText
  3
ATEXT|AutoCAD Express Tool|expresstools@autodesk.com
 90
    32768
280
     0
281
     1
  0
ENDSEC
  0
SECTION
  2
TABLES
  0
TABLE
  2
VPORT
  5
7
100
AcDbSymbolTable
 70
     1
  0
VPORT
  5
15
100
AcDbSymbolTableRecord
100
AcDbViewportTableRecord
  2
*ACTIVE
 70
     0
 10
0.0
 20
0.0
 11
1.0
 21
1.0
 12
6.591288
 22
4.579184
 13
0.0
 23
0.0
 14
1.0
 24
1.0
 15
0.0
 25
0.0
 16
0.0
 26
0.0
 36
1.0
 17
0.0
 27
0.0
 37
0.0
 40
9.158369
 41
0.688564
 42
50.0
 43
0.0
 44
0.0
 50
0.0
 51
0.0
 71
     0
 72
   100
 73
     1
 74
     1
 75
     0
 76
     0
 77
     0
 78
     0
281
     0
 65
     0
110
0.0
120
0.0
130
0.0
111
1.0
121
0.0
131
0.0
112
0.0
122
1.0
132
0.0
345
0
346
0
 79
     0
146
0.0
  0
ENDTAB
  0
TABLE
  2
LTYPE
  5
4
100
AcDbSymbolTable
 70
     5
  0
LTYPE
  5
11
100
AcDbSymbolTableRecord
100
AcDbLinetypeTableRecord
  2
ByBlock
 70
    64
  3

 72
    65
 73
     0
 40
0.0
  0
LTYPE
  5
12
100
AcDbSymbolTableRecord
100
AcDbLinetypeTableRecord
  2
ByLayer
 70
    64
  3

 72
    65
 73
     0
 40
0.0
  0
LTYPE
  5
13
100
AcDbSymbolTableRecord
100
AcDbLinetypeTableRecord
  2
Continuous
 70
    64
  3
Solid line
 72
    65
 73
     0
 40
0.0
  0
LTYPE
  5
7D
100
AcDbSymbolTableRecord
100
AcDbLinetypeTableRecord
  2
AI9-LType1
 70
    64
  3
Illustrator Dash Style No.1
 72
    65
 73
     4
 40
14.816667
 49
8.466667
 74
     0
 49
-2.822222
 74
     0
 49
0.705556
 74
     0
 49
-2.822222
 74
     0
  0
LTYPE
  5
156
100
AcDbSymbolTableRecord
100
AcDbLinetypeTableRecord
  2
AI9-LType2
 70
    64
  3
Illustrator Dash Style No.2
 72
    65
 73
     6
 40
17.638889
 49
8.466667
 74
     0
 49
-2.822222
 74
     0
 49
0.705556
 74
     0
 49
-2.116667
 74
     0
 49
0.705556
 74
     0
 49
-2.822222
 74
     0
  0
ENDTAB
  0
TABLE
  2
LAYER
  5
2
100
AcDbSymbolTable
 70
    13
  0
LAYER
  5
14
100
AcDbSymbolTableRecord
100
AcDbLayerTableRecord
  2
0
 70
     0
 62
     7
  6
Continuous
290
     1
370
    -3
390
1D
  0
LAYER
  5
28
100
AcDbSymbolTableRecord
100
AcDbLayerTableRecord
  2
TEXT
 70
     0
 62
     1
  6
Continuous
290
     1
370
    -3
390
1D
  0
LAYER
  5
37
100
AcDbSymbolTableRecord
100
AcDbLayerTableRecord
  2
AM_0
 70
     0
 62
   160
  6
Continuous
290
     1
370
    -3
390
1D
  0
LAYER
  5
74
100
AcDbSymbolTableRecord
100
AcDbLayerTableRecord
  2
AM_8
 70
     0
 62
     7
  6
Continuous
290
     1
370
    -3
390
1D
  0
LAYER
  5
78
100
AcDbSymbolTableRecord
100
AcDbLayerTableRecord
  2
OBJEKT
 70
     0
 62
   253
  6
Continuous
290
     1
370
    -3
390
1D
  0
LAYER
  5
7A
100
AcDbSymbolTableRecord
100
AcDbLayerTableRecord
  2
MITTELLINIE
 70
     0
 62
     4
  6
Continuous
290
     1
370
    -3
390
1D
  0
LAYER
  5
7F
100
AcDbSymbolTableRecord
100
AcDbLayerTableRecord
  2
EBENE_12
 70
     0
 62
     4
  6
Continuous
290
     1
370
    -3
390
1D
  0
LAYER
  5
C4
100
AcDbSymbolTableRecord
100
AcDbLayerTableRecord
  2
SCHRAFFUR
 70
     0
 62
     6
  6
Continuous
290
     1
370
    -3
390
1D
  0
LAYER
  5
150
100
AcDbSymbolTableRecord
100
AcDbLayerTableRecord
  2
EBENE_1
 70
     0
 62
     2
  6
Continuous
290
     1
370
    -3
390
1D
  0
LAYER
  5
155
100
AcDbSymbolTableRecord
100
AcDbLayerTableRecord
  2
GETRENNT
 70
     0
 62
     5
  6
Continuous
290
     1
370
    -3
390
1D
  0
LAYER
  5
159
100
AcDbSymbolTableRecord
100
AcDbLayerTableRecord
  2
RAHMEN
 70
     0
 62
     3
  6
Continuous
290
     1
370
    -3
390
1D
  0
LAYER
  5
167
100
AcDbSymbolTableRecord
100
AcDbLayerTableRecord
  2
ROHR
 70
     0
 62
     1
  6
Continuous
290
     1
370
    -3
390
1D
  0
LAYER
  5
1EA
100
AcDbSymbolTableRecord
100
AcDbLayerTableRecord
  2
SCHRAUBE
 70
     0
 62
   160
  6
Continuous
290
     1
370
    -3
390
1D
  0
ENDTAB
  0
TABLE
  2
STYLE
  5
3
100
AcDbSymbolTable
 70
     5
  0
STYLE
  5
17
100
AcDbSymbolTableRecord
100
AcDbTextStyleTableRecord
  2
Standard
 70
     0
 40
0.0
 41
1.0
 50
0.0
 71
     0
 42
0.0
  3
txt
  4

  0
STYLE
  5
24
100
AcDbSymbolTableRecord
100
AcDbTextStyleTableRecord
  2
STD
 70
     0
 40
0.0
 41
1.0
 50
0.0
 71
     0
 42
0.0
  3
txt
  4

  0
STYLE
  5
25
100
AcDbSymbolTableRecord
100
AcDbTextStyleTableRecord
  2
TATESTD
 70
     4
 40
0.0
 41
1.0
 50
0.0
 71
     0
 42
0.0
  3
txt
  4

  0
STYLE
  5
26
100
AcDbSymbolTableRecord
100
AcDbTextStyleTableRecord
  2
KANJISTD
 70
     0
 40
0.0
 41
1.0
 50
0.0
 71
     0
 42
0.0
  3
txt
  4
extfont
  0
STYLE
  5
27
100
AcDbSymbolTableRecord
100
AcDbTextStyleTableRecord
  2
KANJITATE
 70
     4
 40
0.0
 41
1.0
 50
0.0
 71
     0
 42
0.0
  3
txt
  4
extfont
  0
ENDTAB
  0
TABLE
  2
VIEW
  5
5
100
AcDbSymbolTable
 70
     0
  0
ENDTAB
  0
TABLE
  2
UCS
  5
6
100
AcDbSymbolTable
 70
     0
  0
ENDTAB
  0
TABLE
  2
APPID
  5
8
100
AcDbSymbolTable
 70
     1
  0
APPID
  5
16
100
AcDbSymbolTableRecord
100
AcDbRegAppTableRecord
  2
ACAD
 70
     0
  0
ENDTAB
  0
TABLE
  2
DIMSTYLE
  5
9
100
AcDbSymbolTable
 70
     1
100
AcDbDimStyleTable
 71
     0
  0
DIMSTYLE
105
18
100
AcDbSymbolTableRecord
100
AcDbDimStyleTableRecord
  2
Standard
 70
     0
  3

  4

 40
1.0
 41
0.18
 42
0.0625
 43
0.38
 44
0.18
 45
0.0
 46
0.0
 47
0.0
 48
0.0
 71
     0
 72
     0
 73
     1
 74
     1
 75
     0
 76
     0
 77
     0
 78
     0
 79
     0
140
0.18
141
0.09
142
0.0
143
25.4
144
1.0
145
0.0
146
1.0
147
0.09
148
0.0
170
     0
171
     2
172
     0
173
     0
174
     0
175
     0
176
     0
177
     0
178
     0
179
     0
271
     4
272
     4
273
     2
274
     2
275
     0
276
     0
277
     2
278
    46
279
     0
280
     0
281
     0
282
     0
283
     1
284
     0
285
     0
286
     0
288
     0
340
17
341
0
342
0
343
0
344
0
371
    -2
372
    -2
  0
ENDTAB
  0
TABLE
  2
BLOCK_RECORD
  5
1
100
AcDbSymbolTable
 70
     4
  0
BLOCK_RECORD
  5
A
100
AcDbSymbolTableRecord
100
AcDbBlockTableRecord
  2
*MODEL_SPACE
340
20
  0
BLOCK_RECORD
  5
B
100
AcDbSymbolTableRecord
100
AcDbBlockTableRecord
  2
*PAPER_SPACE
340
21
  0
BLOCK_RECORD
  5
29
100
AcDbSymbolTableRecord
100
AcDbBlockTableRecord
  2
AI9-BLK1
340
0
102
{BLKREFS
331
2A
102
}
  0
BLOCK_RECORD
  5
30
100
AcDbSymbolTableRecord
100
AcDbBlockTableRecord
  2
AI9-BLK2
340
0
102
{BLKREFS
331
31
102
}
  0
BLOCK_RECORD
  5
168
100
AcDbSymbolTableRecord
100
AcDbBlockTableRecord
  2
AI9-BLK3
340
0
102
{BLKREFS
331
169
102
}
  0
BLOCK_RECORD
  5
1A9
100
AcDbSymbolTableRecord
100
AcDbBlockTableRecord
  2
AI9-BLK4
340
0
102
{BLKREFS
331
1AA
102
}
  0
ENDTAB
  0
ENDSEC
  0
SECTION
  2
BLOCKS
  0
BLOCK
  5
D
100
AcDbEntity
  8
0
100
AcDbBlockBegin
  2
*MODEL_SPACE
 70
     0
 10
0.0
 20
0.0
 30
0.0
  3
*MODEL_SPACE
  1

  0
ENDBLK
  5
E
100
AcDbEntity
  8
0
100
AcDbBlockEnd
  0
BLOCK
  5
F
100
AcDbEntity
 67
     1
  8
0
100
AcDbBlockBegin
  2
*PAPER_SPACE
 70
     0
 10
0.0
 20
0.0
 30
0.0
  3
*PAPER_SPACE
  1

  0
ENDBLK
  5
10
100
AcDbEntity
 67
     1
  8
0
100
AcDbBlockEnd
  0
BLOCK
  5
2B
100
AcDbEntity
  8
TEXT
 62
     7
100
AcDbBlockBegin
  2
AI9-BLK1
 70
     0
 10
0.0
 20
0.0
 30
0.0
  3
AI9-BLK1
  1

  0
MTEXT
  5
2E
100
AcDbEntity
  8
TEXT
 62
     7
100
AcDbMText
 10
-16.352404
 20
-3.617437
 30
0.0
 40
5.512152
 41
0.0
 71
     1
 72
     2
  1
\fArial|b0|i0;\H5.5122;\C7;\U+0033\U+0030
  7
STD
210
0.0
220
0.0
230
1.0
 73
     1
 44
1.0
  0
MTEXT
  5
2D
100
AcDbEntity
  8
TEXT
 62
     7
100
AcDbMText
 10
-16.352404
 20
3.790897
 30
0.0
 40
5.512152
 41
0.0
 71
     1
 72
     2
  1
\fArial|b0|i0;\H5.5122;\C7;\U+0053\U+0074\U+0061\U+006E\U+0064\U+0061\U+0072\U+0064\U+0020
  7
STD
210
0.0
220
0.0
230
1.0
 73
     1
 44
1.0
  0
MTEXT
  5
2C
100
AcDbEntity
  8
TEXT
 62
     7
100
AcDbMText
 10
-16.352404
 20
11.19923
 30
0.0
 40
5.512152
 41
0.0
 71
     1
 72
     2
  1
\fArial|b0|i0;\H5.5122;\C7;\U+0046\U+0048\U+0052\U+004B\U+002D
  7
STD
210
0.0
220
0.0
230
1.0
 73
     1
 44
1.0
  0
ENDBLK
  5
2F
100
AcDbEntity
  8
TEXT
100
AcDbBlockEnd
  0
BLOCK
  5
32
100
AcDbEntity
  8
TEXT
 62
     7
100
AcDbBlockBegin
  2
AI9-BLK2
 70
     0
 10
0.0
 20
0.0
 30
0.0
  3
AI9-BLK2
  1

  0
MTEXT
  5
33
100
AcDbEntity
  8
TEXT
 62
     7
100
AcDbMText
 10
-31.110935
 20
4.91839
 30
0.0
 40
5.512152
 41
0.0
 71
     1
 72
     2
  1
\fArial|b0|i0;\H5.5122;\C7;\U+0046\U+0075\U+0074\U+0074\U+0065\U+0072\U+0072\U+006F\U+0068\U+0072
  7
STD
210
0.0
220
0.0
230
1.0
 73
     1
 44
1.0
  0
ENDBLK
  5
34
100
AcDbEntity
  8
TEXT
100
AcDbBlockEnd
  0
BLOCK
  5
16A
100
AcDbEntity
  8
ROHR
 62
     7
100
AcDbBlockBegin
  2
AI9-BLK3
 70
     0
 10
0.0
 20
0.0
 30
0.0
  3
AI9-BLK3
  1

  0
LINE
  5
1A7
100
AcDbEntity
  8
ROHR
 62
     7
100
AcDbLine
 10
0.606854
 20
-4.328073
 30
0.0
 11
1.113283
 21
-3.821817
 31
0.0
  0
LINE
  5
1A6
100
AcDbEntity
  8
ROHR
 62
     7
100
AcDbLine
 10
-0.181729
 20
-6.57841
 30
0.0
 11
-0.123507
 21
-6.519499
 31
0.0
  0
LINE
  5
1A5
100
AcDbEntity
  8
ROHR
 62
     7
100
AcDbLine
 10
0.11386
 20
-7.256749
 30
0.0
 11
0.158647
 21
-7.211963
 31
0.0
  0
LINE
  5
1A4
100
AcDbEntity
  8
ROHR
 62
     7
100
AcDbLine
 10
0.031178
 20
-7.339431
 30
0.0
 11
0.039446
 21
-7.331163
 31
0.0
  0
LINE
  5
1A3
100
AcDbEntity
  8
ROHR
 62
     7
100
AcDbLine
 10
-0.076309
 20
-6.959782
 30
0.0
 11
-0.043236
 21
-6.927053
 31
0.0
  0
LINE
  5
1A2
100
AcDbEntity
  8
ROHR
 62
     7
100
AcDbLine
 10
-0.286115
 20
-6.195315
 30
0.0
 11
-0.199299
 21
-6.108843
 31
0.0
  0
LINE
  5
1A1
100
AcDbEntity
  8
ROHR
 62
     7
100
AcDbLine
 10
-0.488687
 20
-5.423958
 30
0.0
 11
-0.342615
 21
-5.277542
 31
0.0
  0
LINE
  5
1A0
100
AcDbEntity
  8
ROHR
 62
     7
100
AcDbLine
 10
-0.587561
 20
-5.035179
 30
0.0
 11
-0.409105
 21
-4.856896
 31
0.0
  0
LINE
  5
19F
100
AcDbEntity
  8
ROHR
 62
     7
100
AcDbLine
 10
-0.684713
 20
-4.645367
 30
0.0
 11
-0.47215
 21
-4.432977
 31
0.0
  0
LINE
  5
19E
100
AcDbEntity
  8
ROHR
 62
     7
100
AcDbLine
 10
-0.38809
 20
-5.810498
 30
0.0
 11
-0.272679
 21
-5.694743
 31
0.0
  0
LINE
  5
19D
100
AcDbEntity
  8
ROHR
 62
     7
100
AcDbLine
 10
0.232716
 20
-6.650757
 30
0.0
 11
0.393947
 21
-6.489871
 31
0.0
  0
LINE
  5
19C
100
AcDbEntity
  8
ROHR
 62
     7
100
AcDbLine
 10
0.527272
 20
-4.894619
 30
0.0
 11
0.961698
 21
-4.460021
 31
0.0
  0
LINE
  5
19B
100
AcDbEntity
  8
ROHR
 62
     7
100
AcDbLine
 10
0.438733
 20
-5.470467
 30
0.0
 11
0.792889
 21
-5.116311
 31
0.0
  0
LINE
  5
19A
100
AcDbEntity
  8
ROHR
 62
     7
100
AcDbLine
 10
0.340548
 20
-6.055444
 30
0.0
 11
0.604097
 21
-5.791895
 31
0.0
  0
LINE
  5
199
100
AcDbEntity
  8
ROHR
 62
     7
100
AcDbLine
 10
0.907955
 20
4.254176
 30
0.0
 11
1.930115
 21
5.275991
 31
0.0
  0
LINE
  5
198
100
AcDbEntity
  8
ROHR
 62
     7
100
AcDbLine
 10
0.934827
 20
3.793739
 30
0.0
 11
1.94734
 21
4.806253
 31
0.0
  0
LINE
  5
197
100
AcDbEntity
  8
ROHR
 62
     7
100
AcDbLine
 10
-1.963188
 20
4.305508
 30
0.0
 11
-0.832852
 21
5.435499
 31
0.0
  0
LINE
  5
196
100
AcDbEntity
  8
ROHR
 62
     7
100
AcDbLine
 10
-1.961465
 20
3.81975
 30
0.0
 11
-0.86558
 21
4.916151
 31
0.0
  0
LINE
  5
195
100
AcDbEntity
  8
ROHR
 62
     7
100
AcDbLine
 10
0.945851
 20
-0.579465
 30
0.0
 11
1.783009
 21
0.258038
 31
0.0
  0
LINE
  5
194
100
AcDbEntity
  8
ROHR
 62
     7
100
AcDbLine
 10
0.966866
 20
-0.071486
 30
0.0
 11
1.833997
 21
0.796162
 31
0.0
  0
LINE
  5
193
100
AcDbEntity
  8
ROHR
 62
     7
100
AcDbLine
 10
-1.620056
 20
-0.222553
 30
0.0
 11
-0.91519
 21
0.48283
 31
0.0
  0
LINE
  5
192
100
AcDbEntity
  8
ROHR
 62
     7
100
AcDbLine
 10
-1.229382
 20
-2.267217
 30
0.0
 11
-0.773941
 21
-1.811948
 31
0.0
  0
LINE
  5
191
100
AcDbEntity
  8
ROHR
 62
     7
100
AcDbLine
 10
-1.14291
 20
-2.668226
 30
0.0
 11
-0.733289
 21
-2.258432
 31
0.0
  0
LINE
  5
190
100
AcDbEntity
  8
ROHR
 62
     7
100
AcDbLine
 10
-0.779797
 20
-4.253315
 30
0.0
 11
-0.53175
 21
-4.005268
 31
0.0
  0
LINE
  5
18F
100
AcDbEntity
  8
ROHR
 62
     7
100
AcDbLine
 10
-0.873159
 20
-3.859885
 30
0.0
 11
-0.587561
 21
-3.574114
 31
0.0
  0
LINE
  5
18E
100
AcDbEntity
  8
ROHR
 62
     7
100
AcDbLine
 10
-0.965144
 20
-3.464216
 30
0.0
 11
-0.640271
 21
-3.139171
 31
0.0
  0
LINE
  5
18D
100
AcDbEntity
  8
ROHR
 62
     7
100
AcDbLine
 10
-1.05506
 20
-3.067169
 30
0.0
 11
-0.688158
 21
-2.700783
 31
0.0
  0
LINE
  5
18C
100
AcDbEntity
  8
ROHR
 62
     7
100
AcDbLine
 10
-1.313443
 20
-1.864313
 30
0.0
 11
-0.810803
 21
-1.361502
 31
0.0
  0
LINE
  5
18B
100
AcDbEntity
  8
ROHR
 62
     7
100
AcDbLine
 10
-1.55081
 20
-0.640443
 30
0.0
 11
-0.895553
 21
0.015158
 31
0.0
  0
LINE
  5
18A
100
AcDbEntity
  8
ROHR
 62
     7
100
AcDbLine
 10
-1.476396
 20
-1.052821
 30
0.0
 11
-0.871092
 21
-0.448207
 31
0.0
  0
LINE
  5
189
100
AcDbEntity
  8
ROHR
 62
     7
100
AcDbLine
 10
-1.394747
 20
-1.465888
 30
0.0
 11
-0.842843
 21
-0.913984
 31
0.0
  0
LINE
  5
188
100
AcDbEntity
  8
ROHR
 62
     7
100
AcDbLine
 10
0.795989
 20
-2.6777
 30
0.0
 11
1.475018
 21
-1.998672
 31
0.0
  0
LINE
  5
187
100
AcDbEntity
  8
ROHR
 62
     7
100
AcDbLine
 10
0.843876
 20
-2.142849
 30
0.0
 11
1.569069
 21
-1.417657
 31
0.0
  0
LINE
  5
186
100
AcDbEntity
  8
ROHR
 62
     7
100
AcDbLine
 10
0.678167
 20
-3.769968
 30
0.0
 11
1.247986
 21
-3.199632
 31
0.0
  0
LINE
  5
185
100
AcDbEntity
  8
ROHR
 62
     7
100
AcDbLine
 10
0.740523
 20
-3.219786
 30
0.0
 11
1.368564
 21
-2.592434
 31
0.0
  0
LINE
  5
184
100
AcDbEntity
  8
ROHR
 62
     7
100
AcDbLine
 10
0.91829
 20
-1.094162
 30
0.0
 11
1.722375
 21
-0.290077
 31
0.0
  0
LINE
  5
183
100
AcDbEntity
  8
ROHR
 62
     7
100
AcDbLine
 10
0.884184
 20
-1.615061
 30
0.0
 11
1.651062
 21
-0.848183
 31
0.0
  0
LINE
  5
182
100
AcDbEntity
  8
ROHR
 62
     7
100
AcDbLine
 10
-1.877405
 20
1.955608
 30
0.0
 11
-0.940339
 21
2.892502
 31
0.0
  0
LINE
  5
181
100
AcDbEntity
  8
ROHR
 62
     7
100
AcDbLine
 10
-1.838475
 20
1.507229
 30
0.0
 11
-0.945506
 21
2.400543
 31
0.0
  0
LINE
  5
180
100
AcDbEntity
  8
ROHR
 62
     7
100
AcDbLine
 10
-1.793
 20
1.06574
 30
0.0
 11
-0.945162
 21
1.913751
 31
0.0
  0
LINE
  5
17F
100
AcDbEntity
  8
ROHR
 62
     7
100
AcDbLine
 10
-1.741324
 20
0.63028
 30
0.0
 11
-0.939994
 21
1.431782
 31
0.0
  0
LINE
  5
17E
100
AcDbEntity
  8
ROHR
 62
     7
100
AcDbLine
 10
-1.683446
 20
0.200849
 30
0.0
 11
-0.929659
 21
0.954808
 31
0.0
  0
LINE
  5
17D
100
AcDbEntity
  8
ROHR
 62
     7
100
AcDbLine
 10
-1.951819
 20
3.342604
 30
0.0
 11
-0.892796
 21
4.401626
 31
0.0
  0
LINE
  5
17C
100
AcDbEntity
  8
ROHR
 62
     7
100
AcDbLine
 10
-1.934593
 20
2.872865
 30
0.0
 11
-0.914501
 21
3.892958
 31
0.0
  0
LINE
  5
17B
100
AcDbEntity
  8
ROHR
 62
     7
100
AcDbLine
 10
-1.909444
 20
2.410533
 30
0.0
 11
-0.930004
 21
3.390146
 31
0.0
  0
LINE
  5
17A
100
AcDbEntity
  8
ROHR
 62
     7
100
AcDbLine
 10
0.992704
 20
1.903415
 30
0.0
 11
1.951474
 21
2.861669
 31
0.0
  0
LINE
  5
179
100
AcDbEntity
  8
ROHR
 62
     7
100
AcDbLine
 10
0.994771
 20
1.418174
 30
0.0
 11
1.934249
 21
2.357307
 31
0.0
  0
LINE
  5
178
100
AcDbEntity
  8
ROHR
 62
     7
100
AcDbLine
 10
0.991326
 20
0.927247
 30
0.0
 11
1.9091
 21
1.845538
 31
0.0
  0
LINE
  5
177
100
AcDbEntity
  8
ROHR
 62
     7
100
AcDbLine
 10
0.982024
 20
0.430809
 30
0.0
 11
1.876027
 21
1.325156
 31
0.0
  0
LINE
  5
176
100
AcDbEntity
  8
ROHR
 62
     7
100
AcDbLine
 10
0.956531
 20
3.328307
 30
0.0
 11
1.958709
 21
4.330313
 31
0.0
  0
LINE
  5
175
100
AcDbEntity
  8
ROHR
 62
     7
100
AcDbLine
 10
0.973756
 20
2.858396
 30
0.0
 11
1.963188
 21
3.847655
 31
0.0
  0
LINE
  5
174
100
AcDbEntity
  8
ROHR
 62
     7
100
AcDbLine
 10
0.986159
 20
2.383489
 30
0.0
 11
1.960776
 21
3.358279
 31
0.0
  0
LINE
  5
173
100
AcDbEntity
  8
ROHR
 62
     7
100
AcDbLine
 10
-0.028767
 20
6.239757
 30
0.0
 11
0.865236
 21
7.133759
 31
0.0
  0
LINE
  5
172
100
AcDbEntity
  8
ROHR
 62
     7
100
AcDbLine
 10
-1.956297
 20
4.799535
 30
0.0
 11
0.51487
 21
7.27053
 31
0.0
  0
LINE
  5
171
100
AcDbEntity
  8
ROHR
 62
     7
100
AcDbLine
 10
-1.887051
 20
5.84271
 30
0.0
 11
-0.435977
 21
7.293956
 31
0.0
  0
LINE
  5
170
100
AcDbEntity
  8
ROHR
 62
     7
100
AcDbLine
 10
-1.939761
 20
5.302863
 30
0.0
 11
0.096635
 21
7.339431
 31
0.0
  0
LINE
  5
16F
100
AcDbEntity
  8
ROHR
 62
     7
100
AcDbLine
 10
0.368453
 20
6.14984
 30
0.0
 11
1.16427
 21
6.946002
 31
0.0
  0
LINE
  5
16E
100
AcDbEntity
  8
ROHR
 62
     7
100
AcDbLine
 10
0.797367
 20
5.604654
 30
0.0
 11
1.629013
 21
6.435955
 31
0.0
  0
LINE
  5
16D
100
AcDbEntity
  8
ROHR
 62
     7
100
AcDbLine
 10
0.841809
 20
5.161787
 30
0.0
 11
1.791277
 21
6.111599
 31
0.0
  0
LINE
  5
16C
100
AcDbEntity
  8
ROHR
 62
     7
100
AcDbLine
 10
0.876949
 20
4.710135
 30
0.0
 11
1.896008
 21
5.729194
 31
0.0
  0
LINE
  5
16B
100
AcDbEntity
  8
ROHR
 62
     7
100
AcDbLine
 10
0.63717
 20
5.931593
 30
0.0
 11
1.418518
 21
6.712941
 31
0.0
  0
ENDBLK
  5
1A8
100
AcDbEntity
  8
ROHR
100
AcDbBlockEnd
  0
BLOCK
  5
1AB
100
AcDbEntity
  8
ROHR
 62
     7
100
AcDbBlockBegin
  2
AI9-BLK4
 70
     0
 10
0.0
 20
0.0
 30
0.0
  3
AI9-BLK4
  1

  0
LINE
  5
1E8
100
AcDbEntity
  8
ROHR
 62
     7
100
AcDbLine
 10
1.939933
 20
-5.302691
 30
0.0
 11
-0.096635
 21
-7.339431
 31
0.0
  0
LINE
  5
1E7
100
AcDbEntity
  8
ROHR
 62
     7
100
AcDbLine
 10
-0.438733
 20
5.470467
 30
0.0
 11
-0.793061
 21
5.116311
 31
0.0
  0
LINE
  5
1E6
100
AcDbEntity
  8
ROHR
 62
     7
100
AcDbLine
 10
1.951819
 20
-3.342776
 30
0.0
 11
0.892624
 21
-4.401454
 31
0.0
  0
LINE
  5
1E5
100
AcDbEntity
  8
ROHR
 62
     7
100
AcDbLine
 10
1.934421
 20
-2.872865
 30
0.0
 11
0.914328
 21
-3.892958
 31
0.0
  0
LINE
  5
1E4
100
AcDbEntity
  8
ROHR
 62
     7
100
AcDbLine
 10
-0.956531
 20
-3.328307
 30
0.0
 11
-1.958537
 21
-4.330141
 31
0.0
  0
LINE
  5
1E3
100
AcDbEntity
  8
ROHR
 62
     7
100
AcDbLine
 10
-0.973584
 20
-2.858396
 30
0.0
 11
-1.963188
 21
-3.847483
 31
0.0
  0
LINE
  5
1E2
100
AcDbEntity
  8
ROHR
 62
     7
100
AcDbLine
 10
1.887223
 20
-5.842882
 30
0.0
 11
0.436149
 21
-7.293956
 31
0.0
  0
LINE
  5
1E1
100
AcDbEntity
  8
ROHR
 62
     7
100
AcDbLine
 10
1.956125
 20
-4.799363
 30
0.0
 11
-0.514697
 21
-7.27053
 31
0.0
  0
LINE
  5
1E0
100
AcDbEntity
  8
ROHR
 62
     7
100
AcDbLine
 10
-0.797367
 20
-5.604481
 30
0.0
 11
-1.628841
 21
-6.436127
 31
0.0
  0
LINE
  5
1DF
100
AcDbEntity
  8
ROHR
 62
     7
100
AcDbLine
 10
-0.841809
 20
-5.161787
 30
0.0
 11
-1.79145
 21
-6.111599
 31
0.0
  0
LINE
  5
1DE
100
AcDbEntity
  8
ROHR
 62
     7
100
AcDbLine
 10
-0.637515
 20
-5.931765
 30
0.0
 11
-1.418863
 21
-6.713113
 31
0.0
  0
LINE
  5
1DD
100
AcDbEntity
  8
ROHR
 62
     7
100
AcDbLine
 10
-0.368797
 20
-6.14984
 30
0.0
 11
-1.164615
 21
-6.946002
 31
0.0
  0
LINE
  5
1DC
100
AcDbEntity
  8
ROHR
 62
     7
100
AcDbLine
 10
0.028594
 20
-6.239757
 30
0.0
 11
-0.865408
 21
-7.133759
 31
0.0
  0
LINE
  5
1DB
100
AcDbEntity
  8
ROHR
 62
     7
100
AcDbLine
 10
-0.908299
 20
-4.254348
 30
0.0
 11
-1.930115
 21
-5.275819
 31
0.0
  0
LINE
  5
1DA
100
AcDbEntity
  8
ROHR
 62
     7
100
AcDbLine
 10
-0.877294
 20
-4.710135
 30
0.0
 11
-1.896353
 21
-5.729194
 31
0.0
  0
LINE
  5
1D9
100
AcDbEntity
  8
ROHR
 62
     7
100
AcDbLine
 10
-0.934827
 20
-3.793395
 30
0.0
 11
-1.947512
 21
-4.806253
 31
0.0
  0
LINE
  5
1D8
100
AcDbEntity
  8
ROHR
 62
     7
100
AcDbLine
 10
1.961637
 20
-3.819577
 30
0.0
 11
0.865236
 21
-4.916151
 31
0.0
  0
LINE
  5
1D7
100
AcDbEntity
  8
ROHR
 62
     7
100
AcDbLine
 10
1.963188
 20
-4.305336
 30
0.0
 11
0.833024
 21
-5.435672
 31
0.0
  0
LINE
  5
1D6
100
AcDbEntity
  8
ROHR
 62
     7
100
AcDbLine
 10
-0.91829
 20
1.093818
 30
0.0
 11
-1.722375
 21
0.290077
 31
0.0
  0
LINE
  5
1D5
100
AcDbEntity
  8
ROHR
 62
     7
100
AcDbLine
 10
1.476051
 20
1.052821
 30
0.0
 11
0.871265
 21
0.448207
 31
0.0
  0
LINE
  5
1D4
100
AcDbEntity
  8
ROHR
 62
     7
100
AcDbLine
 10
-0.991154
 20
-0.92742
 30
0.0
 11
-1.909444
 21
-1.845538
 31
0.0
  0
LINE
  5
1D3
100
AcDbEntity
  8
ROHR
 62
     7
100
AcDbLine
 10
-0.985986
 20
-2.383662
 30
0.0
 11
-1.960948
 21
-3.358279
 31
0.0
  0
LINE
  5
1D2
100
AcDbEntity
  8
ROHR
 62
     7
100
AcDbLine
 10
-0.993049
 20
-1.903415
 30
0.0
 11
-1.951302
 21
-2.861496
 31
0.0
  0
LINE
  5
1D1
100
AcDbEntity
  8
ROHR
 62
     7
100
AcDbLine
 10
-0.994771
 20
-1.417657
 30
0.0
 11
-1.934249
 21
-2.357134
 31
0.0
  0
LINE
  5
1D0
100
AcDbEntity
  8
ROHR
 62
     7
100
AcDbLine
 10
-0.945679
 20
0.579465
 30
0.0
 11
-1.783181
 21
-0.258038
 31
0.0
  0
LINE
  5
1CF
100
AcDbEntity
  8
ROHR
 62
     7
100
AcDbLine
 10
-0.966866
 20
0.071658
 30
0.0
 11
-1.834341
 21
-0.796162
 31
0.0
  0
LINE
  5
1CE
100
AcDbEntity
  8
ROHR
 62
     7
100
AcDbLine
 10
-0.981852
 20
-0.430637
 30
0.0
 11
-1.876199
 21
-1.325328
 31
0.0
  0
LINE
  5
1CD
100
AcDbEntity
  8
ROHR
 62
     7
100
AcDbLine
 10
1.793172
 20
-1.065913
 30
0.0
 11
0.945162
 21
-1.913751
 31
0.0
  0
LINE
  5
1CC
100
AcDbEntity
  8
ROHR
 62
     7
100
AcDbLine
 10
1.741496
 20
-0.630108
 30
0.0
 11
0.939994
 21
-1.431782
 31
0.0
  0
LINE
  5
1CB
100
AcDbEntity
  8
ROHR
 62
     7
100
AcDbLine
 10
1.909444
 20
-2.410533
 30
0.0
 11
0.930176
 21
-3.389629
 31
0.0
  0
LINE
  5
1CA
100
AcDbEntity
  8
ROHR
 62
     7
100
AcDbLine
 10
1.877405
 20
-1.955781
 30
0.0
 11
0.940511
 21
-2.892502
 31
0.0
  0
LINE
  5
1C9
100
AcDbEntity
  8
ROHR
 62
     7
100
AcDbLine
 10
1.838303
 20
-1.507229
 30
0.0
 11
0.945334
 21
-2.400543
 31
0.0
  0
LINE
  5
1C8
100
AcDbEntity
  8
ROHR
 62
     7
100
AcDbLine
 10
1.620056
 20
0.222553
 30
0.0
 11
0.914673
 21
-0.483002
 31
0.0
  0
LINE
  5
1C7
100
AcDbEntity
  8
ROHR
 62
     7
100
AcDbLine
 10
1.55081
 20
0.640443
 30
0.0
 11
0.895208
 21
-0.015158
 31
0.0
  0
LINE
  5
1C6
100
AcDbEntity
  8
ROHR
 62
     7
100
AcDbLine
 10
1.683618
 20
-0.200849
 30
0.0
 11
0.929659
 21
-0.954636
 31
0.0
  0
LINE
  5
1C5
100
AcDbEntity
  8
ROHR
 62
     7
100
AcDbLine
 10
0.684713
 20
4.645539
 30
0.0
 11
0.471978
 21
4.433149
 31
0.0
  0
LINE
  5
1C4
100
AcDbEntity
  8
ROHR
 62
     7
100
AcDbLine
 10
0.779797
 20
4.253487
 30
0.0
 11
0.53175
 21
4.005613
 31
0.0
  0
LINE
  5
1C3
100
AcDbEntity
  8
ROHR
 62
     7
100
AcDbLine
 10
0.873332
 20
3.859885
 30
0.0
 11
0.587561
 21
3.574287
 31
0.0
  0
LINE
  5
1C2
100
AcDbEntity
  8
ROHR
 62
     7
100
AcDbLine
 10
-0.740868
 20
3.219786
 30
0.0
 11
-1.368392
 21
2.592434
 31
0.0
  0
LINE
  5
1C1
100
AcDbEntity
  8
ROHR
 62
     7
100
AcDbLine
 10
-0.795817
 20
2.677528
 30
0.0
 11
-1.47519
 21
1.9985
 31
0.0
  0
LINE
  5
1C0
100
AcDbEntity
  8
ROHR
 62
     7
100
AcDbLine
 10
-0.843704
 20
2.142849
 30
0.0
 11
-1.568896
 21
1.417312
 31
0.0
  0
LINE
  5
1BF
100
AcDbEntity
  8
ROHR
 62
     7
100
AcDbLine
 10
-0.884528
 20
1.615061
 30
0.0
 11
-1.651062
 21
0.848183
 31
0.0
  0
LINE
  5
1BE
100
AcDbEntity
  8
ROHR
 62
     7
100
AcDbLine
 10
-0.527444
 20
4.894792
 30
0.0
 11
-0.962043
 21
4.460193
 31
0.0
  0
LINE
  5
1BD
100
AcDbEntity
  8
ROHR
 62
     7
100
AcDbLine
 10
-0.607026
 20
4.328246
 30
0.0
 11
-1.11311
 21
3.821644
 31
0.0
  0
LINE
  5
1BC
100
AcDbEntity
  8
ROHR
 62
     7
100
AcDbLine
 10
-0.677823
 20
3.769968
 30
0.0
 11
-1.24833
 21
3.19946
 31
0.0
  0
LINE
  5
1BB
100
AcDbEntity
  8
ROHR
 62
     7
100
AcDbLine
 10
0.587561
 20
5.035352
 30
0.0
 11
0.408933
 21
4.857068
 31
0.0
  0
LINE
  5
1BA
100
AcDbEntity
  8
ROHR
 62
     7
100
AcDbLine
 10
1.054716
 20
3.067169
 30
0.0
 11
0.68833
 21
2.700955
 31
0.0
  0
LINE
  5
1B9
100
AcDbEntity
  8
ROHR
 62
     7
100
AcDbLine
 10
1.394402
 20
1.465888
 30
0.0
 11
0.842498
 21
0.913984
 31
0.0
  0
LINE
  5
1B8
100
AcDbEntity
  8
ROHR
 62
     7
100
AcDbLine
 10
1.143083
 20
2.668226
 30
0.0
 11
0.732944
 21
2.258605
 31
0.0
  0
LINE
  5
1B7
100
AcDbEntity
  8
ROHR
 62
     7
100
AcDbLine
 10
1.229038
 20
2.267217
 30
0.0
 11
0.773596
 21
1.81212
 31
0.0
  0
LINE
  5
1B6
100
AcDbEntity
  8
ROHR
 62
     7
100
AcDbLine
 10
1.31327
 20
1.864141
 30
0.0
 11
0.810459
 21
1.361502
 31
0.0
  0
LINE
  5
1B5
100
AcDbEntity
  8
ROHR
 62
     7
100
AcDbLine
 10
0.964971
 20
3.464388
 30
0.0
 11
0.639926
 21
3.139516
 31
0.0
  0
LINE
  5
1B4
100
AcDbEntity
  8
ROHR
 62
     7
100
AcDbLine
 10
-0.113688
 20
7.256749
 30
0.0
 11
-0.158647
 21
7.211791
 31
0.0
  0
LINE
  5
1B3
100
AcDbEntity
  8
ROHR
 62
     7
100
AcDbLine
 10
-0.031006
 20
7.339431
 30
0.0
 11
-0.039274
 21
7.331163
 31
0.0
  0
LINE
  5
1B2
100
AcDbEntity
  8
ROHR
 62
     7
100
AcDbLine
 10
-0.232888
 20
6.650757
 30
0.0
 11
-0.394119
 21
6.489526
 31
0.0
  0
LINE
  5
1B1
100
AcDbEntity
  8
ROHR
 62
     7
100
AcDbLine
 10
0.076481
 20
6.959782
 30
0.0
 11
0.043408
 21
6.927053
 31
0.0
  0
LINE
  5
1B0
100
AcDbEntity
  8
ROHR
 62
     7
100
AcDbLine
 10
-0.340548
 20
6.055789
 30
0.0
 11
-0.604442
 21
5.792239
 31
0.0
  0
LINE
  5
1AF
100
AcDbEntity
  8
ROHR
 62
     7
100
AcDbLine
 10
0.181901
 20
6.578238
 30
0.0
 11
0.123162
 21
6.519499
 31
0.0
  0
LINE
  5
1AE
100
AcDbEntity
  8
ROHR
 62
     7
100
AcDbLine
 10
0.285771
 20
6.195315
 30
0.0
 11
0.199471
 21
6.109016
 31
0.0
  0
LINE
  5
1AD
100
AcDbEntity
  8
ROHR
 62
     7
100
AcDbLine
 10
0.38809
 20
5.810326
 30
0.0
 11
0.272507
 21
5.695087
 31
0.0
  0
LINE
  5
1AC
100
AcDbEntity
  8
ROHR
 62
     7
100
AcDbLine
 10
0.488515
 20
5.423786
 30
0.0
 11
0.342615
 21
5.277714
 31
0.0
  0
ENDBLK
  5
1E9
100
AcDbEntity
  8
ROHR
100
AcDbBlockEnd
  0
ENDSEC
  0
SECTION
  2
ENTITIES
  0
SPLINE
  5
20E
100
AcDbEntity
  8
SCHRAUBE
 62
     7
100
AcDbSpline
210
0.0
220
0.0
230
1.0
 70
     8
 71
     3
 72
     8
 73
     4
 74
     0
 42
0.00000001
 43
0.00000001
 40
0.0
 40
0.0
 40
0.0
 40
0.0
 40
1.0
 40
1.0
 40
1.0
 40
1.0
 10
113.79391547309027
 20
131.75802137586805
 30
0.0
 10
113.65404459635415
 20
131.93785536024305
 30
0.0
 10
113.65404459635415
 20
132.19003634982639
 30
0.0
 10
113.79391547309027
 20
132.36987033420138
 30
0.0
  0
SPLINE
  5
20D
100
AcDbEntity
  8
SCHRAUBE
 62
     7
100
AcDbSpline
210
0.0
220
0.0
230
1.0
 70
     8
 71
     3
 72
     8
 73
     4
 74
     0
 42
0.00000001
 43
0.00000001
 40
0.0
 40
0.0
 40
0.0
 40
0.0
 40
1.0
 40
1.0
 40
1.0
 40
1.0
 10
114.68653971354166
 20
132.36987033420138
 30
0.0
 10
114.82641059027777
 20
132.19003634982639
 30
0.0
 10
114.82641059027777
 20
131.93785536024305
 30
0.0
 10
114.68653971354166
 20
131.75802137586805
 30
0.0
  0
SPLINE
  5
20C
100
AcDbEntity
  8
SCHRAUBE
 62
     7
100
AcDbSpline
210
0.0
220
0.0
230
1.0
 70
     8
 71
     3
 72
     8
 73
     4
 74
     0
 42
0.00000001
 43
0.00000001
 40
0.0
 40
0.0
 40
0.0
 40
0.0
 40
1.0
 40
1.0
 40
1.0
 40
1.0
 10
113.79391547309027
 20
129.92178548177083
 30
0.0
 10
113.65404459635415
 20
130.10230848524304
 30
0.0
 10
113.65404459635415
 20
130.35380045572916
 30
0.0
 10
113.79391547309027
 20
130.53363444010415
 30
0.0
  0
SPLINE
  5
20B
100
AcDbEntity
  8
SCHRAUBE
 62
     7
100
AcDbSpline
210
0.0
220
0.0
230
1.0
 70
     8
 71
     3
 72
     8
 73
     4
 74
     0
 42
0.00000001
 43
0.00000001
 40
0.0
 40
0.0
 40
0.0
 40
0.0
 40
1.0
 40
1.0
 40
1.0
 40
1.0
 10
114.68653971354166
 20
130.53363444010415
 30
0.0
 10
114.82641059027777
 20
130.35380045572916
 30
0.0
 10
114.82641059027777
 20
130.10230848524304
 30
0.0
 10
114.68653971354166
 20
129.92178548177083
 30
0.0
  0
SPLINE
  5
20A
100
AcDbEntity
  8
SCHRAUBE
 62
     7
100
AcDbSpline
210
0.0
220
0.0
230
1.0
 70
     8
 71
     3
 72
     8
 73
     4
 74
     0
 42
0.00000001
 43
0.00000001
 40
0.0
 40
0.0
 40
0.0
 40
0.0
 40
1.0
 40
1.0
 40
1.0
 40
1.0
 10
113.79391547309027
 20
130.53363444010415
 30
0.0
 10
113.65404459635415
 20
130.92947591145833
 30
0.0
 10
113.65404459635415
 20
131.36149088541666
 30
0.0
 10
113.79391547309027
 20
131.75802137586805
 30
0.0
  0
SPLINE
  5
209
100
AcDbEntity
  8
SCHRAUBE
 62
     7
100
AcDbSpline
210
0.0
220
0.0
230
1.0
 70
     8
 71
     3
 72
     8
 73
     4
 74
     0
 42
0.00000001
 43
0.00000001
 40
0.0
 40
0.0
 40
0.0
 40
0.0
 40
1.0
 40
1.0
 40
1.0
 40
1.0
 10
114.68653971354166
 20
131.75802137586805
 30
0.0
 10
114.82641059027777
 20
131.36149088541666
 30
0.0
 10
114.82641059027777
 20
130.92947591145833
 30
0.0
 10
114.68653971354166
 20
130.53363444010415
 30
0.0
  0
LINE
  5
208
100
AcDbEntity
  8
SCHRAUBE
 62
     7
100
AcDbLine
 10
114.791271
 20
130.22771
 30
0.0
 11
114.791271
 21
132.063946
 31
0.0
  0
LINE
  5
207
100
AcDbEntity
  8
SCHRAUBE
 62
     7
100
AcDbLine
 10
113.689185
 20
130.22771
 30
0.0
 11
113.689185
 21
132.063946
 31
0.0
  0
POLYLINE
  5
201
100
AcDbEntity
  8
SCHRAUBE
 62
     7
100
AcDb2dPolyline
 66
     1
 10
0.0
 20
0.0
 30
0.0
 70
     1
  0
VERTEX
  5
202
100
AcDbEntity
  8
SCHRAUBE
 62
     7
100
AcDbVertex
100
AcDb2dVertex
 10
113.247868
 20
133.262839
 30
0.0
  0
VERTEX
  5
203
100
AcDbEntity
  8
SCHRAUBE
 62
     7
100
AcDbVertex
100
AcDb2dVertex
 10
113.247868
 20
129.028817
 30
0.0
  0
VERTEX
  5
204
100
AcDbEntity
  8
SCHRAUBE
 62
     7
100
AcDbVertex
100
AcDb2dVertex
 10
113.689185
 20
129.028817
 30
0.0
  0
VERTEX
  5
205
100
AcDbEntity
  8
SCHRAUBE
 62
     7
100
AcDbVertex
100
AcDb2dVertex
 10
113.689185
 20
133.262839
 30
0.0
  0
SEQEND
  5
206
100
AcDbEntity
  8
SCHRAUBE
 62
     7
  0
LINE
  5
200
100
AcDbEntity
  8
SCHRAUBE
 62
     7
100
AcDbLine
 10
114.68654
 20
130.533634
 30
0.0
 11
113.793915
 21
130.533634
 31
0.0
  0
LINE
  5
1FF
100
AcDbEntity
  8
SCHRAUBE
 62
     7
100
AcDbLine
 10
114.68654
 20
129.921785
 30
0.0
 11
113.793915
 21
129.921785
 31
0.0
  0
LINE
  5
1FE
100
AcDbEntity
  8
SCHRAUBE
 62
     7
100
AcDbLine
 10
114.68654
 20
132.36987
 30
0.0
 11
113.793915
 21
132.36987
 31
0.0
  0
LINE
  5
1FD
100
AcDbEntity
  8
SCHRAUBE
 62
     7
100
AcDbLine
 10
114.68654
 20
131.758021
 30
0.0
 11
113.793915
 21
131.758021
 31
0.0
  0
SPLINE
  5
1FC
100
AcDbEntity
  8
SCHRAUBE
 62
     7
100
AcDbSpline
210
0.0
220
0.0
230
1.0
 70
     8
 71
     3
 72
     8
 73
     4
 74
     0
 42
0.00000001
 43
0.00000001
 40
0.0
 40
0.0
 40
0.0
 40
0.0
 40
1.0
 40
1.0
 40
1.0
 40
1.0
 10
113.79391547309027
 20
166.06152615017359
 30
0.0
 10
113.65404459635415
 20
166.24136013454859
 30
0.0
 10
113.65404459635415
 20
166.49354112413192
 30
0.0
 10
113.79391547309027
 20
166.67337510850692
 30
0.0
  0
SPLINE
  5
1FB
100
AcDbEntity
  8
SCHRAUBE
 62
     7
100
AcDbSpline
210
0.0
220
0.0
230
1.0
 70
     8
 71
     3
 72
     8
 73
     4
 74
     0
 42
0.00000001
 43
0.00000001
 40
0.0
 40
0.0
 40
0.0
 40
0.0
 40
1.0
 40
1.0
 40
1.0
 40
1.0
 10
114.68653971354166
 20
166.67337510850692
 30
0.0
 10
114.82641059027777
 20
166.49354112413192
 30
0.0
 10
114.82641059027777
 20
166.24136013454859
 30
0.0
 10
114.68653971354166
 20
166.06152615017359
 30
0.0
  0
SPLINE
  5
1FA
100
AcDbEntity
  8
SCHRAUBE
 62
     7
100
AcDbSpline
210
0.0
220
0.0
230
1.0
 70
     8
 71
     3
 72
     8
 73
     4
 74
     0
 42
0.00000001
 43
0.00000001
 40
0.0
 40
0.0
 40
0.0
 40
0.0
 40
1.0
 40
1.0
 40
1.0
 40
1.0
 10
113.79391547309027
 20
164.22580702039929
 30
0.0
 10
113.65404459635415
 20
164.40581325954861
 30
0.0
 10
113.65404459635415
 20
164.65782199435762
 30
0.0
 10
113.79391547309027
 20
164.83782823350694
 30
0.0
  0
SPLINE
  5
1F9
100
AcDbEntity
  8
SCHRAUBE
 62
     7
100
AcDbSpline
210
0.0
220
0.0
230
1.0
 70
     8
 71
     3
 72
     8
 73
     4
 74
     0
 42
0.00000001
 43
0.00000001
 40
0.0
 40
0.0
 40
0.0
 40
0.0
 40
1.0
 40
1.0
 40
1.0
 40
1.0
 10
114.68653971354166
 20
164.83782823350694
 30
0.0
 10
114.82641059027777
 20
164.65782199435762
 30
0.0
 10
114.82641059027777
 20
164.40581325954861
 30
0.0
 10
114.68653971354166
 20
164.22580702039929
 30
0.0
  0
SPLINE
  5
1F8
100
AcDbEntity
  8
SCHRAUBE
 62
     7
100
AcDbSpline
210
0.0
220
0.0
230
1.0
 70
     8
 71
     3
 72
     8
 73
     4
 74
     0
 42
0.00000001
 43
0.00000001
 40
0.0
 40
0.0
 40
0.0
 40
0.0
 40
1.0
 40
1.0
 40
1.0
 40
1.0
 10
113.79391547309027
 20
164.83782823350694
 30
0.0
 10
113.65404459635415
 20
165.23366970486109
 30
0.0
 10
113.65404459635415
 20
165.66568467881942
 30
0.0
 10
113.79391547309027
 20
166.06152615017359
 30
0.0
  0
SPLINE
  5
1F7
100
AcDbEntity
  8
SCHRAUBE
 62
     7
100
AcDbSpline
210
0.0
220
0.0
230
1.0
 70
     8
 71
     3
 72
     8
 73
     4
 74
     0
 42
0.00000001
 43
0.00000001
 40
0.0
 40
0.0
 40
0.0
 40
0.0
 40
1.0
 40
1.0
 40
1.0
 40
1.0
 10
114.68653971354166
 20
166.06152615017359
 30
0.0
 10
114.82641059027777
 20
165.66568467881942
 30
0.0
 10
114.82641059027777
 20
165.23366970486109
 30
0.0
 10
114.68653971354166
 20
164.83782823350694
 30
0.0
  0
LINE
  5
1F6
100
AcDbEntity
  8
SCHRAUBE
 62
     7
100
AcDbLine
 10
114.791271
 20
164.531731
 30
0.0
 11
114.791271
 21
166.367451
 31
0.0
  0
LINE
  5
1F5
100
AcDbEntity
  8
SCHRAUBE
 62
     7
100
AcDbLine
 10
113.689185
 20
164.531731
 30
0.0
 11
113.689185
 21
166.367451
 31
0.0
  0
POLYLINE
  5
1EF
100
AcDbEntity
  8
SCHRAUBE
 62
     7
100
AcDb2dPolyline
 66
     1
 10
0.0
 20
0.0
 30
0.0
 70
     1
  0
VERTEX
  5
1F0
100
AcDbEntity
  8
SCHRAUBE
 62
     7
100
AcDbVertex
100
AcDb2dVertex
 10
113.247868
 20
167.566688
 30
0.0
  0
VERTEX
  5
1F1
100
AcDbEntity
  8
SCHRAUBE
 62
     7
100
AcDbVertex
100
AcDb2dVertex
 10
113.247868
 20
163.332838
 30
0.0
  0
VERTEX
  5
1F2
100
AcDbEntity
  8
SCHRAUBE
 62
     7
100
AcDbVertex
100
AcDb2dVertex
 10
113.689185
 20
163.332838
 30
0.0
  0
VERTEX
  5
1F3
100
AcDbEntity
  8
SCHRAUBE
 62
     7
100
AcDbVertex
100
AcDb2dVertex
 10
113.689185
 20
167.566688
 30
0.0
  0
SEQEND
  5
1F4
100
AcDbEntity
  8
SCHRAUBE
 62
     7
  0
LINE
  5
1EE
100
AcDbEntity
  8
SCHRAUBE
 62
     7
100
AcDbLine
 10
114.68654
 20
164.837828
 30
0.0
 11
113.793915
 21
164.837828
 31
0.0
  0
LINE
  5
1ED
100
AcDbEntity
  8
SCHRAUBE
 62
     7
100
AcDbLine
 10
114.68654
 20
164.225807
 30
0.0
 11
113.793915
 21
164.225807
 31
0.0
  0
LINE
  5
1EC
100
AcDbEntity
  8
SCHRAUBE
 62
     7
100
AcDbLine
 10
114.68654
 20
166.673375
 30
0.0
 11
113.793915
 21
166.673375
 31
0.0
  0
LINE
  5
1EB
100
AcDbEntity
  8
SCHRAUBE
 62
     7
100
AcDbLine
 10
114.68654
 20
166.061526
 30
0.0
 11
113.793915
 21
166.061526
 31
0.0
  0
INSERT
  5
1AA
100
AcDbEntity
  8
ROHR
 62
     7
100
AcDbBlockReference
  2
AI9-BLK4
 10
95.947115
 20
143.545071
 30
0.0
  0
INSERT
  5
169
100
AcDbEntity
  8
ROHR
 62
     7
100
AcDbBlockReference
  2
AI9-BLK3
 10
164.609935
 20
153.076961
 30
0.0
  0
POLYLINE
  5
161
100
AcDbEntity
  8
RAHMEN
 62
     7
100
AcDb2dPolyline
 66
     1
 10
0.0
 20
0.0
 30
0.0
 70
     1
  0
VERTEX
  5
162
100
AcDbEntity
  8
RAHMEN
 62
     7
100
AcDbVertex
100
AcDb2dVertex
 10
24.520639
 20
221.677253
 30
0.0
  0
VERTEX
  5
163
100
AcDbEntity
  8
RAHMEN
 62
     7
100
AcDbVertex
100
AcDb2dVertex
 10
24.520639
 20
77.417497
 30
0.0
  0
VERTEX
  5
164
100
AcDbEntity
  8
RAHMEN
 62
     7
100
AcDbVertex
100
AcDb2dVertex
 10
186.188463
 20
77.417497
 30
0.0
  0
VERTEX
  5
165
100
AcDbEntity
  8
RAHMEN
 62
     7
100
AcDbVertex
100
AcDb2dVertex
 10
186.188463
 20
221.677253
 30
0.0
  0
SEQEND
  5
166
100
AcDbEntity
  8
RAHMEN
 62
     7
  0
POLYLINE
  5
15B
100
AcDbEntity
  8
RAHMEN
 62
     7
100
AcDb2dPolyline
 66
     1
 10
0.0
 20
0.0
 30
0.0
 70
     1
  0
VERTEX
  5
15C
100
AcDbEntity
  8
RAHMEN
 62
     7
100
AcDbVertex
100
AcDb2dVertex
 10
167.027875
 20
94.023201
 30
0.0
  0
VERTEX
  5
15D
100
AcDbEntity
  8
RAHMEN
 62
     7
100
AcDbVertex
100
AcDb2dVertex
 10
186.077875
 20
94.023201
 30
0.0
  0
VERTEX
  5
15E
100
AcDbEntity
  8
RAHMEN
 62
     7
100
AcDbVertex
100
AcDb2dVertex
 10
186.077875
 20
77.265568
 30
0.0
  0
VERTEX
  5
15F
100
AcDbEntity
  8
RAHMEN
 62
     7
100
AcDbVertex
100
AcDb2dVertex
 10
167.027875
 20
77.265568
 30
0.0
  0
SEQEND
  5
160
100
AcDbEntity
  8
RAHMEN
 62
     7
  0
MTEXT
  5
15A
100
AcDbEntity
  8
RAHMEN
  6
AI9-LType2
 62
     7
100
AcDbMText
 10
168.174059
 20
91.5667
 30
0.0
 40
9.449404
 41
0.0
 71
     1
 72
     2
  1
\fMyriad Roman|b0|i0;\H9.4494;\C7;\U+0035\U+002E\U+0035
  7
STD
210
0.0
220
0.0
230
1.0
 73
     1
 44
1.0
  0
LINE
  5
158
100
AcDbEntity
  8
GETRENNT
  6
AI9-LType2
 62
     7
100
AcDbLine
 10
102.022885
 20
203.695921
 30
0.0
 11
155.315584
 21
203.695921
 31
0.0
  0
LINE
  5
157
100
AcDbEntity
  8
GETRENNT
  6
AI9-LType2
 62
     7
100
AcDbLine
 10
101.928318
 20
92.332004
 30
0.0
 11
155.093376
 21
92.332004
 31
0.0
  0
HATCH
  5
154
100
AcDbEntity
  8
EBENE_1
 62
   152
100
AcDbHatch
 10
0.0
 20
0.0
 30
0.0
210
0.0
220
0.0
230
1.0
  2
SOLID
 70
     1
 71
     0
 91
        1
 92
        1
 93
        1
 72
     4
 94
        3
 73
     0
 74
     0
 95
       23
 96
       19
 40
0.0
 40
0.0
 40
0.0
 40
0.0
 40
1.0
 40
1.0
 40
1.0
 40
2.0
 40
2.0
 40
2.0
 40
3.0
 40
3.0
 40
3.0
 40
4.0
 40
4.0
 40
4.0
 40
5.0
 40
5.0
 40
5.0
 40
6.0
 40
6.0
 40
6.0
 40
6.0
 10
85.583062065972214
 20
129.96726074218748
 10
85.583062065972214
 20
129.96726074218748
 10
85.192388237847211
 20
130.20807291666665
 10
84.661499023437486
 20
130.46197645399303
 10
80.283471679687494
 20
132.55624999999998
 10
81.351279025607639
 20
128.31258138020831
 10
77.017693413628464
 20
130.97977430555554
 10
76.40670572916666
 20
131.35597873263887
 10
75.842571343315967
 20
130.43958333333333
 10
76.45373128255207
 20
130.06337890624999
 10
76.45373128255207
 20
130.06337890624999
 10
76.844060601128461
 20
129.82256673177082
 10
77.374777560763889
 20
129.56831868489581
 10
81.747637261284709
 20
127.47611219618054
 10
80.684997558593736
 20
131.71151258680555
 10
85.01909993489582
 20
129.05052083333331
 10
85.630432128906236
 20
128.67500542534722
 10
86.194222005208331
 20
129.59174533420136
 10
85.583062065972214
 20
129.96726074218748
 97
        0
 75
     0
 76
     1
 98
        1
 10
0.0
 20
0.0
  0
HATCH
  5
153
100
AcDbEntity
  8
EBENE_1
 62
   152
100
AcDbHatch
 10
0.0
 20
0.0
 30
0.0
210
0.0
220
0.0
230
1.0
  2
SOLID
 70
     1
 71
     0
 91
        1
 92
        1
 93
        1
 72
     4
 94
        3
 73
     0
 74
     0
 95
       23
 96
       19
 40
0.0
 40
0.0
 40
0.0
 40
0.0
 40
1.0
 40
1.0
 40
1.0
 40
2.0
 40
2.0
 40
2.0
 40
3.0
 40
3.0
 40
3.0
 40
4.0
 40
4.0
 40
4.0
 40
5.0
 40
5.0
 40
5.0
 40
6.0
 40
6.0
 40
6.0
 40
6.0
 10
85.583062065972214
 20
127.43614908854165
 10
85.583062065972214
 20
127.43614908854165
 10
85.192388237847211
 20
127.67696126302083
 10
84.661499023437486
 20
127.93086480034721
 10
80.283471679687494
 20
130.02513834635417
 10
81.351279025607639
 20
125.78146972656249
 10
77.017693413628464
 20
128.4486626519097
 10
76.40670572916666
 20
128.82486707899304
 10
75.842571343315967
 20
127.90847167968749
 10
76.45373128255207
 20
127.53226725260416
 10
76.45373128255207
 20
127.53226725260416
 10
76.844060601128461
 20
127.29145507812498
 10
77.374777560763889
 20
127.03789605034721
 10
81.747637261284709
 20
124.94500054253471
 10
80.684997558593736
 20
129.18040093315972
 10
85.01909993489582
 20
126.52009819878471
 10
85.630432128906236
 20
126.14389377170137
 10
86.194222005208331
 20
127.06063368055554
 10
85.583062065972214
 20
127.43614908854165
 97
        0
 75
     0
 76
     1
 98
        1
 10
0.0
 20
0.0
  0
HATCH
  5
152
100
AcDbEntity
  8
EBENE_1
 62
   152
100
AcDbHatch
 10
0.0
 20
0.0
 30
0.0
210
0.0
220
0.0
230
1.0
  2
SOLID
 70
     1
 71
     0
 91
        1
 92
        1
 93
        1
 72
     4
 94
        3
 73
     0
 74
     0
 95
       23
 96
       19
 40
0.0
 40
0.0
 40
0.0
 40
0.0
 40
1.0
 40
1.0
 40
1.0
 40
2.0
 40
2.0
 40
2.0
 40
3.0
 40
3.0
 40
3.0
 40
4.0
 40
4.0
 40
4.0
 40
5.0
 40
5.0
 40
5.0
 40
6.0
 40
6.0
 40
6.0
 40
6.0
 10
85.583062065972214
 20
124.90572645399304
 10
85.583062065972214
 20
124.90572645399304
 10
85.192388237847211
 20
125.14653862847221
 10
84.661499023437486
 20
125.40009765624998
 10
80.283471679687494
 20
127.49402669270832
 10
81.351279025607639
 20
123.25104709201388
 10
77.017693413628464
 20
125.91789550781249
 10
76.40670572916666
 20
126.29375542534721
 10
75.842571343315967
 20
125.37736002604166
 10
76.45373128255207
 20
125.00115559895832
 10
76.45373128255207
 20
125.00115559895832
 10
76.844060601128461
 20
124.76103244357638
 10
77.374777560763889
 20
124.50678439670138
 10
81.747637261284709
 20
122.41388888888888
 10
80.684997558593736
 20
126.64928927951388
 10
85.01909993489582
 20
123.98898654513887
 10
85.630432128906236
 20
123.61312662760416
 10
86.194222005208331
 20
124.52986653645833
 10
85.583062065972214
 20
124.90572645399304
 97
        0
 75
     0
 76
     1
 98
        1
 10
0.0
 20
0.0
  0
HATCH
  5
151
100
AcDbEntity
  8
EBENE_1
 62
   152
100
AcDbHatch
 10
0.0
 20
0.0
 30
0.0
210
0.0
220
0.0
230
1.0
  2
SOLID
 70
     1
 71
     0
 91
        1
 92
        1
 93
        1
 72
     4
 94
        3
 73
     0
 74
     0
 95
       23
 96
       19
 40
0.0
 40
0.0
 40
0.0
 40
0.0
 40
1.0
 40
1.0
 40
1.0
 40
2.0
 40
2.0
 40
2.0
 40
3.0
 40
3.0
 40
3.0
 40
4.0
 40
4.0
 40
4.0
 40
5.0
 40
5.0
 40
5.0
 40
6.0
 40
6.0
 40
6.0
 40
6.0
 10
85.583062065972214
 20
132.49389377170138
 10
85.583062065972214
 20
132.49389377170138
 10
85.192388237847211
 20
132.73470594618055
 10
84.661499023437486
 20
132.98895399305553
 10
80.283471679687494
 20
135.08219401041666
 10
81.351279025607639
 20
130.83921440972222
 10
77.017693413628464
 20
133.50675184461804
 10
76.40670572916666
 20
133.88226725260415
 10
75.842571343315967
 20
132.96552734374998
 10
76.45373128255207
 20
132.59001193576387
 10
76.45373128255207
 20
132.59001193576387
 10
76.844060601128461
 20
132.34919976128472
 10
77.374777560763889
 20
132.09529622395831
 10
81.747637261284709
 20
130.00240071614581
 10
80.684997558593736
 20
134.23780110677083
 10
85.01909993489582
 20
131.57749837239581
 10
85.630432128906236
 20
131.2012939453125
 10
86.194222005208331
 20
132.11803385416667
 10
85.583062065972214
 20
132.49389377170138
 97
        0
 75
     0
 76
     1
 98
        1
 10
0.0
 20
0.0
  0
POLYLINE
  5
14A
100
AcDbEntity
  8
SCHRAFFUR
 62
     7
100
AcDb2dPolyline
 66
     1
 10
0.0
 20
0.0
 30
0.0
 70
     1
  0
VERTEX
  5
14B
100
AcDbEntity
  8
SCHRAFFUR
 62
     7
100
AcDbVertex
100
AcDb2dVertex
 10
104.675437
 20
170.341885
 30
0.0
  0
VERTEX
  5
14C
100
AcDbEntity
  8
SCHRAFFUR
 62
     7
100
AcDbVertex
100
AcDb2dVertex
 10
111.484668
 20
170.341885
 30
0.0
  0
VERTEX
  5
14D
100
AcDbEntity
  8
SCHRAFFUR
 62
     7
100
AcDbVertex
100
AcDb2dVertex
 10
111.484668
 20
126.307191
 30
0.0
  0
VERTEX
  5
14E
100
AcDbEntity
  8
SCHRAFFUR
 62
     7
100
AcDbVertex
100
AcDb2dVertex
 10
104.675437
 20
126.307191
 30
0.0
  0
SEQEND
  5
14F
100
AcDbEntity
  8
SCHRAFFUR
 62
     7
  0
HATCH
  5
149
100
AcDbEntity
  8
SCHRAFFUR
 62
     7
100
AcDbHatch
 10
0.0
 20
0.0
 30
0.0
210
0.0
220
0.0
230
1.0
  2
SOLID
 70
     1
 71
     0
 91
        1
 92
        3
 72
     0
 73
     1
 93
        4
 10
104.67543674045137
 20
170.34188503689234
 10
111.48466796874999
 20
170.34188503689234
 10
111.48466796874999
 20
126.30719129774305
 10
104.67543674045137
 20
126.30719129774305
 97
        0
 75
     0
 76
     1
 98
        1
 10
0.0
 20
0.0
  0
LINE
  5
148
100
AcDbEntity
  8
SCHRAFFUR
 62
     7
100
AcDbLine
 10
102.022885
 20
193.648473
 30
0.0
 11
110.84078
 21
202.466367
 31
0.0
  0
LINE
  5
147
100
AcDbEntity
  8
SCHRAFFUR
 62
     7
100
AcDbLine
 10
102.022885
 20
182.872214
 30
0.0
 11
110.84078
 21
191.689936
 31
0.0
  0
LINE
  5
146
100
AcDbEntity
  8
SCHRAFFUR
 62
     7
100
AcDbLine
 10
104.217584
 20
174.290481
 30
0.0
 11
110.84078
 21
180.913677
 31
0.0
  0
LINE
  5
145
100
AcDbEntity
  8
SCHRAFFUR
 62
     7
100
AcDbLine
 10
146.111323
 20
194.631703
 30
0.0
 11
154.929045
 21
203.449425
 31
0.0
  0
LINE
  5
144
100
AcDbEntity
  8
SCHRAFFUR
 62
     7
100
AcDbLine
 10
146.111323
 20
183.855617
 30
0.0
 11
154.929045
 21
192.673166
 31
0.0
  0
LINE
  5
143
100
AcDbEntity
  8
SCHRAFFUR
 62
     7
100
AcDbLine
 10
147.322618
 20
174.290481
 30
0.0
 11
154.929045
 21
181.896735
 31
0.0
  0
LINE
  5
142
100
AcDbEntity
  8
SCHRAFFUR
 62
     7
100
AcDbLine
 10
102.022885
 20
118.214662
 30
0.0
 11
106.738704
 21
122.929964
 31
0.0
  0
LINE
  5
141
100
AcDbEntity
  8
SCHRAFFUR
 62
     7
100
AcDbLine
 10
102.022885
 20
107.438059
 30
0.0
 11
110.84078
 21
116.255436
 31
0.0
  0
LINE
  5
140
100
AcDbEntity
  8
SCHRAFFUR
 62
     7
100
AcDbLine
 10
102.022885
 20
96.6618
 30
0.0
 11
110.84078
 21
105.479522
 31
0.0
  0
LINE
  5
13F
100
AcDbEntity
  8
SCHRAFFUR
 62
     7
100
AcDbLine
 10
108.469865
 20
92.332004
 30
0.0
 11
110.84078
 21
94.702919
 31
0.0
  0
LINE
  5
13E
100
AcDbEntity
  8
SCHRAFFUR
 62
     7
100
AcDbLine
 10
146.111323
 20
119.197548
 30
0.0
 11
149.279088
 21
122.365313
 31
0.0
  0
LINE
  5
13D
100
AcDbEntity
  8
SCHRAFFUR
 62
     7
100
AcDbLine
 10
146.111323
 20
108.421289
 30
0.0
 11
154.929045
 21
117.239011
 31
0.0
  0
LINE
  5
13C
100
AcDbEntity
  8
SCHRAFFUR
 62
     7
100
AcDbLine
 10
146.111323
 20
97.644686
 30
0.0
 11
154.929045
 21
106.462752
 31
0.0
  0
LINE
  5
13B
100
AcDbEntity
  8
SCHRAFFUR
 62
     7
100
AcDbLine
 10
151.575244
 20
92.332004
 30
0.0
 11
154.929045
 21
95.686149
 31
0.0
  0
LINE
  5
13A
100
AcDbEntity
  8
SCHRAFFUR
 62
     7
100
AcDbLine
 10
102.022885
 20
199.036774
 30
0.0
 11
104.623244
 21
201.63696
 31
0.0
  0
LINE
  5
139
100
AcDbEntity
  8
SCHRAFFUR
 62
     7
100
AcDbLine
 10
105.970104
 20
202.98382
 30
0.0
 11
106.682205
 21
203.695921
 31
0.0
  0
LINE
  5
138
100
AcDbEntity
  8
SCHRAFFUR
 62
     7
100
AcDbLine
 10
103.276039
 20
189.513669
 30
0.0
 11
105.970104
 21
192.207562
 31
0.0
  0
LINE
  5
137
100
AcDbEntity
  8
SCHRAFFUR
 62
     7
100
AcDbLine
 10
107.31748
 20
193.554766
 30
0.0
 11
110.011201
 21
196.248659
 31
0.0
  0
LINE
  5
136
100
AcDbEntity
  8
SCHRAFFUR
 62
     7
100
AcDbLine
 10
102.022885
 20
177.484085
 30
0.0
 11
103.276039
 21
178.737238
 31
0.0
  0
LINE
  5
135
100
AcDbEntity
  8
SCHRAFFUR
 62
     7
100
AcDbLine
 10
104.623244
 20
180.084271
 30
0.0
 11
107.31748
 21
182.778335
 31
0.0
  0
LINE
  5
134
100
AcDbEntity
  8
SCHRAFFUR
 62
     7
100
AcDbLine
 10
108.664168
 20
184.125368
 30
0.0
 11
110.84078
 21
186.301634
 31
0.0
  0
LINE
  5
133
100
AcDbEntity
  8
SCHRAFFUR
 62
     7
100
AcDbLine
 10
110.011201
 20
174.696141
 30
0.0
 11
110.84078
 21
175.525376
 31
0.0
  0
LINE
  5
132
100
AcDbEntity
  8
SCHRAFFUR
 62
     7
100
AcDbLine
 10
146.111323
 20
200.020005
 30
0.0
 11
146.381074
 21
200.289756
 31
0.0
  0
LINE
  5
131
100
AcDbEntity
  8
SCHRAFFUR
 62
     7
100
AcDbLine
 10
147.728451
 20
201.63696
 30
0.0
 11
149.787584
 21
203.695921
 31
0.0
  0
LINE
  5
130
100
AcDbEntity
  8
SCHRAFFUR
 62
     7
100
AcDbLine
 10
146.111323
 20
189.243574
 30
0.0
 11
147.728451
 21
190.860529
 31
0.0
  0
LINE
  5
12F
100
AcDbEntity
  8
SCHRAFFUR
 62
     7
100
AcDbLine
 10
149.075483
 20
192.207562
 30
0.0
 11
151.769548
 21
194.901626
 31
0.0
  0
LINE
  5
12E
100
AcDbEntity
  8
SCHRAFFUR
 62
     7
100
AcDbLine
 10
153.11658
 20
196.248659
 30
0.0
 11
154.929045
 21
198.061123
 31
0.0
  0
LINE
  5
12D
100
AcDbEntity
  8
SCHRAFFUR
 62
     7
100
AcDbLine
 10
146.381074
 20
178.737238
 30
0.0
 11
149.075483
 21
181.431131
 31
0.0
  0
LINE
  5
12C
100
AcDbEntity
  8
SCHRAFFUR
 62
     7
100
AcDbLine
 10
150.422171
 20
182.778335
 30
0.0
 11
153.11658
 21
185.472572
 31
0.0
  0
LINE
  5
12B
100
AcDbEntity
  8
SCHRAFFUR
 62
     7
100
AcDbLine
 10
154.463268
 20
186.819432
 30
0.0
 11
154.929045
 21
187.284865
 31
0.0
  0
LINE
  5
12A
100
AcDbEntity
  8
SCHRAFFUR
 62
     7
100
AcDbLine
 10
152.711092
 20
174.290481
 30
0.0
 11
154.463268
 21
176.043174
 31
0.0
  0
LINE
  5
129
100
AcDbEntity
  8
SCHRAFFUR
 62
     7
100
AcDbLine
 10
102.022885
 20
112.826188
 30
0.0
 11
103.276039
 21
114.079514
 31
0.0
  0
LINE
  5
128
100
AcDbEntity
  8
SCHRAFFUR
 62
     7
100
AcDbLine
 10
104.623244
 20
115.426546
 30
0.0
 11
107.31748
 21
118.120611
 31
0.0
  0
LINE
  5
127
100
AcDbEntity
  8
SCHRAFFUR
 62
     7
100
AcDbLine
 10
108.664168
 20
119.467643
 30
0.0
 11
110.273717
 21
121.076847
 31
0.0
  0
LINE
  5
126
100
AcDbEntity
  8
SCHRAFFUR
 62
     7
100
AcDbLine
 10
110.273717
 20
121.076847
 30
0.0
 11
110.84078
 21
121.64391
 31
0.0
  0
LINE
  5
125
100
AcDbEntity
  8
SCHRAFFUR
 62
     7
100
AcDbLine
 10
102.022885
 20
102.049585
 30
0.0
 11
104.623244
 21
104.649943
 31
0.0
  0
LINE
  5
124
100
AcDbEntity
  8
SCHRAFFUR
 62
     7
100
AcDbLine
 10
105.970104
 20
105.99732
 30
0.0
 11
108.664168
 21
108.69104
 31
0.0
  0
LINE
  5
123
100
AcDbEntity
  8
SCHRAFFUR
 62
     7
100
AcDbLine
 10
110.011201
 20
110.038417
 30
0.0
 11
110.84078
 21
110.867651
 31
0.0
  0
LINE
  5
122
100
AcDbEntity
  8
SCHRAFFUR
 62
     7
100
AcDbLine
 10
103.276039
 20
92.526652
 30
0.0
 11
105.970104
 21
95.220717
 31
0.0
  0
LINE
  5
121
100
AcDbEntity
  8
SCHRAFFUR
 62
     7
100
AcDbLine
 10
107.31748
 20
96.567749
 30
0.0
 11
110.011201
 21
99.261814
 31
0.0
  0
LINE
  5
120
100
AcDbEntity
  8
SCHRAFFUR
 62
     7
100
AcDbLine
 10
146.381074
 20
114.079514
 30
0.0
 11
149.075483
 21
116.773234
 31
0.0
  0
LINE
  5
11F
100
AcDbEntity
  8
SCHRAFFUR
 62
     7
100
AcDbLine
 10
150.422171
 20
118.120611
 30
0.0
 11
153.11658
 21
120.814331
 31
0.0
  0
LINE
  5
11E
100
AcDbEntity
  8
SCHRAFFUR
 62
     7
100
AcDbLine
 10
154.463268
 20
122.161708
 30
0.0
 11
154.666873
 21
122.365313
 31
0.0
  0
LINE
  5
11D
100
AcDbEntity
  8
SCHRAFFUR
 62
     7
100
AcDbLine
 10
146.111323
 20
103.03316
 30
0.0
 11
146.381074
 21
103.302911
 31
0.0
  0
LINE
  5
11C
100
AcDbEntity
  8
SCHRAFFUR
 62
     7
100
AcDbLine
 10
147.728451
 20
104.649943
 30
0.0
 11
150.422171
 21
107.344008
 31
0.0
  0
LINE
  5
11B
100
AcDbEntity
  8
SCHRAFFUR
 62
     7
100
AcDbLine
 10
151.769548
 20
108.69104
 30
0.0
 11
154.463268
 21
111.385449
 31
0.0
  0
LINE
  5
11A
100
AcDbEntity
  8
SCHRAFFUR
 62
     7
100
AcDbLine
 10
146.18677
 20
92.332004
 30
0.0
 11
147.728451
 21
93.874029
 31
0.0
  0
LINE
  5
119
100
AcDbEntity
  8
SCHRAFFUR
 62
     7
100
AcDbLine
 10
149.075483
 20
95.220717
 30
0.0
 11
151.769548
 21
97.915126
 31
0.0
  0
LINE
  5
118
100
AcDbEntity
  8
SCHRAFFUR
 62
     7
100
AcDbLine
 10
153.11658
 20
99.261814
 30
0.0
 11
154.929045
 21
101.074623
 31
0.0
  0
LINE
  5
117
100
AcDbEntity
  8
SCHRAFFUR
 62
     7
100
AcDbLine
 10
142.339977
 20
201.63696
 30
0.0
 11
145.034386
 21
198.942723
 31
0.0
  0
LINE
  5
116
100
AcDbEntity
  8
SCHRAFFUR
 62
     7
100
AcDbLine
 10
136.952192
 20
201.63696
 30
0.0
 11
139.646257
 21
198.942723
 31
0.0
  0
LINE
  5
115
100
AcDbEntity
  8
SCHRAFFUR
 62
     7
100
AcDbLine
 10
142.339977
 20
196.248659
 30
0.0
 11
145.034386
 21
193.554766
 31
0.0
  0
LINE
  5
114
100
AcDbEntity
  8
SCHRAFFUR
 62
     7
100
AcDbLine
 10
131.564062
 20
201.63696
 30
0.0
 11
134.257783
 21
198.942723
 31
0.0
  0
LINE
  5
113
100
AcDbEntity
  8
SCHRAFFUR
 62
     7
100
AcDbLine
 10
136.952192
 20
196.248659
 30
0.0
 11
139.646257
 21
193.554766
 31
0.0
  0
LINE
  5
112
100
AcDbEntity
  8
SCHRAFFUR
 62
     7
100
AcDbLine
 10
142.339977
 20
190.860529
 30
0.0
 11
145.034386
 21
188.166465
 31
0.0
  0
LINE
  5
111
100
AcDbEntity
  8
SCHRAFFUR
 62
     7
100
AcDbLine
 10
126.175589
 20
201.63696
 30
0.0
 11
128.869998
 21
198.942723
 31
0.0
  0
LINE
  5
110
100
AcDbEntity
  8
SCHRAFFUR
 62
     7
100
AcDbLine
 10
131.564062
 20
196.248659
 30
0.0
 11
134.257783
 21
193.554766
 31
0.0
  0
LINE
  5
10F
100
AcDbEntity
  8
SCHRAFFUR
 62
     7
100
AcDbLine
 10
136.952192
 20
190.860529
 30
0.0
 11
139.646257
 21
188.166465
 31
0.0
  0
LINE
  5
10E
100
AcDbEntity
  8
SCHRAFFUR
 62
     7
100
AcDbLine
 10
142.339977
 20
185.472572
 30
0.0
 11
145.034386
 21
182.778335
 31
0.0
  0
LINE
  5
10D
100
AcDbEntity
  8
SCHRAFFUR
 62
     7
100
AcDbLine
 10
120.787804
 20
201.63696
 30
0.0
 11
123.481868
 21
198.942723
 31
0.0
  0
LINE
  5
10C
100
AcDbEntity
  8
SCHRAFFUR
 62
     7
100
AcDbLine
 10
126.175589
 20
196.248659
 30
0.0
 11
128.869998
 21
193.554766
 31
0.0
  0
LINE
  5
10B
100
AcDbEntity
  8
SCHRAFFUR
 62
     7
100
AcDbLine
 10
131.564062
 20
190.860529
 30
0.0
 11
134.257783
 21
188.166465
 31
0.0
  0
LINE
  5
10A
100
AcDbEntity
  8
SCHRAFFUR
 62
     7
100
AcDbLine
 10
136.952192
 20
185.472572
 30
0.0
 11
139.646257
 21
182.778335
 31
0.0
  0
LINE
  5
109
100
AcDbEntity
  8
SCHRAFFUR
 62
     7
100
AcDbLine
 10
142.339977
 20
180.084271
 30
0.0
 11
145.034386
 21
177.390034
 31
0.0
  0
LINE
  5
108
100
AcDbEntity
  8
SCHRAFFUR
 62
     7
100
AcDbLine
 10
115.399674
 20
201.63696
 30
0.0
 11
118.093395
 21
198.942723
 31
0.0
  0
LINE
  5
107
100
AcDbEntity
  8
SCHRAFFUR
 62
     7
100
AcDbLine
 10
120.787804
 20
196.248659
 30
0.0
 11
123.481868
 21
193.554766
 31
0.0
  0
LINE
  5
106
100
AcDbEntity
  8
SCHRAFFUR
 62
     7
100
AcDbLine
 10
126.175589
 20
190.860529
 30
0.0
 11
128.869998
 21
188.166465
 31
0.0
  0
LINE
  5
105
100
AcDbEntity
  8
SCHRAFFUR
 62
     7
100
AcDbLine
 10
131.564062
 20
185.472572
 30
0.0
 11
134.257783
 21
182.778335
 31
0.0
  0
LINE
  5
104
100
AcDbEntity
  8
SCHRAFFUR
 62
     7
100
AcDbLine
 10
136.952192
 20
180.084271
 30
0.0
 11
139.646257
 21
177.390034
 31
0.0
  0
LINE
  5
103
100
AcDbEntity
  8
SCHRAFFUR
 62
     7
100
AcDbLine
 10
142.339977
 20
174.696141
 30
0.0
 11
142.745809
 21
174.290481
 31
0.0
  0
LINE
  5
102
100
AcDbEntity
  8
SCHRAFFUR
 62
     7
100
AcDbLine
 10
110.84078
 20
200.807553
 30
0.0
 11
112.705265
 21
198.942723
 31
0.0
  0
LINE
  5
101
100
AcDbEntity
  8
SCHRAFFUR
 62
     7
100
AcDbLine
 10
115.399674
 20
196.248659
 30
0.0
 11
118.093395
 21
193.554766
 31
0.0
  0
LINE
  5
100
100
AcDbEntity
  8
SCHRAFFUR
 62
     7
100
AcDbLine
 10
120.787804
 20
190.860529
 30
0.0
 11
123.481868
 21
188.166465
 31
0.0
  0
LINE
  5
FF
100
AcDbEntity
  8
SCHRAFFUR
 62
     7
100
AcDbLine
 10
126.175589
 20
185.472572
 30
0.0
 11
128.869998
 21
182.778335
 31
0.0
  0
LINE
  5
FE
100
AcDbEntity
  8
SCHRAFFUR
 62
     7
100
AcDbLine
 10
131.564062
 20
180.084271
 30
0.0
 11
134.257783
 21
177.390034
 31
0.0
  0
LINE
  5
FD
100
AcDbEntity
  8
SCHRAFFUR
 62
     7
100
AcDbLine
 10
136.952192
 20
174.696141
 30
0.0
 11
137.358024
 21
174.290481
 31
0.0
  0
LINE
  5
FC
100
AcDbEntity
  8
SCHRAFFUR
 62
     7
100
AcDbLine
 10
110.84078
 20
195.419424
 30
0.0
 11
112.705265
 21
193.554766
 31
0.0
  0
LINE
  5
FB
100
AcDbEntity
  8
SCHRAFFUR
 62
     7
100
AcDbLine
 10
115.399674
 20
190.860529
 30
0.0
 11
118.093395
 21
188.166465
 31
0.0
  0
LINE
  5
FA
100
AcDbEntity
  8
SCHRAFFUR
 62
     7
100
AcDbLine
 10
120.787804
 20
185.472572
 30
0.0
 11
123.481868
 21
182.778335
 31
0.0
  0
LINE
  5
F9
100
AcDbEntity
  8
SCHRAFFUR
 62
     7
100
AcDbLine
 10
126.175589
 20
180.084271
 30
0.0
 11
128.869998
 21
177.390034
 31
0.0
  0
LINE
  5
F8
100
AcDbEntity
  8
SCHRAFFUR
 62
     7
100
AcDbLine
 10
131.564062
 20
174.696141
 30
0.0
 11
131.96955
 21
174.290481
 31
0.0
  0
LINE
  5
F7
100
AcDbEntity
  8
SCHRAFFUR
 62
     7
100
AcDbLine
 10
110.84078
 20
190.031123
 30
0.0
 11
112.705265
 21
188.166465
 31
0.0
  0
LINE
  5
F6
100
AcDbEntity
  8
SCHRAFFUR
 62
     7
100
AcDbLine
 10
115.399674
 20
185.472572
 30
0.0
 11
118.093395
 21
182.778335
 31
0.0
  0
LINE
  5
F5
100
AcDbEntity
  8
SCHRAFFUR
 62
     7
100
AcDbLine
 10
120.787804
 20
180.084271
 30
0.0
 11
123.481868
 21
177.390034
 31
0.0
  0
LINE
  5
F4
100
AcDbEntity
  8
SCHRAFFUR
 62
     7
100
AcDbLine
 10
126.175589
 20
174.696141
 30
0.0
 11
126.581421
 21
174.290481
 31
0.0
  0
LINE
  5
F3
100
AcDbEntity
  8
SCHRAFFUR
 62
     7
100
AcDbLine
 10
110.84078
 20
184.643165
 30
0.0
 11
112.705265
 21
182.778335
 31
0.0
  0
LINE
  5
F2
100
AcDbEntity
  8
SCHRAFFUR
 62
     7
100
AcDbLine
 10
115.399674
 20
180.084271
 30
0.0
 11
118.093395
 21
177.390034
 31
0.0
  0
LINE
  5
F1
100
AcDbEntity
  8
SCHRAFFUR
 62
     7
100
AcDbLine
 10
120.787804
 20
174.696141
 30
0.0
 11
121.193636
 21
174.290481
 31
0.0
  0
LINE
  5
F0
100
AcDbEntity
  8
SCHRAFFUR
 62
     7
100
AcDbLine
 10
110.84078
 20
179.254864
 30
0.0
 11
112.705265
 21
177.390034
 31
0.0
  0
LINE
  5
EF
100
AcDbEntity
  8
SCHRAFFUR
 62
     7
100
AcDbLine
 10
115.399674
 20
174.696141
 30
0.0
 11
115.805162
 21
174.290481
 31
0.0
  0
LINE
  5
EE
100
AcDbEntity
  8
SCHRAFFUR
 62
     7
100
AcDbLine
 10
142.339977
 20
120.814331
 30
0.0
 11
145.034386
 21
118.120611
 31
0.0
  0
LINE
  5
ED
100
AcDbEntity
  8
SCHRAFFUR
 62
     7
100
AcDbLine
 10
136.952192
 20
120.814331
 30
0.0
 11
139.646257
 21
118.120611
 31
0.0
  0
LINE
  5
EC
100
AcDbEntity
  8
SCHRAFFUR
 62
     7
100
AcDbLine
 10
142.339977
 20
115.426546
 30
0.0
 11
145.034386
 21
112.732137
 31
0.0
  0
LINE
  5
EB
100
AcDbEntity
  8
SCHRAFFUR
 62
     7
100
AcDbLine
 10
131.564062
 20
120.814331
 30
0.0
 11
134.257783
 21
118.120611
 31
0.0
  0
LINE
  5
EA
100
AcDbEntity
  8
SCHRAFFUR
 62
     7
100
AcDbLine
 10
136.952192
 20
115.426546
 30
0.0
 11
139.646257
 21
112.732137
 31
0.0
  0
LINE
  5
E9
100
AcDbEntity
  8
SCHRAFFUR
 62
     7
100
AcDbLine
 10
142.339977
 20
110.038417
 30
0.0
 11
145.034386
 21
107.344008
 31
0.0
  0
LINE
  5
E8
100
AcDbEntity
  8
SCHRAFFUR
 62
     7
100
AcDbLine
 10
126.175589
 20
120.814331
 30
0.0
 11
128.869998
 21
118.120611
 31
0.0
  0
LINE
  5
E7
100
AcDbEntity
  8
SCHRAFFUR
 62
     7
100
AcDbLine
 10
131.564062
 20
115.426546
 30
0.0
 11
134.257783
 21
112.732137
 31
0.0
  0
LINE
  5
E6
100
AcDbEntity
  8
SCHRAFFUR
 62
     7
100
AcDbLine
 10
136.952192
 20
110.038417
 30
0.0
 11
139.646257
 21
107.344008
 31
0.0
  0
LINE
  5
E5
100
AcDbEntity
  8
SCHRAFFUR
 62
     7
100
AcDbLine
 10
142.339977
 20
104.649943
 30
0.0
 11
145.034386
 21
101.956223
 31
0.0
  0
LINE
  5
E4
100
AcDbEntity
  8
SCHRAFFUR
 62
     7
100
AcDbLine
 10
120.787804
 20
120.814331
 30
0.0
 11
123.481868
 21
118.120611
 31
0.0
  0
LINE
  5
E3
100
AcDbEntity
  8
SCHRAFFUR
 62
     7
100
AcDbLine
 10
126.175589
 20
115.426546
 30
0.0
 11
128.869998
 21
112.732137
 31
0.0
  0
LINE
  5
E2
100
AcDbEntity
  8
SCHRAFFUR
 62
     7
100
AcDbLine
 10
131.564062
 20
110.038417
 30
0.0
 11
134.257783
 21
107.344008
 31
0.0
  0
LINE
  5
E1
100
AcDbEntity
  8
SCHRAFFUR
 62
     7
100
AcDbLine
 10
136.952192
 20
104.649943
 30
0.0
 11
139.646257
 21
101.956223
 31
0.0
  0
LINE
  5
E0
100
AcDbEntity
  8
SCHRAFFUR
 62
     7
100
AcDbLine
 10
142.339977
 20
99.261814
 30
0.0
 11
145.034386
 21
96.567749
 31
0.0
  0
LINE
  5
DF
100
AcDbEntity
  8
SCHRAFFUR
 62
     7
100
AcDbLine
 10
115.399674
 20
120.814331
 30
0.0
 11
118.093395
 21
118.120611
 31
0.0
  0
LINE
  5
DE
100
AcDbEntity
  8
SCHRAFFUR
 62
     7
100
AcDbLine
 10
120.787804
 20
115.426546
 30
0.0
 11
123.481868
 21
112.732137
 31
0.0
  0
LINE
  5
DD
100
AcDbEntity
  8
SCHRAFFUR
 62
     7
100
AcDbLine
 10
126.175589
 20
110.038417
 30
0.0
 11
128.869998
 21
107.344008
 31
0.0
  0
LINE
  5
DC
100
AcDbEntity
  8
SCHRAFFUR
 62
     7
100
AcDbLine
 10
131.564062
 20
104.649943
 30
0.0
 11
134.257783
 21
101.956223
 31
0.0
  0
LINE
  5
DB
100
AcDbEntity
  8
SCHRAFFUR
 62
     7
100
AcDbLine
 10
136.952192
 20
99.261814
 30
0.0
 11
139.646257
 21
96.567749
 31
0.0
  0
LINE
  5
DA
100
AcDbEntity
  8
SCHRAFFUR
 62
     7
100
AcDbLine
 10
142.339977
 20
93.874029
 30
0.0
 11
143.882001
 21
92.332004
 31
0.0
  0
LINE
  5
D9
100
AcDbEntity
  8
SCHRAFFUR
 62
     7
100
AcDbLine
 10
110.84078
 20
119.985097
 30
0.0
 11
112.705265
 21
118.120611
 31
0.0
  0
LINE
  5
D8
100
AcDbEntity
  8
SCHRAFFUR
 62
     7
100
AcDbLine
 10
115.399674
 20
115.426546
 30
0.0
 11
118.093395
 21
112.732137
 31
0.0
  0
LINE
  5
D7
100
AcDbEntity
  8
SCHRAFFUR
 62
     7
100
AcDbLine
 10
120.787804
 20
110.038417
 30
0.0
 11
123.481868
 21
107.344008
 31
0.0
  0
LINE
  5
D6
100
AcDbEntity
  8
SCHRAFFUR
 62
     7
100
AcDbLine
 10
126.175589
 20
104.649943
 30
0.0
 11
128.869998
 21
101.956223
 31
0.0
  0
LINE
  5
D5
100
AcDbEntity
  8
SCHRAFFUR
 62
     7
100
AcDbLine
 10
131.564062
 20
99.261814
 30
0.0
 11
134.257783
 21
96.567749
 31
0.0
  0
LINE
  5
D4
100
AcDbEntity
  8
SCHRAFFUR
 62
     7
100
AcDbLine
 10
136.952192
 20
93.874029
 30
0.0
 11
138.493872
 21
92.332004
 31
0.0
  0
LINE
  5
D3
100
AcDbEntity
  8
SCHRAFFUR
 62
     7
100
AcDbLine
 10
110.84078
 20
114.597312
 30
0.0
 11
112.705265
 21
112.732137
 31
0.0
  0
LINE
  5
D2
100
AcDbEntity
  8
SCHRAFFUR
 62
     7
100
AcDbLine
 10
115.399674
 20
110.038417
 30
0.0
 11
118.093395
 21
107.344008
 31
0.0
  0
LINE
  5
D1
100
AcDbEntity
  8
SCHRAFFUR
 62
     7
100
AcDbLine
 10
120.787804
 20
104.649943
 30
0.0
 11
123.481868
 21
101.956223
 31
0.0
  0
LINE
  5
D0
100
AcDbEntity
  8
SCHRAFFUR
 62
     7
100
AcDbLine
 10
126.175589
 20
99.261814
 30
0.0
 11
128.869998
 21
96.567749
 31
0.0
  0
LINE
  5
CF
100
AcDbEntity
  8
SCHRAFFUR
 62
     7
100
AcDbLine
 10
131.564062
 20
93.874029
 30
0.0
 11
133.105398
 21
92.332004
 31
0.0
  0
LINE
  5
CE
100
AcDbEntity
  8
SCHRAFFUR
 62
     7
100
AcDbLine
 10
110.84078
 20
109.208838
 30
0.0
 11
112.705265
 21
107.344008
 31
0.0
  0
LINE
  5
CD
100
AcDbEntity
  8
SCHRAFFUR
 62
     7
100
AcDbLine
 10
115.399674
 20
104.649943
 30
0.0
 11
118.093395
 21
101.956223
 31
0.0
  0
LINE
  5
CC
100
AcDbEntity
  8
SCHRAFFUR
 62
     7
100
AcDbLine
 10
120.787804
 20
99.261814
 30
0.0
 11
123.481868
 21
96.567749
 31
0.0
  0
LINE
  5
CB
100
AcDbEntity
  8
SCHRAFFUR
 62
     7
100
AcDbLine
 10
126.175589
 20
93.874029
 30
0.0
 11
127.717613
 21
92.332004
 31
0.0
  0
LINE
  5
CA
100
AcDbEntity
  8
SCHRAFFUR
 62
     7
100
AcDbLine
 10
110.84078
 20
103.820709
 30
0.0
 11
112.705265
 21
101.956223
 31
0.0
  0
LINE
  5
C9
100
AcDbEntity
  8
SCHRAFFUR
 62
     7
100
AcDbLine
 10
115.399674
 20
99.261814
 30
0.0
 11
118.093395
 21
96.567749
 31
0.0
  0
LINE
  5
C8
100
AcDbEntity
  8
SCHRAFFUR
 62
     7
100
AcDbLine
 10
120.787804
 20
93.874029
 30
0.0
 11
122.329484
 21
92.332004
 31
0.0
  0
LINE
  5
C7
100
AcDbEntity
  8
SCHRAFFUR
 62
     7
100
AcDbLine
 10
110.84078
 20
98.432924
 30
0.0
 11
112.705265
 21
96.567749
 31
0.0
  0
LINE
  5
C6
100
AcDbEntity
  8
SCHRAFFUR
 62
     7
100
AcDbLine
 10
115.399674
 20
93.874029
 30
0.0
 11
116.94101
 21
92.332004
 31
0.0
  0
LINE
  5
C5
100
AcDbEntity
  8
SCHRAFFUR
 62
     7
100
AcDbLine
 10
110.84078
 20
93.04445
 30
0.0
 11
111.552881
 21
92.332004
 31
0.0
  0
LINE
  5
C3
100
AcDbEntity
  8
EBENE_12
 62
     7
100
AcDbLine
 10
154.287223
 20
174.286175
 30
0.0
 11
154.903895
 21
173.669503
 31
0.0
  0
LINE
  5
C2
100
AcDbEntity
  8
EBENE_12
 62
     7
100
AcDbLine
 10
149.97672
 20
174.286175
 30
0.0
 11
153.915153
 21
170.347914
 31
0.0
  0
LINE
  5
C1
100
AcDbEntity
  8
EBENE_12
 62
     7
100
AcDbLine
 10
146.073771
 20
173.878792
 30
0.0
 11
149.60465
 21
170.347914
 31
0.0
  0
LINE
  5
C0
100
AcDbEntity
  8
EBENE_12
 62
     7
100
AcDbLine
 10
141.355713
 20
174.286175
 30
0.0
 11
145.294146
 21
170.347914
 31
0.0
  0
LINE
  5
BF
100
AcDbEntity
  8
EBENE_12
 62
     7
100
AcDbLine
 10
137.045209
 20
174.286175
 30
0.0
 11
140.983643
 21
170.347914
 31
0.0
  0
LINE
  5
BE
100
AcDbEntity
  8
EBENE_12
 62
     7
100
AcDbLine
 10
132.734706
 20
174.286175
 30
0.0
 11
132.831169
 21
174.189884
 31
0.0
  0
LINE
  5
BD
100
AcDbEntity
  8
EBENE_12
 62
     7
100
AcDbLine
 10
133.099886
 20
173.920995
 30
0.0
 11
136.673139
 21
170.347914
 31
0.0
  0
LINE
  5
BC
100
AcDbEntity
  8
EBENE_12
 62
     7
100
AcDbLine
 10
128.715658
 20
173.995064
 30
0.0
 11
132.362636
 21
170.347914
 31
0.0
  0
LINE
  5
BB
100
AcDbEntity
  8
EBENE_12
 62
     7
100
AcDbLine
 10
124.113699
 20
174.286175
 30
0.0
 11
128.052132
 21
170.347914
 31
0.0
  0
LINE
  5
BA
100
AcDbEntity
  8
EBENE_12
 62
     7
100
AcDbLine
 10
119.803196
 20
174.286175
 30
0.0
 11
123.741629
 21
170.347914
 31
0.0
  0
LINE
  5
B9
100
AcDbEntity
  8
EBENE_12
 62
     7
100
AcDbLine
 10
115.492692
 20
174.286175
 30
0.0
 11
119.431125
 21
170.347914
 31
0.0
  0
LINE
  5
B8
100
AcDbEntity
  8
EBENE_12
 62
     7
100
AcDbLine
 10
111.182189
 20
174.286175
 30
0.0
 11
115.120622
 21
170.347914
 31
0.0
  0
LINE
  5
B7
100
AcDbEntity
  8
EBENE_12
 62
     7
100
AcDbLine
 10
107.222051
 20
173.935809
 30
0.0
 11
110.810118
 21
170.347914
 31
0.0
  0
LINE
  5
B6
100
AcDbEntity
  8
EBENE_12
 62
     7
100
AcDbLine
 10
102.561009
 20
174.286175
 30
0.0
 11
106.499615
 21
170.347914
 31
0.0
  0
LINE
  5
B5
100
AcDbEntity
  8
EBENE_12
 62
     7
100
AcDbLine
 10
102.015306
 20
170.521547
 30
0.0
 11
102.188939
 21
170.347914
 31
0.0
  0
LINE
  5
B4
100
AcDbEntity
  8
EBENE_12
 62
     7
100
AcDbLine
 10
102.015306
 20
126.125979
 30
0.0
 11
102.188939
 21
126.299612
 31
0.0
  0
LINE
  5
B3
100
AcDbEntity
  8
EBENE_12
 62
     7
100
AcDbLine
 10
102.561009
 20
122.360834
 30
0.0
 11
106.499615
 21
126.299612
 31
0.0
  0
LINE
  5
B2
100
AcDbEntity
  8
EBENE_12
 62
     7
100
AcDbLine
 10
107.222051
 20
122.711201
 30
0.0
 11
110.810118
 21
126.299612
 31
0.0
  0
LINE
  5
B1
100
AcDbEntity
  8
EBENE_12
 62
     7
100
AcDbLine
 10
111.182189
 20
122.360834
 30
0.0
 11
115.120622
 21
126.299612
 31
0.0
  0
LINE
  5
B0
100
AcDbEntity
  8
EBENE_12
 62
     7
100
AcDbLine
 10
115.492692
 20
122.360834
 30
0.0
 11
119.431125
 21
126.299612
 31
0.0
  0
LINE
  5
AF
100
AcDbEntity
  8
EBENE_12
 62
     7
100
AcDbLine
 10
119.803196
 20
122.360834
 30
0.0
 11
123.741629
 21
126.299612
 31
0.0
  0
LINE
  5
AE
100
AcDbEntity
  8
EBENE_12
 62
     7
100
AcDbLine
 10
124.113699
 20
122.360834
 30
0.0
 11
128.052132
 21
126.299612
 31
0.0
  0
LINE
  5
AD
100
AcDbEntity
  8
EBENE_12
 62
     7
100
AcDbLine
 10
128.715658
 20
122.652289
 30
0.0
 11
132.362636
 21
126.299612
 31
0.0
  0
LINE
  5
AC
100
AcDbEntity
  8
EBENE_12
 62
     7
100
AcDbLine
 10
132.734706
 20
122.360834
 30
0.0
 11
132.831169
 21
122.457297
 31
0.0
  0
LINE
  5
AB
100
AcDbEntity
  8
EBENE_12
 62
     7
100
AcDbLine
 10
133.099886
 20
122.726359
 30
0.0
 11
136.673139
 21
126.299612
 31
0.0
  0
LINE
  5
AA
100
AcDbEntity
  8
EBENE_12
 62
     7
100
AcDbLine
 10
137.045209
 20
122.360834
 30
0.0
 11
140.983643
 21
126.299612
 31
0.0
  0
LINE
  5
A9
100
AcDbEntity
  8
EBENE_12
 62
     7
100
AcDbLine
 10
141.355713
 20
122.360834
 30
0.0
 11
145.294146
 21
126.299612
 31
0.0
  0
LINE
  5
A8
100
AcDbEntity
  8
EBENE_12
 62
     7
100
AcDbLine
 10
146.073771
 20
122.768389
 30
0.0
 11
149.60465
 21
126.299612
 31
0.0
  0
LINE
  5
A7
100
AcDbEntity
  8
EBENE_12
 62
     7
100
AcDbLine
 10
149.97672
 20
122.360834
 30
0.0
 11
153.915153
 21
126.299612
 31
0.0
  0
LINE
  5
A6
100
AcDbEntity
  8
EBENE_12
 62
     7
100
AcDbLine
 10
154.287223
 20
122.360834
 30
0.0
 11
154.903895
 21
122.977851
 31
0.0
  0
SPLINE
  5
A5
100
AcDbEntity
  8
EBENE_12
 62
     7
100
AcDbSpline
210
0.0
220
0.0
230
1.0
 70
     8
 71
     3
 72
    11
 73
     7
 74
     0
 42
0.00000001
 43
0.00000001
 40
0.0
 40
0.0
 40
0.0
 40
0.0
 40
1.0
 40
1.0
 40
1.0
 40
2.0
 40
2.0
 40
2.0
 40
2.0
 10
107.53245442708332
 20
174.28617485894097
 30
0.0
 10
107.20999348958333
 20
173.72789713541664
 30
0.0
 10
106.49582519531249
 20
173.53652208116318
 30
0.0
 10
105.93737521701388
 20
173.85881076388887
 30
0.0
 10
105.75995279947915
 20
173.96147460937499
 30
0.0
 10
105.6125027126736
 20
174.10892469618054
 30
0.0
 10
105.51018337673611
 20
174.28617485894097
 30
0.0
  0
SPLINE
  5
A4
100
AcDbEntity
  8
EBENE_12
 62
     7
100
AcDbSpline
210
0.0
220
0.0
230
1.0
 70
     8
 71
     3
 72
    11
 73
     7
 74
     0
 42
0.00000001
 43
0.00000001
 40
0.0
 40
0.0
 40
0.0
 40
0.0
 40
1.0
 40
1.0
 40
1.0
 40
2.0
 40
2.0
 40
2.0
 40
2.0
 10
146.46754557291666
 20
174.28617485894097
 30
0.0
 10
146.14508463541665
 20
173.72789713541664
 30
0.0
 10
145.43091634114583
 20
173.53652208116318
 30
0.0
 10
144.87246636284721
 20
173.85881076388887
 30
0.0
 10
144.69504394531248
 20
173.96147460937499
 30
0.0
 10
144.54759385850693
 20
174.10892469618054
 30
0.0
 10
144.44493001302081
 20
174.28617485894097
 30
0.0
  0
SPLINE
  5
A3
100
AcDbEntity
  8
EBENE_12
 62
     7
100
AcDbSpline
210
0.0
220
0.0
230
1.0
 70
     8
 71
     3
 72
    11
 73
     7
 74
     0
 42
0.00000001
 43
0.00000001
 40
0.0
 40
0.0
 40
0.0
 40
0.0
 40
1.0
 40
1.0
 40
1.0
 40
2.0
 40
2.0
 40
2.0
 40
2.0
 10
152.30560438368053
 20
174.28617485894097
 30
0.0
 10
151.98314344618055
 20
173.72789713541664
 30
0.0
 10
151.26931966145833
 20
173.53652208116318
 30
0.0
 10
150.7105251736111
 20
173.85881076388887
 30
0.0
 10
150.53310275607637
 20
173.96147460937499
 30
0.0
 10
150.38565266927083
 20
174.10892469618054
 30
0.0
 10
150.28333333333333
 20
174.28617485894097
 30
0.0
  0
SPLINE
  5
A2
100
AcDbEntity
  8
EBENE_12
 62
     7
100
AcDbSpline
210
0.0
220
0.0
230
1.0
 70
     8
 71
     3
 72
    11
 73
     7
 74
     0
 42
0.00000001
 43
0.00000001
 40
0.0
 40
0.0
 40
0.0
 40
0.0
 40
1.0
 40
1.0
 40
1.0
 40
2.0
 40
2.0
 40
2.0
 40
2.0
 10
140.62914225260414
 20
174.28617485894097
 30
0.0
 10
140.30702582465275
 20
173.72789713541664
 30
0.0
 10
139.59285753038193
 20
173.53652208116318
 30
0.0
 10
139.03440755208331
 20
173.85881076388887
 30
0.0
 10
138.85664062499998
 20
173.96147460937499
 30
0.0
 10
138.70953504774303
 20
174.10892469618054
 30
0.0
 10
138.60687120225694
 20
174.28617485894097
 30
0.0
  0
SPLINE
  5
A1
100
AcDbEntity
  8
EBENE_12
 62
     7
100
AcDbSpline
210
0.0
220
0.0
230
1.0
 70
     8
 71
     3
 72
    11
 73
     7
 74
     0
 42
0.00000001
 43
0.00000001
 40
0.0
 40
0.0
 40
0.0
 40
0.0
 40
1.0
 40
1.0
 40
1.0
 40
2.0
 40
2.0
 40
2.0
 40
2.0
 10
134.79142795138887
 20
174.28617485894097
 30
0.0
 10
134.46896701388889
 20
173.72789713541664
 30
0.0
 10
133.75479871961804
 20
173.53652208116318
 30
0.0
 10
133.19634874131944
 20
173.85881076388887
 30
0.0
 10
133.01892632378471
 20
173.96147460937499
 30
0.0
 10
132.87113172743054
 20
174.10892469618054
 30
0.0
 10
132.76915690104167
 20
174.28617485894097
 30
0.0
  0
SPLINE
  5
A0
100
AcDbEntity
  8
EBENE_12
 62
     7
100
AcDbSpline
210
0.0
220
0.0
230
1.0
 70
     8
 71
     3
 72
    11
 73
     7
 74
     0
 42
0.00000001
 43
0.00000001
 40
0.0
 40
0.0
 40
0.0
 40
0.0
 40
1.0
 40
1.0
 40
1.0
 40
2.0
 40
2.0
 40
2.0
 40
2.0
 10
128.953369140625
 20
174.28617485894097
 30
0.0
 10
128.63090820312499
 20
173.72789713541664
 30
0.0
 10
127.91639539930554
 20
173.53652208116318
 30
0.0
 10
127.35828993055554
 20
173.85881076388887
 30
0.0
 10
127.18052300347222
 20
173.96147460937499
 30
0.0
 10
127.03307291666665
 20
174.10892469618054
 30
0.0
 10
126.93075358072916
 20
174.28617485894097
 30
0.0
  0
SPLINE
  5
9F
100
AcDbEntity
  8
EBENE_12
 62
     7
100
AcDbSpline
210
0.0
220
0.0
230
1.0
 70
     8
 71
     3
 72
    11
 73
     7
 74
     0
 42
0.00000001
 43
0.00000001
 40
0.0
 40
0.0
 40
0.0
 40
0.0
 40
1.0
 40
1.0
 40
1.0
 40
2.0
 40
2.0
 40
2.0
 40
2.0
 10
123.94488932291665
 20
174.28617485894097
 30
0.0
 10
123.62277289496527
 20
173.72789713541664
 30
0.0
 10
122.90860460069443
 20
173.53652208116318
 30
0.0
 10
122.35015462239582
 20
173.85881076388887
 30
0.0
 10
122.17273220486111
 20
173.96147460937499
 30
0.0
 10
122.02528211805554
 20
174.10892469618054
 30
0.0
 10
121.92261827256944
 20
174.28617485894097
 30
0.0
  0
SPLINE
  5
9E
100
AcDbEntity
  8
EBENE_12
 62
     7
100
AcDbSpline
210
0.0
220
0.0
230
1.0
 70
     8
 71
     3
 72
    11
 73
     7
 74
     0
 42
0.00000001
 43
0.00000001
 40
0.0
 40
0.0
 40
0.0
 40
0.0
 40
1.0
 40
1.0
 40
1.0
 40
2.0
 40
2.0
 40
2.0
 40
2.0
 10
118.37830403645832
 20
174.28617485894097
 30
0.0
 10
118.05584309895832
 20
173.72789713541664
 30
0.0
 10
117.3420193142361
 20
173.53652208116318
 30
0.0
 10
116.78356933593749
 20
173.85881076388887
 30
0.0
 10
116.60580240885416
 20
173.96147460937499
 30
0.0
 10
116.45869683159721
 20
174.10892469618054
 30
0.0
 10
116.3560329861111
 20
174.28617485894097
 30
0.0
  0
SPLINE
  5
9D
100
AcDbEntity
  8
EBENE_12
 62
     7
100
AcDbSpline
210
0.0
220
0.0
230
1.0
 70
     8
 71
     3
 72
    11
 73
     7
 74
     0
 42
0.00000001
 43
0.00000001
 40
0.0
 40
0.0
 40
0.0
 40
0.0
 40
1.0
 40
1.0
 40
1.0
 40
2.0
 40
2.0
 40
2.0
 40
2.0
 10
113.37051323784721
 20
174.28617485894097
 30
0.0
 10
113.04805230034721
 20
173.72789713541664
 30
0.0
 10
112.33388400607637
 20
173.53652208116318
 30
0.0
 10
111.77543402777776
 20
173.85881076388887
 30
0.0
 10
111.59801161024305
 20
173.96147460937499
 30
0.0
 10
111.45056152343749
 20
174.10892469618054
 30
0.0
 10
111.34824218749999
 20
174.28617485894097
 30
0.0
  0
LINE
  5
9C
100
AcDbEntity
  8
EBENE_12
 62
     7
100
AcDbLine
 10
144.44493
 20
174.286175
 30
0.0
 11
140.629142
 21
174.286175
 31
0.0
  0
LINE
  5
9B
100
AcDbEntity
  8
EBENE_12
 62
     7
100
AcDbLine
 10
121.922618
 20
174.286175
 30
0.0
 11
118.378304
 21
174.286175
 31
0.0
  0
LINE
  5
9A
100
AcDbEntity
  8
EBENE_12
 62
     7
100
AcDbLine
 10
107.532454
 20
174.286175
 30
0.0
 11
111.348242
 21
174.286175
 31
0.0
  0
LINE
  5
99
100
AcDbEntity
  8
EBENE_12
 62
     7
100
AcDbLine
 10
102.015306
 20
174.286175
 30
0.0
 11
105.510183
 21
174.286175
 31
0.0
  0
LINE
  5
98
100
AcDbEntity
  8
EBENE_12
 62
     7
100
AcDbLine
 10
116.356033
 20
174.286175
 30
0.0
 11
113.370513
 21
174.286175
 31
0.0
  0
LINE
  5
97
100
AcDbEntity
  8
EBENE_12
 62
     7
100
AcDbLine
 10
132.769157
 20
174.286175
 30
0.0
 11
128.953369
 21
174.286175
 31
0.0
  0
LINE
  5
96
100
AcDbEntity
  8
EBENE_12
 62
     7
100
AcDbLine
 10
126.930754
 20
174.286175
 30
0.0
 11
123.944889
 21
174.286175
 31
0.0
  0
LINE
  5
95
100
AcDbEntity
  8
EBENE_12
 62
     7
100
AcDbLine
 10
138.606871
 20
174.286175
 30
0.0
 11
134.791428
 21
174.286175
 31
0.0
  0
LINE
  5
94
100
AcDbEntity
  8
EBENE_12
 62
     7
100
AcDbLine
 10
150.283333
 20
174.286175
 30
0.0
 11
146.467546
 21
174.286175
 31
0.0
  0
LINE
  5
93
100
AcDbEntity
  8
EBENE_12
 62
     7
100
AcDbLine
 10
154.903895
 20
174.286175
 30
0.0
 11
152.305604
 21
174.286175
 31
0.0
  0
SPLINE
  5
92
100
AcDbEntity
  8
EBENE_12
 62
     7
100
AcDbSpline
210
0.0
220
0.0
230
1.0
 70
     8
 71
     3
 72
    11
 73
     7
 74
     0
 42
0.00000001
 43
0.00000001
 40
0.0
 40
0.0
 40
0.0
 40
0.0
 40
1.0
 40
1.0
 40
1.0
 40
2.0
 40
2.0
 40
2.0
 40
2.0
 10
107.53245442708332
 20
122.36083441840276
 30
0.0
 10
107.20999348958333
 20
122.91928439670137
 30
0.0
 10
106.49582519531249
 20
123.11083170572915
 30
0.0
 10
105.93737521701388
 20
122.78837076822916
 30
0.0
 10
105.75995279947915
 20
122.68570692274305
 30
0.0
 10
105.6125027126736
 20
122.5386013454861
 30
0.0
 10
105.51018337673611
 20
122.36083441840276
 30
0.0
  0
SPLINE
  5
91
100
AcDbEntity
  8
EBENE_12
 62
     7
100
AcDbSpline
210
0.0
220
0.0
230
1.0
 70
     8
 71
     3
 72
    11
 73
     7
 74
     0
 42
0.00000001
 43
0.00000001
 40
0.0
 40
0.0
 40
0.0
 40
0.0
 40
1.0
 40
1.0
 40
1.0
 40
2.0
 40
2.0
 40
2.0
 40
2.0
 10
146.46754557291666
 20
122.36083441840276
 30
0.0
 10
146.14508463541665
 20
122.91928439670137
 30
0.0
 10
145.43091634114583
 20
123.11083170572915
 30
0.0
 10
144.87246636284721
 20
122.78837076822916
 30
0.0
 10
144.69504394531248
 20
122.68570692274305
 30
0.0
 10
144.54759385850693
 20
122.5386013454861
 30
0.0
 10
144.44493001302081
 20
122.36083441840276
 30
0.0
  0
SPLINE
  5
90
100
AcDbEntity
  8
EBENE_12
 62
     7
100
AcDbSpline
210
0.0
220
0.0
230
1.0
 70
     8
 71
     3
 72
    11
 73
     7
 74
     0
 42
0.00000001
 43
0.00000001
 40
0.0
 40
0.0
 40
0.0
 40
0.0
 40
1.0
 40
1.0
 40
1.0
 40
2.0
 40
2.0
 40
2.0
 40
2.0
 10
152.30560438368053
 20
122.36083441840276
 30
0.0
 10
151.98314344618055
 20
122.91928439670137
 30
0.0
 10
151.26931966145833
 20
123.11083170572915
 30
0.0
 10
150.7105251736111
 20
122.78837076822916
 30
0.0
 10
150.53310275607637
 20
122.68570692274305
 30
0.0
 10
150.38565266927083
 20
122.5386013454861
 30
0.0
 10
150.28333333333333
 20
122.36083441840276
 30
0.0
  0
SPLINE
  5
8F
100
AcDbEntity
  8
EBENE_12
 62
     7
100
AcDbSpline
210
0.0
220
0.0
230
1.0
 70
     8
 71
     3
 72
    11
 73
     7
 74
     0
 42
0.00000001
 43
0.00000001
 40
0.0
 40
0.0
 40
0.0
 40
0.0
 40
1.0
 40
1.0
 40
1.0
 40
2.0
 40
2.0
 40
2.0
 40
2.0
 10
140.62914225260414
 20
122.36083441840276
 30
0.0
 10
140.30702582465275
 20
122.91928439670137
 30
0.0
 10
139.59285753038193
 20
123.11083170572915
 30
0.0
 10
139.03440755208331
 20
122.78837076822916
 30
0.0
 10
138.85664062499998
 20
122.68570692274305
 30
0.0
 10
138.70953504774303
 20
122.5386013454861
 30
0.0
 10
138.60687120225694
 20
122.36083441840276
 30
0.0
  0
SPLINE
  5
8E
100
AcDbEntity
  8
EBENE_12
 62
     7
100
AcDbSpline
210
0.0
220
0.0
230
1.0
 70
     8
 71
     3
 72
    11
 73
     7
 74
     0
 42
0.00000001
 43
0.00000001
 40
0.0
 40
0.0
 40
0.0
 40
0.0
 40
1.0
 40
1.0
 40
1.0
 40
2.0
 40
2.0
 40
2.0
 40
2.0
 10
134.79142795138887
 20
122.36083441840276
 30
0.0
 10
134.46896701388889
 20
122.91928439670137
 30
0.0
 10
133.75479871961804
 20
123.11083170572915
 30
0.0
 10
133.19634874131944
 20
122.78837076822916
 30
0.0
 10
133.01892632378471
 20
122.68570692274305
 30
0.0
 10
132.87113172743054
 20
122.5386013454861
 30
0.0
 10
132.76915690104167
 20
122.36083441840276
 30
0.0
  0
SPLINE
  5
8D
100
AcDbEntity
  8
EBENE_12
 62
     7
100
AcDbSpline
210
0.0
220
0.0
230
1.0
 70
     8
 71
     3
 72
    11
 73
     7
 74
     0
 42
0.00000001
 43
0.00000001
 40
0.0
 40
0.0
 40
0.0
 40
0.0
 40
1.0
 40
1.0
 40
1.0
 40
2.0
 40
2.0
 40
2.0
 40
2.0
 10
128.953369140625
 20
122.36083441840276
 30
0.0
 10
128.63090820312499
 20
122.91928439670137
 30
0.0
 10
127.91639539930554
 20
123.11083170572915
 30
0.0
 10
127.35828993055554
 20
122.78837076822916
 30
0.0
 10
127.18052300347222
 20
122.68570692274305
 30
0.0
 10
127.03307291666665
 20
122.5386013454861
 30
0.0
 10
126.93075358072916
 20
122.36083441840276
 30
0.0
  0
SPLINE
  5
8C
100
AcDbEntity
  8
EBENE_12
 62
     7
100
AcDbSpline
210
0.0
220
0.0
230
1.0
 70
     8
 71
     3
 72
    11
 73
     7
 74
     0
 42
0.00000001
 43
0.00000001
 40
0.0
 40
0.0
 40
0.0
 40
0.0
 40
1.0
 40
1.0
 40
1.0
 40
2.0
 40
2.0
 40
2.0
 40
2.0
 10
123.94488932291665
 20
122.36083441840276
 30
0.0
 10
123.62277289496527
 20
122.91928439670137
 30
0.0
 10
122.90860460069443
 20
123.11083170572915
 30
0.0
 10
122.35015462239582
 20
122.78837076822916
 30
0.0
 10
122.17273220486111
 20
122.68570692274305
 30
0.0
 10
122.02528211805554
 20
122.5386013454861
 30
0.0
 10
121.92261827256944
 20
122.36083441840276
 30
0.0
  0
SPLINE
  5
8B
100
AcDbEntity
  8
EBENE_12
 62
     7
100
AcDbSpline
210
0.0
220
0.0
230
1.0
 70
     8
 71
     3
 72
    11
 73
     7
 74
     0
 42
0.00000001
 43
0.00000001
 40
0.0
 40
0.0
 40
0.0
 40
0.0
 40
1.0
 40
1.0
 40
1.0
 40
2.0
 40
2.0
 40
2.0
 40
2.0
 10
118.37830403645832
 20
122.36083441840276
 30
0.0
 10
118.05584309895832
 20
122.91928439670137
 30
0.0
 10
117.3420193142361
 20
123.11083170572915
 30
0.0
 10
116.78356933593749
 20
122.78837076822916
 30
0.0
 10
116.60580240885416
 20
122.68570692274305
 30
0.0
 10
116.45869683159721
 20
122.5386013454861
 30
0.0
 10
116.3560329861111
 20
122.36083441840276
 30
0.0
  0
SPLINE
  5
8A
100
AcDbEntity
  8
EBENE_12
 62
     7
100
AcDbSpline
210
0.0
220
0.0
230
1.0
 70
     8
 71
     3
 72
    11
 73
     7
 74
     0
 42
0.00000001
 43
0.00000001
 40
0.0
 40
0.0
 40
0.0
 40
0.0
 40
1.0
 40
1.0
 40
1.0
 40
2.0
 40
2.0
 40
2.0
 40
2.0
 10
113.37051323784721
 20
122.36083441840276
 30
0.0
 10
113.04805230034721
 20
122.91928439670137
 30
0.0
 10
112.33388400607637
 20
123.11083170572915
 30
0.0
 10
111.77543402777776
 20
122.78837076822916
 30
0.0
 10
111.59801161024305
 20
122.68570692274305
 30
0.0
 10
111.45056152343749
 20
122.5386013454861
 30
0.0
 10
111.34824218749999
 20
122.36083441840276
 30
0.0
  0
LINE
  5
89
100
AcDbEntity
  8
EBENE_12
 62
     7
100
AcDbLine
 10
144.44493
 20
122.360834
 30
0.0
 11
140.629142
 21
122.360834
 31
0.0
  0
LINE
  5
88
100
AcDbEntity
  8
EBENE_12
 62
     7
100
AcDbLine
 10
121.922618
 20
122.360834
 30
0.0
 11
118.378304
 21
122.360834
 31
0.0
  0
LINE
  5
87
100
AcDbEntity
  8
EBENE_12
 62
     7
100
AcDbLine
 10
107.532454
 20
122.360834
 30
0.0
 11
111.348242
 21
122.360834
 31
0.0
  0
LINE
  5
86
100
AcDbEntity
  8
EBENE_12
 62
     7
100
AcDbLine
 10
102.015306
 20
122.360834
 30
0.0
 11
105.510183
 21
122.360834
 31
0.0
  0
LINE
  5
85
100
AcDbEntity
  8
EBENE_12
 62
     7
100
AcDbLine
 10
116.356033
 20
122.360834
 30
0.0
 11
113.370513
 21
122.360834
 31
0.0
  0
LINE
  5
84
100
AcDbEntity
  8
EBENE_12
 62
     7
100
AcDbLine
 10
132.769157
 20
122.360834
 30
0.0
 11
128.953369
 21
122.360834
 31
0.0
  0
LINE
  5
83
100
AcDbEntity
  8
EBENE_12
 62
     7
100
AcDbLine
 10
126.930754
 20
122.360834
 30
0.0
 11
123.944889
 21
122.360834
 31
0.0
  0
LINE
  5
82
100
AcDbEntity
  8
EBENE_12
 62
     7
100
AcDbLine
 10
138.606871
 20
122.360834
 30
0.0
 11
134.791428
 21
122.360834
 31
0.0
  0
LINE
  5
81
100
AcDbEntity
  8
EBENE_12
 62
     7
100
AcDbLine
 10
150.283333
 20
122.360834
 30
0.0
 11
146.467546
 21
122.360834
 31
0.0
  0
LINE
  5
80
100
AcDbEntity
  8
EBENE_12
 62
     7
100
AcDbLine
 10
154.903895
 20
122.360834
 30
0.0
 11
152.305604
 21
122.360834
 31
0.0
  0
LINE
  5
7E
100
AcDbEntity
  8
MITTELLINIE
  6
AI9-LType1
 62
     7
100
AcDbLine
 10
171.49892
 20
148.297753
 30
0.0
 11
92.837916
 21
148.297753
 31
0.0
  0
LINE
  5
7C
100
AcDbEntity
  8
MITTELLINIE
 62
     7
100
AcDbLine
 10
101.145247
 20
165.449677
 30
0.0
 11
113.23581
 21
165.449677
 31
0.0
  0
LINE
  5
7B
100
AcDbEntity
  8
MITTELLINIE
 62
     7
100
AcDbLine
 10
100.979022
 20
131.146172
 30
0.0
 11
113.23581
 21
131.146172
 31
0.0
  0
LINE
  5
79
100
AcDbEntity
  8
OBJEKT
 62
     7
100
AcDbLine
 10
154.929045
 20
170.341885
 30
0.0
 11
102.022885
 21
170.341885
 31
0.0
  0
LINE
  5
77
100
AcDbEntity
  8
AM_8
 62
     7
100
AcDbLine
 10
104.539872
 20
189.637865
 30
0.0
 11
70.673206
 21
196.69342
 31
0.0
  0
LINE
  5
76
100
AcDbEntity
  8
AM_8
 62
     7
100
AcDbLine
 10
113.473177
 20
122.31157
 30
0.0
 11
73.322829
 21
106.817942
 31
0.0
  0
LINE
  5
75
100
AcDbEntity
  8
AM_8
 62
     7
100
AcDbLine
 10
105.044923
 20
163.317335
 30
0.0
 11
65.185168
 21
166.464086
 31
0.0
  0
LINE
  5
73
100
AcDbEntity
  8
AM_0
 62
     7
100
AcDbLine
 10
154.929045
 20
203.695921
 30
0.0
 11
154.929045
 21
170.344297
 31
0.0
  0
LINE
  5
72
100
AcDbEntity
  8
AM_0
 62
     7
100
AcDbLine
 10
154.929045
 20
126.255859
 30
0.0
 11
154.929045
 21
92.332004
 31
0.0
  0
LINE
  5
71
100
AcDbEntity
  8
AM_0
 62
     7
100
AcDbLine
 10
154.929045
 20
170.344297
 30
0.0
 11
102.022885
 21
170.344297
 31
0.0
  0
LINE
  5
70
100
AcDbEntity
  8
AM_0
 62
     7
100
AcDbLine
 10
146.111323
 20
203.695921
 30
0.0
 11
146.111323
 21
173.886716
 31
0.0
  0
LINE
  5
6F
100
AcDbEntity
  8
AM_0
 62
     7
100
AcDbLine
 10
146.111323
 20
122.708789
 30
0.0
 11
146.111323
 21
92.332004
 31
0.0
  0
LINE
  5
6E
100
AcDbEntity
  8
AM_0
 62
     7
100
AcDbLine
 10
110.84078
 20
92.332004
 30
0.0
 11
110.84078
 21
122.31157
 31
0.0
  0
LINE
  5
6D
100
AcDbEntity
  8
AM_0
 62
     7
100
AcDbLine
 10
110.84078
 20
174.284108
 30
0.0
 11
110.84078
 21
203.695921
 31
0.0
  0
LINE
  5
6C
100
AcDbEntity
  8
AM_0
 62
     7
100
AcDbLine
 10
102.022885
 20
203.695921
 30
0.0
 11
102.022885
 21
170.344297
 31
0.0
  0
LINE
  5
6B
100
AcDbEntity
  8
AM_0
 62
     7
100
AcDbLine
 10
102.022885
 20
126.255859
 30
0.0
 11
102.022885
 21
92.332004
 31
0.0
  0
LINE
  5
6A
100
AcDbEntity
  8
AM_0
 62
     7
100
AcDbLine
 10
154.929045
 20
170.344297
 30
0.0
 11
154.929045
 21
160.422077
 31
0.0
  0
LINE
  5
69
100
AcDbEntity
  8
AM_0
 62
     7
100
AcDbLine
 10
154.929045
 20
136.1736
 30
0.0
 11
154.929045
 21
126.255859
 31
0.0
  0
LINE
  5
68
100
AcDbEntity
  8
AM_0
 62
     7
100
AcDbLine
 10
102.022885
 20
170.344297
 30
0.0
 11
102.022885
 21
160.422077
 31
0.0
  0
LINE
  5
67
100
AcDbEntity
  8
AM_0
 62
     7
100
AcDbLine
 10
102.022885
 20
136.1736
 30
0.0
 11
102.022885
 21
126.255859
 31
0.0
  0
LINE
  5
66
100
AcDbEntity
  8
AM_0
 62
     7
100
AcDbLine
 10
164.461279
 20
160.422077
 30
0.0
 11
113.247868
 21
160.422077
 31
0.0
  0
LINE
  5
65
100
AcDbEntity
  8
AM_0
 62
     7
100
AcDbLine
 10
102.912065
 20
160.422077
 30
0.0
 11
96.040822
 21
160.422077
 31
0.0
  0
LINE
  5
64
100
AcDbEntity
  8
AM_0
 62
     7
100
AcDbLine
 10
164.461279
 20
136.1736
 30
0.0
 11
113.247868
 21
136.1736
 31
0.0
  0
LINE
  5
63
100
AcDbEntity
  8
AM_0
 62
     7
100
AcDbLine
 10
102.912065
 20
136.1736
 30
0.0
 11
96.040822
 21
136.1736
 31
0.0
  0
SPLINE
  5
62
100
AcDbEntity
  8
AM_0
 62
     7
100
AcDbSpline
210
0.0
220
0.0
230
1.0
 70
     8
 71
     3
 72
     8
 73
     4
 74
     0
 42
0.00000001
 43
0.00000001
 40
0.0
 40
0.0
 40
0.0
 40
0.0
 40
1.0
 40
1.0
 40
1.0
 40
1.0
 10
164.53707139756943
 20
145.60661621093749
 30
0.0
 10
165.98917914496525
 20
149.79378526475693
 30
0.0
 10
166.6165310329861
 20
154.22280002170137
 30
0.0
 10
166.3839870876736
 20
158.6483696831597
 30
0.0
  0
SPLINE
  5
61
100
AcDbEntity
  8
AM_0
 62
     7
100
AcDbSpline
210
0.0
220
0.0
230
1.0
 70
     8
 71
     3
 72
     8
 73
     4
 74
     0
 42
0.00000001
 43
0.00000001
 40
0.0
 40
0.0
 40
0.0
 40
0.0
 40
1.0
 40
1.0
 40
1.0
 40
1.0
 10
163.00124782986109
 20
151.97814805772569
 30
0.0
 10
163.42086046006943
 20
149.83340386284721
 30
0.0
 10
163.93349066840275
 20
147.70743543836804
 30
0.0
 10
164.53707139756943
 20
145.60661621093749
 30
0.0
  0
SPLINE
  5
60
100
AcDbEntity
  8
AM_0
 62
     7
100
AcDbSpline
210
0.0
220
0.0
230
1.0
 70
     8
 71
     3
 72
     8
 73
     4
 74
     0
 42
0.00000001
 43
0.00000001
 40
0.0
 40
0.0
 40
0.0
 40
0.0
 40
1.0
 40
1.0
 40
1.0
 40
1.0
 10
162.54201660156249
 20
158.68523220486111
 30
0.0
 10
162.41833767361109
 20
156.29760877821178
 30
0.0
 10
162.60023871527775
 20
153.90361192491318
 30
0.0
 10
163.08393012152777
 20
151.56215277777775
 30
0.0
  0
SPLINE
  5
5F
100
AcDbEntity
  8
AM_0
 62
     7
100
AcDbSpline
210
0.0
220
0.0
230
1.0
 70
     8
 71
     3
 72
     8
 73
     4
 74
     0
 42
0.00000001
 43
0.00000001
 40
0.0
 40
0.0
 40
0.0
 40
0.0
 40
1.0
 40
1.0
 40
1.0
 40
1.0
 10
164.53707139756943
 20
145.60661621093749
 30
0.0
 10
165.42073838975693
 20
149.84184434678818
 30
0.0
 10
165.67360839843749
 20
154.18404269748262
 30
0.0
 10
165.28810221354166
 20
158.4933403862847
 30
0.0
  0
SPLINE
  5
5E
100
AcDbEntity
  8
AM_0
 62
     7
100
AcDbSpline
210
0.0
220
0.0
230
1.0
 70
     8
 71
     3
 72
     8
 73
     4
 74
     0
 42
0.00000001
 43
0.00000001
 40
0.0
 40
0.0
 40
0.0
 40
0.0
 40
1.0
 40
1.0
 40
1.0
 40
1.0
 10
163.63480088975692
 20
158.4933403862847
 30
0.0
 10
163.33369954427081
 20
154.17646348741317
 30
0.0
 10
163.63755696614581
 20
149.83926052517359
 30
0.0
 10
164.53707139756943
 20
145.60661621093749
 30
0.0
  0
SPLINE
  5
5D
100
AcDbEntity
  8
AM_0
 62
     7
100
AcDbSpline
210
0.0
220
0.0
230
1.0
 70
     8
 71
     3
 72
    11
 73
     7
 74
     0
 42
0.00000001
 43
0.00000001
 40
0.0
 40
0.0
 40
0.0
 40
0.0
 40
1.0
 40
1.0
 40
1.0
 40
2.0
 40
2.0
 40
2.0
 40
2.0
 10
165.28810221354166
 20
158.4933403862847
 30
0.0
 10
165.28810221354166
 20
158.94981553819443
 30
0.0
 10
164.91809895833333
 20
159.31981879340276
 30
0.0
 10
164.46127929687498
 20
159.31981879340276
 30
0.0
 10
164.00480414496525
 20
159.31981879340276
 30
0.0
 10
163.63480088975692
 20
158.94981553819443
 30
0.0
 10
163.63480088975692
 20
158.4933403862847
 30
0.0
  0
SPLINE
  5
5C
100
AcDbEntity
  8
AM_0
 62
     7
100
AcDbSpline
210
0.0
220
0.0
230
1.0
 70
     8
 71
     3
 72
    11
 73
     7
 74
     0
 42
0.00000001
 43
0.00000001
 40
0.0
 40
0.0
 40
0.0
 40
0.0
 40
1.0
 40
1.0
 40
1.0
 40
2.0
 40
2.0
 40
2.0
 40
2.0
 10
166.38984374999998
 20
158.53416476779512
 30
0.0
 10
166.36710611979166
 20
159.59921603732639
 30
0.0
 10
165.48550618489583
 20
160.44412570529514
 30
0.0
 10
164.42028266059026
 20
160.42156032986111
 30
0.0
 10
163.36918402777775
 20
160.39933946397568
 30
0.0
 10
162.52892523871526
 20
159.53892686631943
 30
0.0
 10
162.53271484374997
 20
158.48731146918402
 30
0.0
  0
SPLINE
  5
5B
100
AcDbEntity
  8
AM_0
 62
     7
100
AcDbSpline
210
0.0
220
0.0
230
1.0
 70
     8
 71
     3
 72
     8
 73
     4
 74
     0
 42
0.00000001
 43
0.00000001
 40
0.0
 40
0.0
 40
0.0
 40
0.0
 40
1.0
 40
1.0
 40
1.0
 40
1.0
 10
164.53707139756943
 20
145.60661621093749
 30
0.0
 10
165.05280219184027
 20
143.28737792968749
 30
0.0
 10
165.63950195312498
 20
140.98433159722222
 30
0.0
 10
166.29510362413194
 20
138.70057779947916
 30
0.0
  0
SPLINE
  5
5A
100
AcDbEntity
  8
AM_0
 62
     7
100
AcDbSpline
210
0.0
220
0.0
230
1.0
 70
     8
 71
     3
 72
     8
 73
     4
 74
     0
 42
0.00000001
 43
0.00000001
 40
0.0
 40
0.0
 40
0.0
 40
0.0
 40
1.0
 40
1.0
 40
1.0
 40
1.0
 10
165.57128906249997
 20
136.52465549045138
 30
0.0
 10
166.15419921874999
 20
137.12513563368054
 30
0.0
 10
166.41361490885416
 20
137.96952853732637
 30
0.0
 10
166.26823187934025
 20
138.79428439670139
 30
0.0
  0
SPLINE
  5
59
100
AcDbEntity
  8
AM_0
 62
     7
100
AcDbSpline
210
0.0
220
0.0
230
1.0
 70
     8
 71
     3
 72
     8
 73
     4
 74
     0
 42
0.00000001
 43
0.00000001
 40
0.0
 40
0.0
 40
0.0
 40
0.0
 40
1.0
 40
1.0
 40
1.0
 40
1.0
 10
164.46127929687498
 20
136.17360026041666
 30
0.0
 10
164.8584988064236
 20
136.17360026041666
 30
0.0
 10
165.2460720486111
 20
136.29624565972222
 30
0.0
 10
165.57128906249997
 20
136.52465549045138
 30
0.0
  0
SPLINE
  5
58
100
AcDbEntity
  8
AM_0
 62
     7
100
AcDbSpline
210
0.0
220
0.0
230
1.0
 70
     8
 71
     3
 72
     8
 73
     4
 74
     0
 42
0.00000001
 43
0.00000001
 40
0.0
 40
0.0
 40
0.0
 40
0.0
 40
1.0
 40
1.0
 40
1.0
 40
1.0
 10
95.964857313368043
 20
150.98888888888888
 30
0.0
 10
95.44912651909722
 20
153.30829942491317
 30
0.0
 10
94.86294352213541
 20
155.61134575737844
 30
0.0
 10
94.207169596354163
 20
157.89492730034721
 30
0.0
  0
SPLINE
  5
57
100
AcDbEntity
  8
AM_0
 62
     7
100
AcDbSpline
210
0.0
220
0.0
230
1.0
 70
     8
 71
     3
 72
     8
 73
     4
 74
     0
 42
0.00000001
 43
0.00000001
 40
0.0
 40
0.0
 40
0.0
 40
0.0
 40
1.0
 40
1.0
 40
1.0
 40
1.0
 10
94.931156412760402
 20
160.07102186414929
 30
0.0
 10
94.347901746961796
 20
159.47019721137153
 30
0.0
 10
94.088486056857633
 20
158.6261488172743
 30
0.0
 10
94.233696831597214
 20
157.80156521267361
 30
0.0
  0
SPLINE
  5
56
100
AcDbEntity
  8
AM_0
 62
     7
100
AcDbSpline
210
0.0
220
0.0
230
1.0
 70
     8
 71
     3
 72
     8
 73
     4
 74
     0
 42
0.00000001
 43
0.00000001
 40
0.0
 40
0.0
 40
0.0
 40
0.0
 40
1.0
 40
1.0
 40
1.0
 40
1.0
 10
96.040821668836799
 20
160.422077094184
 30
0.0
 10
95.64342990451388
 20
160.422077094184
 30
0.0
 10
95.25585666232638
 20
160.29943169487845
 30
0.0
 10
94.931156412760402
 20
160.07102186414929
 30
0.0
  0
SPLINE
  5
55
100
AcDbEntity
  8
AM_0
 62
     7
100
AcDbSpline
210
0.0
220
0.0
230
1.0
 70
     8
 71
     3
 72
     8
 73
     4
 74
     0
 42
0.00000001
 43
0.00000001
 40
0.0
 40
0.0
 40
0.0
 40
0.0
 40
1.0
 40
1.0
 40
1.0
 40
1.0
 10
95.964857313368043
 20
150.98888888888888
 30
0.0
 10
94.512749565972214
 20
146.80206434461803
 30
0.0
 10
93.885742187499986
 20
142.37270507812499
 30
0.0
 10
94.118286132812486
 20
137.94713541666664
 30
0.0
  0
SPLINE
  5
54
100
AcDbEntity
  8
AM_0
 62
     7
100
AcDbSpline
210
0.0
220
0.0
230
1.0
 70
     8
 71
     3
 72
     8
 73
     4
 74
     0
 42
0.00000001
 43
0.00000001
 40
0.0
 40
0.0
 40
0.0
 40
0.0
 40
1.0
 40
1.0
 40
1.0
 40
1.0
 10
97.960084364149296
 20
137.90992838541666
 30
0.0
 10
98.083935546874997
 20
140.29806857638889
 30
0.0
 10
97.90203450520832
 20
142.69172092013886
 30
0.0
 10
97.418343098958331
 20
145.03300781249999
 30
0.0
  0
SPLINE
  5
53
100
AcDbEntity
  8
AM_0
 62
     7
100
AcDbSpline
210
0.0
220
0.0
230
1.0
 70
     8
 71
     3
 72
     8
 73
     4
 74
     0
 42
0.00000001
 43
0.00000001
 40
0.0
 40
0.0
 40
0.0
 40
0.0
 40
1.0
 40
1.0
 40
1.0
 40
1.0
 10
95.964857313368043
 20
150.98888888888888
 30
0.0
 10
95.081534830729154
 20
146.75383300781249
 30
0.0
 10
94.828492567274296
 20
142.41163465711804
 30
0.0
 10
95.213998752170127
 20
138.10216471354164
 30
0.0
  0
SPLINE
  5
52
100
AcDbEntity
  8
AM_0
 62
     7
100
AcDbSpline
210
0.0
220
0.0
230
1.0
 70
     8
 71
     3
 72
     8
 73
     4
 74
     0
 42
0.00000001
 43
0.00000001
 40
0.0
 40
0.0
 40
0.0
 40
0.0
 40
1.0
 40
1.0
 40
1.0
 40
1.0
 10
96.867472330729157
 20
138.10216471354164
 30
0.0
 10
97.168745930989573
 20
142.41886935763887
 30
0.0
 10
96.864888509114579
 20
146.75658908420138
 30
0.0
 10
95.964857313368043
 20
150.98888888888888
 30
0.0
  0
SPLINE
  5
51
100
AcDbEntity
  8
AM_0
 62
     7
100
AcDbSpline
210
0.0
220
0.0
230
1.0
 70
     8
 71
     3
 72
     8
 73
     4
 74
     0
 42
0.00000001
 43
0.00000001
 40
0.0
 40
0.0
 40
0.0
 40
0.0
 40
1.0
 40
1.0
 40
1.0
 40
1.0
 10
97.501025390624989
 20
144.61718478732638
 30
0.0
 10
97.081068250868043
 20
146.76210123697916
 30
0.0
 10
96.568438042534709
 20
148.88824191623263
 30
0.0
 10
95.964857313368043
 20
150.98888888888888
 30
0.0
  0
SPLINE
  5
50
100
AcDbEntity
  8
AM_0
 62
     7
100
AcDbSpline
210
0.0
220
0.0
230
1.0
 70
     8
 71
     3
 72
    11
 73
     7
 74
     0
 42
0.00000001
 43
0.00000001
 40
0.0
 40
0.0
 40
0.0
 40
0.0
 40
1.0
 40
1.0
 40
1.0
 40
2.0
 40
2.0
 40
2.0
 40
2.0
 10
95.213998752170127
 20
138.10216471354164
 30
0.0
 10
95.213998752170127
 20
137.64534505208331
 30
0.0
 10
95.58434651692707
 20
137.27534179687498
 30
0.0
 10
96.040821668836799
 20
137.27534179687498
 30
0.0
 10
96.497469075520826
 20
137.27534179687498
 30
0.0
 10
96.867472330729157
 20
137.64534505208331
 30
0.0
 10
96.867472330729157
 20
138.10216471354164
 30
0.0
  0
SPLINE
  5
4F
100
AcDbEntity
  8
AM_0
 62
     7
100
AcDbSpline
210
0.0
220
0.0
230
1.0
 70
     8
 71
     3
 72
    11
 73
     7
 74
     0
 42
0.00000001
 43
0.00000001
 40
0.0
 40
0.0
 40
0.0
 40
0.0
 40
1.0
 40
1.0
 40
1.0
 40
2.0
 40
2.0
 40
2.0
 40
2.0
 10
94.112257215711793
 20
138.06151258680555
 30
0.0
 10
94.13482259114582
 20
136.99628906249998
 30
0.0
 10
95.016594780815964
 20
136.15155164930553
 30
0.0
 10
96.081646050347217
 20
136.17360026041666
 30
0.0
 10
97.133089192708326
 20
136.19599338107636
 30
0.0
 10
97.973003472222217
 20
137.05623372395831
 30
0.0
 10
97.969730631510402
 20
138.10836588541665
 30
0.0
  0
LINE
  5
4E
100
AcDbEntity
  8
AM_0
 62
     7
100
AcDbLine
 10
154.929045
 20
170.341885
 30
0.0
 11
102.022885
 21
170.341885
 31
0.0
  0
LINE
  5
4D
100
AcDbEntity
  8
AM_0
 62
     7
100
AcDbLine
 10
154.929045
 20
126.307191
 30
0.0
 11
102.022885
 21
126.307191
 31
0.0
  0
LINE
  5
4C
100
AcDbEntity
  8
AM_0
 62
     7
100
AcDbLine
 10
104.675437
 20
170.341885
 30
0.0
 11
104.675437
 21
126.253448
 31
0.0
  0
LINE
  5
4B
100
AcDbEntity
  8
AM_0
 62
     7
100
AcDbLine
 10
102.912065
 20
126.694076
 30
0.0
 11
102.912065
 21
169.901085
 31
0.0
  0
LINE
  5
4A
100
AcDbEntity
  8
AM_0
 62
     7
100
AcDbLine
 10
111.484668
 20
126.694076
 30
0.0
 11
111.484668
 21
169.901085
 31
0.0
  0
LINE
  5
49
100
AcDbEntity
  8
AM_0
 62
     7
100
AcDbLine
 10
113.247868
 20
169.901085
 30
0.0
 11
113.247868
 21
126.694076
 31
0.0
  0
LINE
  5
48
100
AcDbEntity
  8
AM_0
 62
     7
100
AcDbLine
 10
111.484668
 20
126.253448
 30
0.0
 11
111.484668
 21
170.341885
 31
0.0
  0
LINE
  5
47
100
AcDbEntity
  8
AM_0
 62
     7
100
AcDbLine
 10
113.247868
 20
126.694076
 30
0.0
 11
111.484668
 21
126.694076
 31
0.0
  0
LINE
  5
46
100
AcDbEntity
  8
AM_0
 62
     7
100
AcDbLine
 10
111.484668
 20
169.901085
 30
0.0
 11
113.247868
 21
169.901085
 31
0.0
  0
LINE
  5
45
100
AcDbEntity
  8
AM_0
 62
     7
100
AcDbLine
 10
109.084125
 20
170.341885
 30
0.0
 11
104.675437
 21
170.341885
 31
0.0
  0
LINE
  5
44
100
AcDbEntity
  8
AM_0
 62
     7
100
AcDbLine
 10
104.675437
 20
169.901085
 30
0.0
 11
104.675437
 21
126.694076
 31
0.0
  0
LINE
  5
43
100
AcDbEntity
  8
AM_0
 62
     7
100
AcDbLine
 10
102.912065
 20
169.901085
 30
0.0
 11
104.675437
 21
169.901085
 31
0.0
  0
LINE
  5
42
100
AcDbEntity
  8
AM_0
 62
     7
100
AcDbLine
 10
104.675437
 20
126.694076
 30
0.0
 11
102.912065
 21
126.694076
 31
0.0
  0
POLYLINE
  5
3C
100
AcDbEntity
  8
AM_0
 62
     7
100
AcDb2dPolyline
 66
     1
 10
0.0
 20
0.0
 30
0.0
 70
     1
  0
VERTEX
  5
3D
100
AcDbEntity
  8
AM_0
 62
     7
100
AcDbVertex
100
AcDb2dVertex
 10
110.848014
 20
129.02985
 30
0.0
  0
VERTEX
  5
3E
100
AcDbEntity
  8
AM_0
 62
     7
100
AcDbVertex
100
AcDb2dVertex
 10
110.848014
 20
133.26215
 30
0.0
  0
VERTEX
  5
3F
100
AcDbEntity
  8
AM_0
 62
     7
100
AcDbVertex
100
AcDb2dVertex
 10
111.288642
 20
133.26215
 30
0.0
  0
VERTEX
  5
40
100
AcDbEntity
  8
AM_0
 62
     7
100
AcDbVertex
100
AcDb2dVertex
 10
111.288642
 20
129.02985
 30
0.0
  0
SEQEND
  5
41
100
AcDbEntity
  8
AM_0
 62
     7
  0
LINE
  5
3B
100
AcDbEntity
  8
AM_0
 62
     7
100
AcDbLine
 10
111.484668
 20
126.694076
 30
0.0
 11
113.247868
 21
126.694076
 31
0.0
  0
LINE
  5
3A
100
AcDbEntity
  8
AM_0
 62
     7
100
AcDbLine
 10
102.912065
 20
126.694076
 30
0.0
 11
104.675437
 21
126.694076
 31
0.0
  0
LINE
  5
39
100
AcDbEntity
  8
AM_0
 62
     7
100
AcDbLine
 10
113.012568
 20
165.449677
 30
0.0
 11
115.539545
 21
165.449677
 31
0.0
  0
LINE
  5
38
100
AcDbEntity
  8
AM_0
 62
     7
100
AcDbLine
 10
113.012568
 20
131.146172
 30
0.0
 11
115.539545
 21
131.146172
 31
0.0
  0
MTEXT
  5
36
100
AcDbEntity
  8
TEXT
 62
     7
100
AcDbMText
 10
38.498081
 20
193.418685
 30
0.0
 40
5.512152
 41
0.0
 71
     1
 72
     2
  1
\fArial|b0|i0;\H5.5122;\C7;\U+0045\U+006C\U+0065\U+006D\U+0065\U+006E\U+0074\U+0077\U+0061\U+006E\U+0064
  7
STD
210
0.0
220
0.0
230
1.0
 73
     1
 44
1.0
  0
MTEXT
  5
35
100
AcDbEntity
  8
TEXT
 62
     7
100
AcDbMText
 10
38.498081
 20
200.827018
 30
0.0
 40
5.512152
 41
0.0
 71
     1
 72
     2
  1
\fArial|b0|i0;\H5.5122;\C7;\U+0044\U+006F\U+0070\U+0070\U+0065\U+006C\U+002F\U+002D
  7
STD
210
0.0
220
0.0
230
1.0
 73
     1
 44
1.0
  0
INSERT
  5
31
100
AcDbEntity
  8
TEXT
 62
     7
100
AcDbBlockReference
  2
AI9-BLK2
 10
69.575426
 20
106.225557
 30
0.0
  0
INSERT
  5
2A
100
AcDbEntity
  8
TEXT
 62
     7
100
AcDbBlockReference
  2
AI9-BLK1
 10
54.845317
 20
160.901893
 30
0.0
  0
ENDSEC
  0
SECTION
  2
OBJECTS
  0
DICTIONARY
  5
19
100
AcDbDictionary
280
     0
281
     1
  3
ACAD_GROUP
350
1A
  3
ACAD_MLINESTYLE
350
1B
  3
ACAD_LAYOUT
350
1E
  3
ACAD_PLOTSETTINGS
350
22
  3
ACAD_PLOTSTYLENAME
350
1F
  3
ACAD_WIPEOUT_VARS
350
23
  0
DICTIONARY
  5
1A
102
{ACAD_REACTORS
330
19
102
}
100
AcDbDictionary
280
     0
281
     1
  0
DICTIONARY
  5
1B
102
{ACAD_REACTORS
330
19
102
}
100
AcDbDictionary
280
     0
281
     1
  3
Standard
350
1C
  0
MLINESTYLE
  5
1C
102
{ACAD_REACTORS
330
1B
102
}
100
AcDbMlineStyle
  2
Standard
 70
     0
  3

 62
     0
 51
90.0
 52
90.0
 71
     2
 49
0.5
 62
   256
  6
ByLayer
 49
-0.5
 62
   256
  6
ByLayer
  0
ACDBDICTIONARYWDFLT
  5
1F
102
{ACAD_REACTORS
330
19
102
}
100
AcDbDictionary
281
     1
  3
Normal
350
1D
100
AcDbDictionaryWithDefault
340
1D
  0
ACDBPLACEHOLDER
  5
1D
102
{ACAD_REACTORS
330
1F
102
}
  0
LAYOUT
  5
20
102
{ACAD_REACTORS
330
1E
102
}
100
AcDbPlotSettings
  1

  2

  4

  6

 40
0.0
 41
0.0
 42
0.0
 43
0.0
 44
0.0
 45
0.0
 46
0.0
 47
0.0
 48
0.0
 49
0.0
140
0.0
141
0.0
142
1.0
143
1.0
 70
  1024
 72
     0
 73
     0
 74
     0
  7

 75
     0
147
1.0
148
0.0
149
0.0
100
AcDbLayout
  1
Model
 70
     0
 71
     0
 10
0.0
 20
0.0
 11
0.0
 21
0.0
 12
0.0
 22
0.0
 32
0.0
 14
0.0
 24
0.0
 34
0.0
 15
0.0
 25
0.0
 35
0.0
146
0.0
 13
0.0
 23
0.0
 33
0.0
 16
0.0
 26
0.0
 36
0.0
 17
0.0
 27
0.0
 37
0.0
 76
     0
330
A
331
0
345
0
346
0
  0
LAYOUT
  5
21
102
{ACAD_REACTORS
330
1E
102
}
100
AcDbPlotSettings
  1

  2

  4

  6

 40
0.0
 41
0.0
 42
0.0
 43
0.0
 44
0.0
 45
0.0
 46
0.0
 47
0.0
 48
0.0
 49
0.0
140
0.0
141
0.0
142
1.0
143
1.0
 70
     0
 72
     0
 73
     0
 74
     0
  7

 75
     0
147
1.0
148
0.0
149
0.0
100
AcDbLayout
  1
Layout1
 70
     0
 71
     0
 10
0.0
 20
0.0
 11
0.0
 21
0.0
 12
0.0
 22
0.0
 32
0.0
 14
0.0
 24
0.0
 34
0.0
 15
0.0
 25
0.0
 35
0.0
146
0.0
 13
0.0
 23
0.0
 33
0.0
 16
0.0
 26
0.0
 36
0.0
 17
0.0
 27
0.0
 37
0.0
 76
     0
330
B
331
0
345
0
346
0
  0
DICTIONARY
  5
1E
102
{ACAD_REACTORS
330
19
102
}
100
AcDbDictionary
280
     0
281
     1
  3
Layout1
350
21
  3
Model
350
20
  0
DICTIONARY
  5
22
102
{ACAD_REACTORS
330
19
102
}
100
AcDbDictionary
280
     0
281
     1
  0
WIPEOUTVARIABLES
  5
23
100
AcDbWipeoutVariables
 70
     1
  0
ENDSEC
  0
EOF
