  0
SECTION
  2
HEADER
  9
$ACADVER
  1
AC1015
  9
$ACADMAINTVER
 70
     6
  9
$DWGCODEPAGE
  3
ANSI_932
  9
$INSBASE
 10
0.0
 20
0.0
 30
0.0
  9
$EXTMIN
 10
24.167862
 20
76.91279
 30
1.000000E+20
  9
$EXTMAX
 10
186.541241
 20
222.030031
 30
-1.000000E+20
  9
$LIMMIN
 10
24.167862
 20
76.91279
  9
$LIMMAX
 10
186.541241
 20
222.030031
  9
$ORTHOMODE
 70
     0
  9
$REGENMODE
 70
     1
  9
$FILLMODE
 70
     1
  9
$QTEXTMODE
 70
     0
  9
$MIRRTEXT
 70
     1
  9
$LTSCALE
 40
1.0
  9
$ATTMODE
 70
     1
  9
$TEXTSIZE
 40
0.2
  9
$TRACEWID
 40
0.05
  9
$TEXTSTYLE
  7
Standard
  9
$CLAYER
  8
0
  9
$CELTYPE
  6
Continuous
  9
$CECOLOR
 62
   256
  9
$CELTSCALE
 40
1.0
  9
$DISPSILH
 70
     0
  9
$DIMSCALE
 40
1.0
  9
$DIMASZ
 40
0.18
  9
$DIMEXO
 40
0.0625
  9
$DIMDLI
 40
0.38
  9
$DIMRND
 40
0.0
  9
$DIMDLE
 40
0.0
  9
$DIMEXE
 40
0.18
  9
$DIMTP
 40
0.0
  9
$DIMTM
 40
0.0
  9
$DIMTXT
 40
0.18
  9
$DIMCEN
 40
0.09
  9
$DIMTSZ
 40
0.0
  9
$DIMTOL
 70
     0
  9
$DIMLIM
 70
     0
  9
$DIMTIH
 70
     1
  9
$DIMTOH
 70
     1
  9
$DIMSE1
 70
     0
  9
$DIMSE2
 70
     0
  9
$DIMTAD
 70
     0
  9
$DIMZIN
 70
     0
  9
$DIMBLK
  1

  9
$DIMASO
 70
     1
  9
$DIMSHO
 70
     1
  9
$DIMPOST
  1

  9
$DIMAPOST
  1

  9
$DIMALT
 70
     0
  9
$DIMALTD
 70
     2
  9
$DIMALTF
 40
25.4
  9
$DIMLFAC
 40
1.0
  9
$DIMTOFL
 70
     0
  9
$DIMTVP
 40
0.0
  9
$DIMTIX
 70
     0
  9
$DIMSOXD
 70
     0
  9
$DIMSAH
 70
     0
  9
$DIMBLK1
  1

  9
$DIMBLK2
  1

  9
$DIMSTYLE
  2
Standard
  9
$DIMCLRD
 70
     0
  9
$DIMCLRE
 70
     0
  9
$DIMCLRT
 70
     0
  9
$DIMTFAC
 40
1.0
  9
$DIMGAP
 40
0.09
  9
$DIMJUST
 70
     0
  9
$DIMSD1
 70
     0
  9
$DIMSD2
 70
     0
  9
$DIMTOLJ
 70
     1
  9
$DIMTZIN
 70
     0
  9
$DIMALTZ
 70
     0
  9
$DIMALTTZ
 70
     0
  9
$DIMUPT
 70
     0
  9
$DIMDEC
 70
     4
  9
$DIMTDEC
 70
     4
  9
$DIMALTU
 70
     2
  9
$DIMALTTD
 70
     2
  9
$DIMTXSTY
  7
Standard
  9
$DIMAUNIT
 70
     0
  9
$DIMADEC
 70
     0
  9
$DIMALTRND
 40
0.0
  9
$DIMAZIN
 70
     0
  9
$DIMDSEP
 70
     0
  9
$DIMATFIT
 70
     3
  9
$DIMFRAC
 70
     0
  9
$DIMLDRBLK
  1

  9
$DIMLUNIT
 70
     2
  9
$DIMLWD
 70
     0
  9
$DIMLWE
 70
     0
  9
$DIMTMOVE
 70
     0
  9
$LUNITS
 70
     2
  9
$LUPREC
 70
     4
  9
$SKETCHINC
 40
0.1
  9
$FILLETRAD
 40
0.0
  9
$AUNITS
 70
     0
  9
$AUPREC
 70
     0
  9
$MENU
  1
acad
  9
$ELEVATION
 40
0.0
  9
$PELEVATION
 40
0.0
  9
$THICKNESS
 40
0.0
  9
$LIMCHECK
 70
     0
  9
$CHAMFERA
 40
0.0
  9
$CHAMFERB
 40
0.0
  9
$CHAMFERC
 40
0.0
  9
$CHAMFERD
 40
0.0
  9
$SKPOLY
 70
     0
  9
$TDCREATE
 40
0.000000000
  9
$TDUCREATE
 40
0.000000000
  9
$TDUPDATE
 40
0.000000000
  9
$TDUUPDATE
 40
0.000000000
  9
$TDINDWG
 40
0.0000000000
  9
$TDUSRTIMER
 40
0.0000000000
  9
$USRTIMER
 70
     1
  9
$ANGBASE
 50
0.0
  9
$ANGDIR
 70
     0
  9
$PDMODE
 70
     0
  9
$PDSIZE
 40
0.0
  9
$PLINEWID
 40
0.0
  9
$SPLFRAME
 70
     0
  9
$SPLINETYPE
 70
     6
  9
$SPLINESEGS
 70
     8
  9
$HANDSEED
  5
381
  9
$SURFTAB1
 70
     6
  9
$SURFTAB2
 70
     6
  9
$SURFTYPE
 70
     6
  9
$SURFU
 70
     6
  9
$SURFV
 70
     6
  9
$UCSBASE
  2

  9
$UCSNAME
  2

  9
$UCSORG
 10
0.0
 20
0.0
 30
0.0
  9
$UCSXDIR
 10
1.0
 20
0.0
 30
0.0
  9
$UCSYDIR
 10
0.0
 20
1.0
 30
0.0
  9
$UCSORTHOREF
  2

  9
$UCSORTHOVIEW
 70
     0
  9
$UCSORGTOP
 10
0.0
 20
0.0
 30
0.0
  9
$UCSORGBOTTOM
 10
0.0
 20
0.0
 30
0.0
  9
$UCSORGLEFT
 10
0.0
 20
0.0
 30
0.0
  9
$UCSORGRIGHT
 10
0.0
 20
0.0
 30
0.0
  9
$UCSORGFRONT
 10
0.0
 20
0.0
 30
0.0
  9
$UCSORGBACK
 10
0.0
 20
0.0
 30
0.0
  9
$PUCSBASE
  2

  9
$PUCSNAME
  2

  9
$PUCSORG
 10
0.0
 20
0.0
 30
0.0
  9
$PUCSXDIR
 10
1.0
 20
0.0
 30
0.0
  9
$PUCSYDIR
 10
0.0
 20
1.0
 30
0.0
  9
$PUCSORTHOREF
  2

  9
$PUCSORTHOVIEW
 70
     0
  9
$PUCSORGTOP
 10
0.0
 20
0.0
 30
0.0
  9
$PUCSORGBOTTOM
 10
0.0
 20
0.0
 30
0.0
  9
$PUCSORGLEFT
 10
0.0
 20
0.0
 30
0.0
  9
$PUCSORGRIGHT
 10
0.0
 20
0.0
 30
0.0
  9
$PUCSORGFRONT
 10
0.0
 20
0.0
 30
0.0
  9
$PUCSORGBACK
 10
0.0
 20
0.0
 30
0.0
  9
$USERI1
 70
     0
  9
$USERI2
 70
     0
  9
$USERI3
 70
     0
  9
$USERI4
 70
     0
  9
$USERI5
 70
     0
  9
$USERR1
 40
0.0
  9
$USERR2
 40
0.0
  9
$USERR3
 40
0.0
  9
$USERR4
 40
0.0
  9
$USERR5
 40
0.0
  9
$WORLDVIEW
 70
     1
  9
$SHADEDGE
 70
     3
  9
$SHADEDIF
 70
    70
  9
$TILEMODE
 70
     1
  9
$MAXACTVP
 70
    16
  9
$PINSBASE
 10
0.0
 20
0.0
 30
0.0
  9
$PLIMCHECK
 70
     0
  9
$PEXTMIN
 10
1.000000E+20
 20
1.000000E+20
 30
1.000000E+20
  9
$PEXTMAX
 10
-1.000000E+20
 20
-1.000000E+20
 30
-1.000000E+20
  9
$PLIMMIN
 10
0.0
 20
0.0
  9
$PLIMMAX
 10
12.0
 20
9.0
  9
$UNITMODE
 70
     0
  9
$VISRETAIN
 70
     0
  9
$PLINEGEN
 70
     1
  9
$PSLTSCALE
 70
     0
  9
$TREEDEPTH
 70
  3020
  9
$CMLSTYLE
  2
Standard
  9
$CMLJUST
 70
     0
  9
$CMLSCALE
 40
1.0
  9
$PROXYGRAPHICS
 70
     0
  9
$MEASUREMENT
 70
     1
  9
$CELWEIGHT
370
     0
  9
$ENDCAPS
280
     0
  9
$JOINSTYLE
280
     0
  9
$LWDISPLAY
290
     0
  9
$INSUNITS
 70
     0
  9
$HYPERLINKBASE
  1

  9
$STYLESHEET
  1

  9
$XEDIT
290
     1
  9
$CEPSNTYPE
380
     0
  9
$PSTYLEMODE
290
     1
  9
$FINGERPRINTGUID
  2

  9
$VERSIONGUID
  2

  9
$EXTNAMES
290
     1
  9
$PSVPSCALE
 40
0.0
  0
ENDSEC
  0
SECTION
  2
CLASSES
  0
CLASS
  1
LWPOLYLINE
  2
AcDbPolyline
  3
AutoCAD 2000
 90
    32768
280
     0
281
     1
  0
CLASS
  1
IMAGE
  2
AcDbRasterImage
  3
ISM
 90
    32895
280
     0
281
     1
  0
CLASS
  1
OLE2FRAME
  2
AcDbOle2Frame
  3
AutoCAD 2000
 90
    32768
280
     0
281
     1
  0
CLASS
  1
HATCH
  2
AcDbHatch
  3
AutoCAD 2000
 90
        0
280
     0
281
     1
  0
CLASS
  1
DICTIONARYVAR
  2
AcDbDictionaryVar
  3
AutoCAD 2000
 90
    32768
280
     0
281
     0
  0
CLASS
  1
RASTERVARIABLES
  2
AcDbRasterVariables
  3
ISM
 90
    32768
280
     0
281
     0
  0
CLASS
  1
IMAGEDEF
  2
AcDbRasterImageDef
  3
ISM
 90
    32768
280
     0
281
     0
  0
CLASS
  1
IMAGEDEF_REACTOR
  2
AcDbRasterImageDefReactor
  3
ISM
 90
    32769
280
     0
281
     0
  0
CLASS
  1
IDBUFFER
  2
AcDbIdBuffer
  3
AutoCAD 2000
 90
    32768
280
     0
281
     0
  0
CLASS
  1
SPATIAL_FILTER
  2
AcDbSpatialFilter
  3
AutoCAD 2000
 90
    32768
280
     0
281
     0
  0
CLASS
  1
XRECORD
  2
AcDbXrecord
  3
AutoCAD 2000
 90
    32768
280
     0
281
     0
  0
CLASS
  1
SORTENTSTABLE
  2
AcDbSortentsTable
  3
AutoCAD 2000
 90
    32768
280
     0
281
     0
  0
CLASS
  1
LAYER_INDEX
  2
AcDbLayerIndex
  3
AutoCAD 2000
 90
    32768
280
     0
281
     0
  0
CLASS
  1
SPATIAL_INDEX
  2
AcDbSpatialIndex
  3
AutoCAD 2000
 90
    32768
280
     0
281
     0
  0
CLASS
  1
OBJECT_PTR
  2
CAseDLPNTableRecord
  3
"ASE-LPNTableRecord"
 90
    32769
280
     0
281
     0
  0
CLASS
  1
LAYOUT
  2
AcDbLayout
  3
AutoCAD 2000
 90
        0
280
     0
281
     0
  0
CLASS
  1
PLOTSETTINGS
  2
AcDbPlotSettings
  3
AutoCAD 2000
 90
    32768
280
     0
281
     0
  0
CLASS
  1
ACDBDICTIONARYWDFLT
  2
AcDbDictionaryWithDefault
  3
AutoCAD 2000
 90
        0
280
     0
281
     0
  0
CLASS
  1
ACDBPLACEHOLDER
  2
AcDbPlaceHolder
  3
AutoCAD 2000
 90
        0
280
     0
281
     0
  0
CLASS
  1
VBA_PROJECT
  2
AcDbVbaProject
  3
acadvba
 90
    32768
280
     0
281
     0
  0
CLASS
  1
WIPEOUT
  2
AcDbWipeout
  3
WipeOut|AutoCAD Express Tool|expresstools@autodesk.com
 90
    32895
280
     0
281
     1
  0
CLASS
  1
WIPEOUTVARIABLES
  2
AcDbWipeoutVariables
  3
WipeOut|AutoCAD Express Tool|expresstools@autodesk.com
 90
        0
280
     0
281
     0
  0
CLASS
  1
RTEXT
  2
RText
  3
RText|AutoCAD Express Tool|expresstools@autodesk.com
 90
    32768
280
     0
281
     1
  0
CLASS
  1
ARCALIGNEDTEXT
  2
AcDbArcAlignedText
  3
ATEXT|AutoCAD Express Tool|expresstools@autodesk.com
 90
    32768
280
     0
281
     1
  0
ENDSEC
  0
SECTION
  2
TABLES
  0
TABLE
  2
VPORT
  5
7
100
AcDbSymbolTable
 70
     1
  0
VPORT
  5
15
100
AcDbSymbolTableRecord
100
AcDbViewportTableRecord
  2
*ACTIVE
 70
     0
 10
0.0
 20
0.0
 11
1.0
 21
1.0
 12
6.591288
 22
4.579184
 13
0.0
 23
0.0
 14
1.0
 24
1.0
 15
0.0
 25
0.0
 16
0.0
 26
0.0
 36
1.0
 17
0.0
 27
0.0
 37
0.0
 40
9.158369
 41
0.688564
 42
50.0
 43
0.0
 44
0.0
 50
0.0
 51
0.0
 71
     0
 72
   100
 73
     1
 74
     1
 75
     0
 76
     0
 77
     0
 78
     0
281
     0
 65
     0
110
0.0
120
0.0
130
0.0
111
1.0
121
0.0
131
0.0
112
0.0
122
1.0
132
0.0
345
0
346
0
 79
     0
146
0.0
  0
ENDTAB
  0
TABLE
  2
LTYPE
  5
4
100
AcDbSymbolTable
 70
     5
  0
LTYPE
  5
11
100
AcDbSymbolTableRecord
100
AcDbLinetypeTableRecord
  2
ByBlock
 70
    64
  3

 72
    65
 73
     0
 40
0.0
  0
LTYPE
  5
12
100
AcDbSymbolTableRecord
100
AcDbLinetypeTableRecord
  2
ByLayer
 70
    64
  3

 72
    65
 73
     0
 40
0.0
  0
LTYPE
  5
13
100
AcDbSymbolTableRecord
100
AcDbLinetypeTableRecord
  2
Continuous
 70
    64
  3
Solid line
 72
    65
 73
     0
 40
0.0
  0
LTYPE
  5
AF
100
AcDbSymbolTableRecord
100
AcDbLinetypeTableRecord
  2
AI9-LType1
 70
    64
  3
Illustrator Dash Style No.1
 72
    65
 73
     4
 40
14.816667
 49
8.466667
 74
     0
 49
-2.822222
 74
     0
 49
0.705556
 74
     0
 49
-2.822222
 74
     0
  0
LTYPE
  5
2D6
100
AcDbSymbolTableRecord
100
AcDbLinetypeTableRecord
  2
AI9-LType2
 70
    64
  3
Illustrator Dash Style No.2
 72
    65
 73
     6
 40
17.638889
 49
8.466667
 74
     0
 49
-2.822222
 74
     0
 49
0.705556
 74
     0
 49
-2.116667
 74
     0
 49
0.705556
 74
     0
 49
-2.822222
 74
     0
  0
ENDTAB
  0
TABLE
  2
LAYER
  5
2
100
AcDbSymbolTable
 70
    14
  0
LAYER
  5
14
100
AcDbSymbolTableRecord
100
AcDbLayerTableRecord
  2
0
 70
     0
 62
     7
  6
Continuous
290
     1
370
    -3
390
1D
  0
LAYER
  5
28
100
AcDbSymbolTableRecord
100
AcDbLayerTableRecord
  2
RAHMEN
 70
     0
 62
   253
  6
Continuous
290
     1
370
    -3
390
1D
  0
LAYER
  5
36
100
AcDbSymbolTableRecord
100
AcDbLayerTableRecord
  2
TEXT
 70
     0
 62
     4
  6
Continuous
290
     1
370
    -3
390
1D
  0
LAYER
  5
42
100
AcDbSymbolTableRecord
100
AcDbLayerTableRecord
  2
AM_0
 70
     0
 62
     2
  6
Continuous
290
     1
370
    -3
390
1D
  0
LAYER
  5
83
100
AcDbSymbolTableRecord
100
AcDbLayerTableRecord
  2
AM_8
 70
     0
 62
     5
  6
Continuous
290
     1
370
    -3
390
1D
  0
LAYER
  5
88
100
AcDbSymbolTableRecord
100
AcDbLayerTableRecord
  2
OBJEKT
 70
     0
 62
     3
  6
Continuous
290
     1
370
    -3
390
1D
  0
LAYER
  5
AC
100
AcDbSymbolTableRecord
100
AcDbLayerTableRecord
  2
MITTELLINIE
 70
     0
 62
     1
  6
Continuous
290
     1
370
    -3
390
1D
  0
LAYER
  5
B1
100
AcDbSymbolTableRecord
100
AcDbLayerTableRecord
  2
SCHRAFFUR
 70
     0
 62
   160
  6
Continuous
290
     1
370
    -3
390
1D
  0
LAYER
  5
D4
100
AcDbSymbolTableRecord
100
AcDbLayerTableRecord
  2
EBENE_1
 70
     0
 62
     7
  6
Continuous
290
     1
370
    -3
390
1D
  0
LAYER
  5
1E5
100
AcDbSymbolTableRecord
100
AcDbLayerTableRecord
  2
SCHRAFUR
 70
     0
 62
     6
  6
Continuous
290
     1
370
    -3
390
1D
  0
LAYER
  5
2AF
100
AcDbSymbolTableRecord
100
AcDbLayerTableRecord
  2
DAEMMUNG
 70
     0
 62
     2
  6
Continuous
290
     1
370
    -3
390
1D
  0
LAYER
  5
2D5
100
AcDbSymbolTableRecord
100
AcDbLayerTableRecord
  2
GETRENNT
 70
     0
 62
     5
  6
Continuous
290
     1
370
    -3
390
1D
  0
LAYER
  5
2D9
100
AcDbSymbolTableRecord
100
AcDbLayerTableRecord
  2
ROHR
 70
     0
 62
     1
  6
Continuous
290
     1
370
    -3
390
1D
  0
LAYER
  5
35C
100
AcDbSymbolTableRecord
100
AcDbLayerTableRecord
  2
SCHRAUBE
 70
     0
 62
   160
  6
Continuous
290
     1
370
    -3
390
1D
  0
ENDTAB
  0
TABLE
  2
STYLE
  5
3
100
AcDbSymbolTable
 70
     5
  0
STYLE
  5
17
100
AcDbSymbolTableRecord
100
AcDbTextStyleTableRecord
  2
Standard
 70
     0
 40
0.0
 41
1.0
 50
0.0
 71
     0
 42
0.0
  3
txt
  4

  0
STYLE
  5
24
100
AcDbSymbolTableRecord
100
AcDbTextStyleTableRecord
  2
STD
 70
     0
 40
0.0
 41
1.0
 50
0.0
 71
     0
 42
0.0
  3
txt
  4

  0
STYLE
  5
25
100
AcDbSymbolTableRecord
100
AcDbTextStyleTableRecord
  2
TATESTD
 70
     4
 40
0.0
 41
1.0
 50
0.0
 71
     0
 42
0.0
  3
txt
  4

  0
STYLE
  5
26
100
AcDbSymbolTableRecord
100
AcDbTextStyleTableRecord
  2
KANJISTD
 70
     0
 40
0.0
 41
1.0
 50
0.0
 71
     0
 42
0.0
  3
txt
  4
extfont
  0
STYLE
  5
27
100
AcDbSymbolTableRecord
100
AcDbTextStyleTableRecord
  2
KANJITATE
 70
     4
 40
0.0
 41
1.0
 50
0.0
 71
     0
 42
0.0
  3
txt
  4
extfont
  0
ENDTAB
  0
TABLE
  2
VIEW
  5
5
100
AcDbSymbolTable
 70
     0
  0
ENDTAB
  0
TABLE
  2
UCS
  5
6
100
AcDbSymbolTable
 70
     0
  0
ENDTAB
  0
TABLE
  2
APPID
  5
8
100
AcDbSymbolTable
 70
     1
  0
APPID
  5
16
100
AcDbSymbolTableRecord
100
AcDbRegAppTableRecord
  2
ACAD
 70
     0
  0
ENDTAB
  0
TABLE
  2
DIMSTYLE
  5
9
100
AcDbSymbolTable
 70
     1
100
AcDbDimStyleTable
 71
     0
  0
DIMSTYLE
105
18
100
AcDbSymbolTableRecord
100
AcDbDimStyleTableRecord
  2
Standard
 70
     0
  3

  4

 40
1.0
 41
0.18
 42
0.0625
 43
0.38
 44
0.18
 45
0.0
 46
0.0
 47
0.0
 48
0.0
 71
     0
 72
     0
 73
     1
 74
     1
 75
     0
 76
     0
 77
     0
 78
     0
 79
     0
140
0.18
141
0.09
142
0.0
143
25.4
144
1.0
145
0.0
146
1.0
147
0.09
148
0.0
170
     0
171
     2
172
     0
173
     0
174
     0
175
     0
176
     0
177
     0
178
     0
179
     0
271
     4
272
     4
273
     2
274
     2
275
     0
276
     0
277
     2
278
    46
279
     0
280
     0
281
     0
282
     0
283
     1
284
     0
285
     0
286
     0
288
     0
340
17
341
0
342
0
343
0
344
0
371
    -2
372
    -2
  0
ENDTAB
  0
TABLE
  2
BLOCK_RECORD
  5
1
100
AcDbSymbolTable
 70
    11
  0
BLOCK_RECORD
  5
A
100
AcDbSymbolTableRecord
100
AcDbBlockTableRecord
  2
*MODEL_SPACE
340
20
  0
BLOCK_RECORD
  5
B
100
AcDbSymbolTableRecord
100
AcDbBlockTableRecord
  2
*PAPER_SPACE
340
21
  0
BLOCK_RECORD
  5
37
100
AcDbSymbolTableRecord
100
AcDbBlockTableRecord
  2
AI9-BLK1
340
0
102
{BLKREFS
331
38
102
}
  0
BLOCK_RECORD
  5
B2
100
AcDbSymbolTableRecord
100
AcDbBlockTableRecord
  2
AI9-BLK2
340
0
102
{BLKREFS
331
B3
102
}
  0
BLOCK_RECORD
  5
D5
100
AcDbSymbolTableRecord
100
AcDbBlockTableRecord
  2
AI9-BLK3
340
0
102
{BLKREFS
331
D6
102
}
  0
BLOCK_RECORD
  5
119
100
AcDbSymbolTableRecord
100
AcDbBlockTableRecord
  2
AI9-BLK4
340
0
102
{BLKREFS
331
11A
102
}
  0
BLOCK_RECORD
  5
15D
100
AcDbSymbolTableRecord
100
AcDbBlockTableRecord
  2
AI9-BLK5
340
0
102
{BLKREFS
331
15E
102
}
  0
BLOCK_RECORD
  5
1A1
100
AcDbSymbolTableRecord
100
AcDbBlockTableRecord
  2
AI9-BLK6
340
0
102
{BLKREFS
331
1A2
102
}
  0
BLOCK_RECORD
  5
259
100
AcDbSymbolTableRecord
100
AcDbBlockTableRecord
  2
AI9-BLK7
340
0
102
{BLKREFS
331
25A
102
}
  0
BLOCK_RECORD
  5
278
100
AcDbSymbolTableRecord
100
AcDbBlockTableRecord
  2
AI9-BLK8
340
0
102
{BLKREFS
331
279
102
}
  0
BLOCK_RECORD
  5
298
100
AcDbSymbolTableRecord
100
AcDbBlockTableRecord
  2
AI9-BLK9
340
0
102
{BLKREFS
331
299
102
}
  0
BLOCK_RECORD
  5
2DA
100
AcDbSymbolTableRecord
100
AcDbBlockTableRecord
  2
AI9-BLK10
340
0
102
{BLKREFS
331
2DB
102
}
  0
BLOCK_RECORD
  5
31B
100
AcDbSymbolTableRecord
100
AcDbBlockTableRecord
  2
AI9-BLK11
340
0
102
{BLKREFS
331
31C
102
}
  0
ENDTAB
  0
ENDSEC
  0
SECTION
  2
BLOCKS
  0
BLOCK
  5
D
100
AcDbEntity
  8
0
100
AcDbBlockBegin
  2
*MODEL_SPACE
 70
     0
 10
0.0
 20
0.0
 30
0.0
  3
*MODEL_SPACE
  1

  0
ENDBLK
  5
E
100
AcDbEntity
  8
0
100
AcDbBlockEnd
  0
BLOCK
  5
F
100
AcDbEntity
 67
     1
  8
0
100
AcDbBlockBegin
  2
*PAPER_SPACE
 70
     0
 10
0.0
 20
0.0
 30
0.0
  3
*PAPER_SPACE
  1

  0
ENDBLK
  5
10
100
AcDbEntity
 67
     1
  8
0
100
AcDbBlockEnd
  0
BLOCK
  5
39
100
AcDbEntity
  8
TEXT
 62
     7
100
AcDbBlockBegin
  2
AI9-BLK1
 70
     0
 10
0.0
 20
0.0
 30
0.0
  3
AI9-BLK1
  1

  0
MTEXT
  5
3C
100
AcDbEntity
  8
TEXT
 62
     7
100
AcDbMText
 10
-16.352318
 20
-3.617178
 30
0.0
 40
5.512152
 41
0.0
 71
     1
 72
     2
  1
\fArial|b0|i0;\H5.5122;\C7;\U+0033\U+0030
  7
STD
210
0.0
220
0.0
230
1.0
 73
     1
 44
1.0
  0
MTEXT
  5
3B
100
AcDbEntity
  8
TEXT
 62
     7
100
AcDbMText
 10
-16.352318
 20
3.791155
 30
0.0
 40
5.512152
 41
0.0
 71
     1
 72
     2
  1
\fArial|b0|i0;\H5.5122;\C7;\U+0053\U+0074\U+0061\U+006E\U+0064\U+0061\U+0072\U+0064\U+0020
  7
STD
210
0.0
220
0.0
230
1.0
 73
     1
 44
1.0
  0
MTEXT
  5
3A
100
AcDbEntity
  8
TEXT
 62
     7
100
AcDbMText
 10
-16.352318
 20
11.199488
 30
0.0
 40
5.512152
 41
0.0
 71
     1
 72
     2
  1
\fArial|b0|i0;\H5.5122;\C7;\U+0046\U+0048\U+0052\U+004B\U+002D
  7
STD
210
0.0
220
0.0
230
1.0
 73
     1
 44
1.0
  0
ENDBLK
  5
3D
100
AcDbEntity
  8
TEXT
100
AcDbBlockEnd
  0
BLOCK
  5
B4
100
AcDbEntity
  8
SCHRAFFUR
  6
AI9-LType1
 62
     7
100
AcDbBlockBegin
  2
AI9-BLK2
 70
     0
 10
0.0
 20
0.0
 30
0.0
  3
AI9-BLK2
  1

  0
POLYLINE
  5
C8
100
AcDbEntity
  8
SCHRAFFUR
 62
     7
100
AcDb2dPolyline
 66
     1
 10
0.0
 20
0.0
 30
0.0
 70
     1
  0
VERTEX
  5
C9
100
AcDbEntity
  8
SCHRAFFUR
 62
     7
100
AcDbVertex
100
AcDb2dVertex
 10
0.0
 20
0.000345
 30
0.0
  0
VERTEX
  5
CA
100
AcDbEntity
  8
SCHRAFFUR
 62
     7
100
AcDbVertex
100
AcDb2dVertex
 10
-3.59978
 20
-22.036898
 30
0.0
  0
VERTEX
  5
CB
100
AcDbEntity
  8
SCHRAFFUR
 62
     7
100
AcDbVertex
100
AcDb2dVertex
 10
3.59978
 20
-22.036898
 30
0.0
  0
SEQEND
  5
CC
100
AcDbEntity
  8
SCHRAFFUR
 62
     7
  0
HATCH
  5
C7
100
AcDbEntity
  8
SCHRAFFUR
 62
     7
100
AcDbHatch
 10
0.0
 20
0.0
 30
0.0
210
0.0
220
0.0
230
1.0
  2
SOLID
 70
     1
 71
     0
 91
        1
 92
        3
 72
     0
 73
     1
 93
        3
 10
0.0
 20
0.0003445095486111
 10
-3.5997802734374997
 20
-22.036897786458333
 10
3.5997802734374997
 20
-22.036897786458333
 97
        0
 75
     2
 76
     1
 98
        1
 10
0.0
 20
0.0
  0
POLYLINE
  5
C2
100
AcDbEntity
  8
SCHRAFFUR
 62
     7
100
AcDb2dPolyline
 66
     1
 10
0.0
 20
0.0
 30
0.0
 70
     1
  0
VERTEX
  5
C3
100
AcDbEntity
  8
SCHRAFFUR
 62
     7
100
AcDbVertex
100
AcDb2dVertex
 10
0.0
 20
0.000345
 30
0.0
  0
VERTEX
  5
C4
100
AcDbEntity
  8
SCHRAFFUR
 62
     7
100
AcDbVertex
100
AcDb2dVertex
 10
3.59978
 20
-22.036898
 30
0.0
  0
VERTEX
  5
C5
100
AcDbEntity
  8
SCHRAFFUR
 62
     7
100
AcDbVertex
100
AcDb2dVertex
 10
3.59978
 20
22.036898
 30
0.0
  0
SEQEND
  5
C6
100
AcDbEntity
  8
SCHRAFFUR
 62
     7
  0
HATCH
  5
C1
100
AcDbEntity
  8
SCHRAFFUR
 62
     7
100
AcDbHatch
 10
0.0
 20
0.0
 30
0.0
210
0.0
220
0.0
230
1.0
  2
SOLID
 70
     1
 71
     0
 91
        1
 92
        3
 72
     0
 73
     1
 93
        3
 10
0.0
 20
0.0003445095486111
 10
3.5997802734374997
 20
-22.036897786458333
 10
3.5997802734374997
 20
22.036897786458333
 97
        0
 75
     2
 76
     1
 98
        1
 10
0.0
 20
0.0
  0
POLYLINE
  5
BC
100
AcDbEntity
  8
SCHRAFFUR
 62
     7
100
AcDb2dPolyline
 66
     1
 10
0.0
 20
0.0
 30
0.0
 70
     1
  0
VERTEX
  5
BD
100
AcDbEntity
  8
SCHRAFFUR
 62
     7
100
AcDbVertex
100
AcDb2dVertex
 10
0.0
 20
0.000345
 30
0.0
  0
VERTEX
  5
BE
100
AcDbEntity
  8
SCHRAFFUR
 62
     7
100
AcDbVertex
100
AcDb2dVertex
 10
3.59978
 20
22.036898
 30
0.0
  0
VERTEX
  5
BF
100
AcDbEntity
  8
SCHRAFFUR
 62
     7
100
AcDbVertex
100
AcDb2dVertex
 10
-3.59978
 20
22.036898
 30
0.0
  0
SEQEND
  5
C0
100
AcDbEntity
  8
SCHRAFFUR
 62
     7
  0
HATCH
  5
BB
100
AcDbEntity
  8
SCHRAFFUR
 62
     7
100
AcDbHatch
 10
0.0
 20
0.0
 30
0.0
210
0.0
220
0.0
230
1.0
  2
SOLID
 70
     1
 71
     0
 91
        1
 92
        3
 72
     0
 73
     1
 93
        3
 10
0.0
 20
0.0003445095486111
 10
3.5997802734374997
 20
22.036897786458333
 10
-3.5997802734374997
 20
22.036897786458333
 97
        0
 75
     2
 76
     1
 98
        1
 10
0.0
 20
0.0
  0
POLYLINE
  5
B6
100
AcDbEntity
  8
SCHRAFFUR
 62
     7
100
AcDb2dPolyline
 66
     1
 10
0.0
 20
0.0
 30
0.0
 70
     1
  0
VERTEX
  5
B7
100
AcDbEntity
  8
SCHRAFFUR
 62
     7
100
AcDbVertex
100
AcDb2dVertex
 10
0.0
 20
0.000345
 30
0.0
  0
VERTEX
  5
B8
100
AcDbEntity
  8
SCHRAFFUR
 62
     7
100
AcDbVertex
100
AcDb2dVertex
 10
-3.59978
 20
22.036898
 30
0.0
  0
VERTEX
  5
B9
100
AcDbEntity
  8
SCHRAFFUR
 62
     7
100
AcDbVertex
100
AcDb2dVertex
 10
-3.59978
 20
-22.036898
 30
0.0
  0
SEQEND
  5
BA
100
AcDbEntity
  8
SCHRAFFUR
 62
     7
  0
HATCH
  5
B5
100
AcDbEntity
  8
SCHRAFFUR
 62
     7
100
AcDbHatch
 10
0.0
 20
0.0
 30
0.0
210
0.0
220
0.0
230
1.0
  2
SOLID
 70
     1
 71
     0
 91
        1
 92
        3
 72
     0
 73
     1
 93
        3
 10
0.0
 20
0.0003445095486111
 10
-3.5997802734374997
 20
22.036897786458333
 10
-3.5997802734374997
 20
-22.036897786458333
 97
        0
 75
     2
 76
     1
 98
        1
 10
0.0
 20
0.0
  0
ENDBLK
  5
CD
100
AcDbEntity
  8
SCHRAFFUR
100
AcDbBlockEnd
  0
BLOCK
  5
D7
100
AcDbEntity
  8
EBENE_1
 62
     7
100
AcDbBlockBegin
  2
AI9-BLK3
 70
     0
 10
0.0
 20
0.0
 30
0.0
  3
AI9-BLK3
  1

  0
HATCH
  5
117
100
AcDbEntity
  8
EBENE_1
 62
   152
100
AcDbHatch
 10
0.0
 20
0.0
 30
0.0
210
0.0
220
0.0
230
1.0
  2
SOLID
 70
     1
 71
     0
 91
        1
 92
        3
 72
     0
 73
     1
 93
        3
 10
-1.1060479058159722
 20
-1.0228488498263888
 10
-1.8147040473090277
 20
-1.0318060980902777
 10
-1.4403944227430554
 20
-1.0500651041666667
 97
        0
 75
     2
 76
     1
 98
        1
 10
0.0
 20
0.0
  0
HATCH
  5
116
100
AcDbEntity
  8
EBENE_1
 62
   152
100
AcDbHatch
 10
0.0
 20
0.0
 30
0.0
210
0.0
220
0.0
230
1.0
  2
SOLID
 70
     1
 71
     0
 91
        1
 92
        3
 72
     0
 73
     1
 93
        3
 10
4.1132717556423604
 20
-1.0200927734374998
 10
4.2781195746527771
 20
-1.0524766710069444
 10
4.4314263237847218
 20
-1.0324951171874999
 97
        0
 75
     2
 76
     1
 98
        1
 10
0.0
 20
0.0
  0
HATCH
  5
115
100
AcDbEntity
  8
EBENE_1
 62
   152
100
AcDbHatch
 10
0.0
 20
0.0
 30
0.0
210
0.0
220
0.0
230
1.0
  2
SOLID
 70
     1
 71
     0
 91
        1
 92
        3
 72
     0
 73
     1
 93
        3
 10
-2.2363837348090274
 20
-0.9608371310763888
 10
-1.8147040473090277
 20
-1.0318060980902777
 10
-1.1060479058159722
 20
-1.0228488498263888
 97
        0
 75
     2
 76
     1
 98
        1
 10
0.0
 20
0.0
  0
HATCH
  5
114
100
AcDbEntity
  8
EBENE_1
 62
   152
100
AcDbHatch
 10
0.0
 20
0.0
 30
0.0
210
0.0
220
0.0
230
1.0
  2
SOLID
 70
     1
 71
     0
 91
        1
 92
        3
 72
     0
 73
     1
 93
        3
 10
-0.8054633246527777
 20
-0.9580810546874999
 10
-2.2363837348090274
 20
-0.9608371310763888
 10
-1.1060479058159722
 20
-1.0228488498263888
 97
        0
 75
     2
 76
     1
 98
        1
 10
0.0
 20
0.0
  0
HATCH
  5
113
100
AcDbEntity
  8
EBENE_1
 62
   152
100
AcDbHatch
 10
0.0
 20
0.0
 30
0.0
210
0.0
220
0.0
230
1.0
  2
SOLID
 70
     1
 71
     0
 91
        1
 92
        3
 72
     0
 73
     1
 93
        3
 10
3.9742621527777775
 20
-0.948779296875
 10
4.1132717556423604
 20
-1.0200927734374998
 10
4.4314263237847218
 20
-1.0324951171874999
 97
        0
 75
     2
 76
     1
 98
        1
 10
0.0
 20
0.0
  0
HATCH
  5
112
100
AcDbEntity
  8
EBENE_1
 62
   152
100
AcDbHatch
 10
0.0
 20
0.0
 30
0.0
210
0.0
220
0.0
230
1.0
  2
SOLID
 70
     1
 71
     0
 91
        1
 92
        3
 72
     0
 73
     1
 93
        3
 10
3.8991590711805553
 20
-0.9033040364583332
 10
3.9742621527777775
 20
-0.948779296875
 10
4.4314263237847218
 20
-1.0324951171874999
 97
        0
 75
     2
 76
     1
 98
        1
 10
0.0
 20
0.0
  0
HATCH
  5
111
100
AcDbEntity
  8
EBENE_1
 62
   152
100
AcDbHatch
 10
0.0
 20
0.0
 30
0.0
210
0.0
220
0.0
230
1.0
  2
SOLID
 70
     1
 71
     0
 91
        1
 92
        3
 72
     0
 73
     1
 93
        3
 10
4.679989963107638
 20
-0.8691975911458333
 10
3.8991590711805553
 20
-0.9033040364583332
 10
4.4314263237847218
 20
-1.0324951171874999
 97
        0
 75
     2
 76
     1
 98
        1
 10
0.0
 20
0.0
  0
HATCH
  5
110
100
AcDbEntity
  8
EBENE_1
 62
   152
100
AcDbHatch
 10
0.0
 20
0.0
 30
0.0
210
0.0
220
0.0
230
1.0
  2
SOLID
 70
     1
 71
     0
 91
        1
 92
        3
 72
     0
 73
     1
 93
        3
 10
-2.7121514214409719
 20
-0.8271674262152777
 10
-2.2363837348090274
 20
-0.9608371310763888
 10
-0.8054633246527777
 20
-0.9580810546874999
 97
        0
 75
     2
 76
     1
 98
        1
 10
0.0
 20
0.0
  0
HATCH
  5
10F
100
AcDbEntity
  8
EBENE_1
 62
   152
100
AcDbHatch
 10
0.0
 20
0.0
 30
0.0
210
0.0
220
0.0
230
1.0
  2
SOLID
 70
     1
 71
     0
 91
        1
 92
        3
 72
     0
 73
     1
 93
        3
 10
-0.2788804796006944
 20
-0.750686306423611
 10
-2.7121514214409719
 20
-0.8271674262152777
 10
-0.8054633246527777
 20
-0.9580810546874999
 97
        0
 75
     2
 76
     1
 98
        1
 10
0.0
 20
0.0
  0
HATCH
  5
10E
100
AcDbEntity
  8
EBENE_1
 62
   152
100
AcDbHatch
 10
0.0
 20
0.0
 30
0.0
210
0.0
220
0.0
230
1.0
  2
SOLID
 70
     1
 71
     0
 91
        1
 92
        3
 72
     0
 73
     1
 93
        3
 10
3.6089097764756941
 20
-0.7348388671874999
 10
3.8991590711805553
 20
-0.9033040364583332
 10
4.679989963107638
 20
-0.8691975911458333
 97
        0
 75
     2
 76
     1
 98
        1
 10
0.0
 20
0.0
  0
HATCH
  5
10D
100
AcDbEntity
  8
EBENE_1
 62
   152
100
AcDbHatch
 10
0.0
 20
0.0
 30
0.0
210
0.0
220
0.0
230
1.0
  2
SOLID
 70
     1
 71
     0
 91
        1
 92
        3
 72
     0
 73
     1
 93
        3
 10
-3.2480360243055553
 20
-0.6245958116319444
 10
-2.7121514214409719
 20
-0.8271674262152777
 10
-0.2788804796006944
 20
-0.750686306423611
 97
        0
 75
     2
 76
     1
 98
        1
 10
0.0
 20
0.0
  0
HATCH
  5
10C
100
AcDbEntity
  8
EBENE_1
 62
   152
100
AcDbHatch
 10
0.0
 20
0.0
 30
0.0
210
0.0
220
0.0
230
1.0
  2
SOLID
 70
     1
 71
     0
 91
        1
 92
        3
 72
     0
 73
     1
 93
        3
 10
4.814348687065972
 20
-0.601858181423611
 10
3.6089097764756941
 20
-0.7348388671874999
 10
4.679989963107638
 20
-0.8691975911458333
 97
        0
 75
     2
 76
     1
 98
        1
 10
0.0
 20
0.0
  0
HATCH
  5
10B
100
AcDbEntity
  8
EBENE_1
 62
   152
100
AcDbHatch
 10
0.0
 20
0.0
 30
0.0
210
0.0
220
0.0
230
1.0
  2
SOLID
 70
     1
 71
     0
 91
        1
 92
        3
 72
     0
 73
     1
 93
        3
 10
-3.5406968858506942
 20
-0.4943712022569444
 10
-3.2480360243055553
 20
-0.6245958116319444
 10
-0.2788804796006944
 20
-0.750686306423611
 97
        0
 75
     2
 76
     1
 98
        1
 10
0.0
 20
0.0
  0
HATCH
  5
10A
100
AcDbEntity
  8
EBENE_1
 62
   152
100
AcDbHatch
 10
0.0
 20
0.0
 30
0.0
210
0.0
220
0.0
230
1.0
  2
SOLID
 70
     1
 71
     0
 91
        1
 92
        3
 72
     0
 73
     1
 93
        3
 10
0.1930976019965278
 20
-0.4923041449652778
 10
-3.5406968858506942
 20
-0.4943712022569444
 10
-0.2788804796006944
 20
-0.750686306423611
 97
        0
 75
     2
 76
     1
 98
        1
 10
0.0
 20
0.0
  0
HATCH
  5
109
100
AcDbEntity
  8
EBENE_1
 62
   152
100
AcDbHatch
 10
0.0
 20
0.0
 30
0.0
210
0.0
220
0.0
230
1.0
  2
SOLID
 70
     1
 71
     0
 91
        1
 92
        3
 72
     0
 73
     1
 93
        3
 10
3.077676052517361
 20
-0.4609537760416667
 10
3.6089097764756941
 20
-0.7348388671874999
 10
4.814348687065972
 20
-0.601858181423611
 97
        0
 75
     2
 76
     1
 98
        1
 10
0.0
 20
0.0
  0
HATCH
  5
108
100
AcDbEntity
  8
EBENE_1
 62
   152
100
AcDbHatch
 10
0.0
 20
0.0
 30
0.0
210
0.0
220
0.0
230
1.0
  2
SOLID
 70
     1
 71
     0
 91
        1
 92
        3
 72
     0
 73
     1
 93
        3
 10
-3.667131890190972
 20
-0.4344265407986111
 10
-3.5406968858506942
 20
-0.4943712022569444
 10
0.1930976019965278
 20
-0.4923041449652778
 97
        0
 75
     2
 76
     1
 98
        1
 10
0.0
 20
0.0
  0
HATCH
  5
107
100
AcDbEntity
  8
EBENE_1
 62
   152
100
AcDbHatch
 10
0.0
 20
0.0
 30
0.0
210
0.0
220
0.0
230
1.0
  2
SOLID
 70
     1
 71
     0
 91
        1
 92
        3
 72
     0
 73
     1
 93
        3
 10
-3.7399956597222217
 20
-0.3992865668402778
 10
-3.667131890190972
 20
-0.4344265407986111
 10
0.1930976019965278
 20
-0.4923041449652778
 97
        0
 75
     2
 76
     1
 98
        1
 10
0.0
 20
0.0
  0
HATCH
  5
106
100
AcDbEntity
  8
EBENE_1
 62
   152
100
AcDbHatch
 10
0.0
 20
0.0
 30
0.0
210
0.0
220
0.0
230
1.0
  2
SOLID
 70
     1
 71
     0
 91
        1
 92
        3
 72
     0
 73
     1
 93
        3
 10
4.7902330186631943
 20
-0.3042019314236111
 10
3.077676052517361
 20
-0.4609537760416667
 10
4.814348687065972
 20
-0.601858181423611
 97
        0
 75
     2
 76
     1
 98
        1
 10
0.0
 20
0.0
  0
HATCH
  5
105
100
AcDbEntity
  8
EBENE_1
 62
   152
100
AcDbHatch
 10
0.0
 20
0.0
 30
0.0
210
0.0
220
0.0
230
1.0
  2
SOLID
 70
     1
 71
     0
 91
        1
 92
        3
 72
     0
 73
     1
 93
        3
 10
2.6063869900173611
 20
-0.2642388237847222
 10
3.077676052517361
 20
-0.4609537760416667
 10
4.7902330186631943
 20
-0.3042019314236111
 97
        0
 75
     2
 76
     1
 98
        1
 10
0.0
 20
0.0
  0
HATCH
  5
104
100
AcDbEntity
  8
EBENE_1
 62
   152
100
AcDbHatch
 10
0.0
 20
0.0
 30
0.0
210
0.0
220
0.0
230
1.0
  2
SOLID
 70
     1
 71
     0
 91
        1
 92
        3
 72
     0
 73
     1
 93
        3
 10
-4.0099188910590273
 20
-0.2625162760416667
 10
-3.7399956597222217
 20
-0.3992865668402778
 10
0.1930976019965278
 20
-0.4923041449652778
 97
        0
 75
     2
 76
     1
 98
        1
 10
0.0
 20
0.0
  0
HATCH
  5
103
100
AcDbEntity
  8
EBENE_1
 62
   152
100
AcDbHatch
 10
0.0
 20
0.0
 30
0.0
210
0.0
220
0.0
230
1.0
  2
SOLID
 70
     1
 71
     0
 91
        1
 92
        3
 72
     0
 73
     1
 93
        3
 10
0.6642144097222221
 20
-0.2497694227430555
 10
-4.0099188910590273
 20
-0.2625162760416667
 10
0.1930976019965278
 20
-0.4923041449652778
 97
        0
 75
     2
 76
     1
 98
        1
 10
0.0
 20
0.0
  0
HATCH
  5
102
100
AcDbEntity
  8
EBENE_1
 62
   152
100
AcDbHatch
 10
0.0
 20
0.0
 30
0.0
210
0.0
220
0.0
230
1.0
  2
SOLID
 70
     1
 71
     0
 91
        1
 92
        3
 72
     0
 73
     1
 93
        3
 10
4.7049669053819443
 20
-0.1663981119791667
 10
2.6063869900173611
 20
-0.2642388237847222
 10
4.7902330186631943
 20
-0.3042019314236111
 97
        0
 75
     2
 76
     1
 98
        1
 10
0.0
 20
0.0
  0
HATCH
  5
101
100
AcDbEntity
  8
EBENE_1
 62
   152
100
AcDbHatch
 10
0.0
 20
0.0
 30
0.0
210
0.0
220
0.0
230
1.0
  2
SOLID
 70
     1
 71
     0
 91
        1
 92
        3
 72
     0
 73
     1
 93
        3
 10
-4.2371229383680555
 20
-0.1402153862847222
 10
-4.0099188910590273
 20
-0.2625162760416667
 10
0.6642144097222221
 20
-0.2497694227430555
 97
        0
 75
     2
 76
     1
 98
        1
 10
0.0
 20
0.0
  0
HATCH
  5
100
100
AcDbEntity
  8
EBENE_1
 62
   152
100
AcDbHatch
 10
0.0
 20
0.0
 30
0.0
210
0.0
220
0.0
230
1.0
  2
SOLID
 70
     1
 71
     0
 91
        1
 92
        3
 72
     0
 73
     1
 93
        3
 10
2.1886691623263888
 20
-0.1367702907986111
 10
2.6063869900173611
 20
-0.2642388237847222
 10
4.7049669053819443
 20
-0.1663981119791667
 97
        0
 75
     2
 76
     1
 98
        1
 10
0.0
 20
0.0
  0
HATCH
  5
FF
100
AcDbEntity
  8
EBENE_1
 62
   152
100
AcDbHatch
 10
0.0
 20
0.0
 30
0.0
210
0.0
220
0.0
230
1.0
  2
SOLID
 70
     1
 71
     0
 91
        1
 92
        3
 72
     0
 73
     1
 93
        3
 10
1.1876966688368054
 20
-0.0871609157986111
 10
-4.2371229383680555
 20
-0.1402153862847222
 10
0.6642144097222221
 20
-0.2497694227430555
 97
        0
 75
     2
 76
     1
 98
        1
 10
0.0
 20
0.0
  0
HATCH
  5
FE
100
AcDbEntity
  8
EBENE_1
 62
   152
100
AcDbHatch
 10
0.0
 20
0.0
 30
0.0
210
0.0
220
0.0
230
1.0
  2
SOLID
 70
     1
 71
     0
 91
        1
 92
        3
 72
     0
 73
     1
 93
        3
 10
1.8172878689236109
 20
-0.0702799479166667
 10
2.1886691623263888
 20
-0.1367702907986111
 10
4.7049669053819443
 20
-0.1663981119791667
 97
        0
 75
     2
 76
     1
 98
        1
 10
0.0
 20
0.0
  0
HATCH
  5
FD
100
AcDbEntity
  8
EBENE_1
 62
   152
100
AcDbHatch
 10
0.0
 20
0.0
 30
0.0
210
0.0
220
0.0
230
1.0
  2
SOLID
 70
     1
 71
     0
 91
        1
 92
        3
 72
     0
 73
     1
 93
        3
 10
1.485869683159722
 20
-0.0561550564236111
 10
-4.2371229383680555
 20
-0.1402153862847222
 10
1.1876966688368054
 20
-0.0871609157986111
 97
        0
 75
     2
 76
     1
 98
        1
 10
0.0
 20
0.0
  0
HATCH
  5
FC
100
AcDbEntity
  8
EBENE_1
 62
   152
100
AcDbHatch
 10
0.0
 20
0.0
 30
0.0
210
0.0
220
0.0
230
1.0
  2
SOLID
 70
     1
 71
     0
 91
        1
 92
        3
 72
     0
 73
     1
 93
        3
 10
1.485869683159722
 20
-0.0561550564236111
 10
1.8172878689236109
 20
-0.0702799479166667
 10
4.7049669053819443
 20
-0.1663981119791667
 97
        0
 75
     2
 76
     1
 98
        1
 10
0.0
 20
0.0
  0
HATCH
  5
FB
100
AcDbEntity
  8
EBENE_1
 62
   152
100
AcDbHatch
 10
0.0
 20
0.0
 30
0.0
210
0.0
220
0.0
230
1.0
  2
SOLID
 70
     1
 71
     0
 91
        1
 92
        3
 72
     0
 73
     1
 93
        3
 10
4.5632012261284718
 20
-0.0478868272569444
 10
1.485869683159722
 20
-0.0561550564236111
 10
4.7049669053819443
 20
-0.1663981119791667
 97
        0
 75
     2
 76
     1
 98
        1
 10
0.0
 20
0.0
  0
HATCH
  5
FA
100
AcDbEntity
  8
EBENE_1
 62
   152
100
AcDbHatch
 10
0.0
 20
0.0
 30
0.0
210
0.0
220
0.0
230
1.0
  2
SOLID
 70
     1
 71
     0
 91
        1
 92
        3
 72
     0
 73
     1
 93
        3
 10
-4.4117892795138882
 20
-0.0416856553819444
 10
1.485869683159722
 20
-0.0561550564236111
 10
4.5632012261284718
 20
-0.0478868272569444
 97
        0
 75
     2
 76
     1
 98
        1
 10
0.0
 20
0.0
  0
HATCH
  5
F9
100
AcDbEntity
  8
EBENE_1
 62
   152
100
AcDbHatch
 10
0.0
 20
0.0
 30
0.0
210
0.0
220
0.0
230
1.0
  2
SOLID
 70
     1
 71
     0
 91
        1
 92
        3
 72
     0
 73
     1
 93
        3
 10
-4.4117892795138882
 20
-0.0416856553819444
 10
-4.2371229383680555
 20
-0.1402153862847222
 10
1.485869683159722
 20
-0.0561550564236111
 97
        0
 75
     2
 76
     1
 98
        1
 10
0.0
 20
0.0
  0
HATCH
  5
F8
100
AcDbEntity
  8
EBENE_1
 62
   152
100
AcDbHatch
 10
0.0
 20
0.0
 30
0.0
210
0.0
220
0.0
230
1.0
  2
SOLID
 70
     1
 71
     0
 91
        1
 92
        3
 72
     0
 73
     1
 93
        3
 10
4.4117892795138882
 20
0.0413411458333333
 10
-4.4117892795138882
 20
-0.0416856553819444
 10
4.5632012261284718
 20
-0.0478868272569444
 97
        0
 75
     2
 76
     1
 98
        1
 10
0.0
 20
0.0
  0
HATCH
  5
F7
100
AcDbEntity
  8
EBENE_1
 62
   152
100
AcDbHatch
 10
0.0
 20
0.0
 30
0.0
210
0.0
220
0.0
230
1.0
  2
SOLID
 70
     1
 71
     0
 91
        1
 92
        3
 72
     0
 73
     1
 93
        3
 10
-4.5632012261284718
 20
0.0475423177083333
 10
-4.4117892795138882
 20
-0.0416856553819444
 10
4.4117892795138882
 20
0.0413411458333333
 97
        0
 75
     2
 76
     1
 98
        1
 10
0.0
 20
0.0
  0
HATCH
  5
F6
100
AcDbEntity
  8
EBENE_1
 62
   152
100
AcDbHatch
 10
0.0
 20
0.0
 30
0.0
210
0.0
220
0.0
230
1.0
  2
SOLID
 70
     1
 71
     0
 91
        1
 92
        3
 72
     0
 73
     1
 93
        3
 10
-1.4869032118055554
 20
0.0533989800347222
 10
-4.5632012261284718
 20
0.0475423177083333
 10
4.4117892795138882
 20
0.0413411458333333
 97
        0
 75
     2
 76
     1
 98
        1
 10
0.0
 20
0.0
  0
HATCH
  5
F5
100
AcDbEntity
  8
EBENE_1
 62
   152
100
AcDbHatch
 10
0.0
 20
0.0
 30
0.0
210
0.0
220
0.0
230
1.0
  2
SOLID
 70
     1
 71
     0
 91
        1
 92
        3
 72
     0
 73
     1
 93
        3
 10
-1.8178046332465276
 20
0.0678683810763889
 10
-4.5632012261284718
 20
0.0475423177083333
 10
-1.4869032118055554
 20
0.0533989800347222
 97
        0
 75
     2
 76
     1
 98
        1
 10
0.0
 20
0.0
  0
HATCH
  5
F4
100
AcDbEntity
  8
EBENE_1
 62
   152
100
AcDbHatch
 10
0.0
 20
0.0
 30
0.0
210
0.0
220
0.0
230
1.0
  2
SOLID
 70
     1
 71
     0
 91
        1
 92
        3
 72
     0
 73
     1
 93
        3
 10
-1.1889024522569442
 20
0.0844048394097222
 10
-1.4869032118055554
 20
0.0533989800347222
 10
4.4117892795138882
 20
0.0413411458333333
 97
        0
 75
     2
 76
     1
 98
        1
 10
0.0
 20
0.0
  0
HATCH
  5
F3
100
AcDbEntity
  8
EBENE_1
 62
   152
100
AcDbHatch
 10
0.0
 20
0.0
 30
0.0
210
0.0
220
0.0
230
1.0
  2
SOLID
 70
     1
 71
     0
 91
        1
 92
        3
 72
     0
 73
     1
 93
        3
 10
-2.1888414171006945
 20
0.1343587239583333
 10
-4.5632012261284718
 20
0.0475423177083333
 10
-1.8178046332465276
 20
0.0678683810763889
 97
        0
 75
     2
 76
     1
 98
        1
 10
0.0
 20
0.0
  0
HATCH
  5
F2
100
AcDbEntity
  8
EBENE_1
 62
   152
100
AcDbHatch
 10
0.0
 20
0.0
 30
0.0
210
0.0
220
0.0
230
1.0
  2
SOLID
 70
     1
 71
     0
 91
        1
 92
        3
 72
     0
 73
     1
 93
        3
 10
4.2371229383680555
 20
0.1402153862847222
 10
-1.1889024522569442
 20
0.0844048394097222
 10
4.4117892795138882
 20
0.0413411458333333
 97
        0
 75
     2
 76
     1
 98
        1
 10
0.0
 20
0.0
  0
HATCH
  5
F1
100
AcDbEntity
  8
EBENE_1
 62
   152
100
AcDbHatch
 10
0.0
 20
0.0
 30
0.0
210
0.0
220
0.0
230
1.0
  2
SOLID
 70
     1
 71
     0
 91
        1
 92
        3
 72
     0
 73
     1
 93
        3
 10
-4.7049669053819443
 20
0.1663981119791667
 10
-4.5632012261284718
 20
0.0475423177083333
 10
-2.1888414171006945
 20
0.1343587239583333
 97
        0
 75
     2
 76
     1
 98
        1
 10
0.0
 20
0.0
  0
HATCH
  5
F0
100
AcDbEntity
  8
EBENE_1
 62
   152
100
AcDbHatch
 10
0.0
 20
0.0
 30
0.0
210
0.0
220
0.0
230
1.0
  2
SOLID
 70
     1
 71
     0
 91
        1
 92
        3
 72
     0
 73
     1
 93
        3
 10
-0.6657647026909722
 20
0.2470133463541666
 10
-1.1889024522569442
 20
0.0844048394097222
 10
4.2371229383680555
 20
0.1402153862847222
 97
        0
 75
     2
 76
     1
 98
        1
 10
0.0
 20
0.0
  0
HATCH
  5
EF
100
AcDbEntity
  8
EBENE_1
 62
   152
100
AcDbHatch
 10
0.0
 20
0.0
 30
0.0
210
0.0
220
0.0
230
1.0
  2
SOLID
 70
     1
 71
     0
 91
        1
 92
        3
 72
     0
 73
     1
 93
        3
 10
4.0099188910590273
 20
0.2621717664930555
 10
-0.6657647026909722
 20
0.2470133463541666
 10
4.2371229383680555
 20
0.1402153862847222
 97
        0
 75
     2
 76
     1
 98
        1
 10
0.0
 20
0.0
  0
HATCH
  5
EE
100
AcDbEntity
  8
EBENE_1
 62
   152
100
AcDbHatch
 10
0.0
 20
0.0
 30
0.0
210
0.0
220
0.0
230
1.0
  2
SOLID
 70
     1
 71
     0
 91
        1
 92
        3
 72
     0
 73
     1
 93
        3
 10
-2.6067314995659721
 20
0.2621717664930555
 10
-4.7049669053819443
 20
0.1663981119791667
 10
-2.1888414171006945
 20
0.1343587239583333
 97
        0
 75
     2
 76
     1
 98
        1
 10
0.0
 20
0.0
  0
HATCH
  5
ED
100
AcDbEntity
  8
EBENE_1
 62
   152
100
AcDbHatch
 10
0.0
 20
0.0
 30
0.0
210
0.0
220
0.0
230
1.0
  2
SOLID
 70
     1
 71
     0
 91
        1
 92
        3
 72
     0
 73
     1
 93
        3
 10
-4.7902330186631943
 20
0.303857421875
 10
-4.7049669053819443
 20
0.1663981119791667
 10
-2.6067314995659721
 20
0.2621717664930555
 97
        0
 75
     2
 76
     1
 98
        1
 10
0.0
 20
0.0
  0
HATCH
  5
EC
100
AcDbEntity
  8
EBENE_1
 62
   152
100
AcDbHatch
 10
0.0
 20
0.0
 30
0.0
210
0.0
220
0.0
230
1.0
  2
SOLID
 70
     1
 71
     0
 91
        1
 92
        3
 72
     0
 73
     1
 93
        3
 10
3.7399956597222217
 20
0.3989420572916667
 10
-0.6657647026909722
 20
0.2470133463541666
 10
4.0099188910590273
 20
0.2621717664930555
 97
        0
 75
     2
 76
     1
 98
        1
 10
0.0
 20
0.0
  0
HATCH
  5
EB
100
AcDbEntity
  8
EBENE_1
 62
   152
100
AcDbHatch
 10
0.0
 20
0.0
 30
0.0
210
0.0
220
0.0
230
1.0
  2
SOLID
 70
     1
 71
     0
 91
        1
 92
        3
 72
     0
 73
     1
 93
        3
 10
3.667131890190972
 20
0.4344265407986111
 10
-0.6657647026909722
 20
0.2470133463541666
 10
3.7399956597222217
 20
0.3989420572916667
 97
        0
 75
     2
 76
     1
 98
        1
 10
0.0
 20
0.0
  0
HATCH
  5
EA
100
AcDbEntity
  8
EBENE_1
 62
   152
100
AcDbHatch
 10
0.0
 20
0.0
 30
0.0
210
0.0
220
0.0
230
1.0
  2
SOLID
 70
     1
 71
     0
 91
        1
 92
        3
 72
     0
 73
     1
 93
        3
 10
-3.0775037977430553
 20
0.4592312282986111
 10
-4.7902330186631943
 20
0.303857421875
 10
-2.6067314995659721
 20
0.2621717664930555
 97
        0
 75
     2
 76
     1
 98
        1
 10
0.0
 20
0.0
  0
HATCH
  5
E9
100
AcDbEntity
  8
EBENE_1
 62
   152
100
AcDbHatch
 10
0.0
 20
0.0
 30
0.0
210
0.0
220
0.0
230
1.0
  2
SOLID
 70
     1
 71
     0
 91
        1
 92
        3
 72
     0
 73
     1
 93
        3
 10
-0.1951646592881944
 20
0.4902370876736111
 10
-0.6657647026909722
 20
0.2470133463541666
 10
3.667131890190972
 20
0.4344265407986111
 97
        0
 75
     2
 76
     1
 98
        1
 10
0.0
 20
0.0
  0
HATCH
  5
E8
100
AcDbEntity
  8
EBENE_1
 62
   152
100
AcDbHatch
 10
0.0
 20
0.0
 30
0.0
210
0.0
220
0.0
230
1.0
  2
SOLID
 70
     1
 71
     0
 91
        1
 92
        3
 72
     0
 73
     1
 93
        3
 10
3.5406968858506942
 20
0.4943712022569444
 10
-0.1951646592881944
 20
0.4902370876736111
 10
3.667131890190972
 20
0.4344265407986111
 97
        0
 75
     2
 76
     1
 98
        1
 10
0.0
 20
0.0
  0
HATCH
  5
E7
100
AcDbEntity
  8
EBENE_1
 62
   152
100
AcDbHatch
 10
0.0
 20
0.0
 30
0.0
210
0.0
220
0.0
230
1.0
  2
SOLID
 70
     1
 71
     0
 91
        1
 92
        3
 72
     0
 73
     1
 93
        3
 10
-4.814348687065972
 20
0.601858181423611
 10
-4.7902330186631943
 20
0.303857421875
 10
-3.0775037977430553
 20
0.4592312282986111
 97
        0
 75
     2
 76
     1
 98
        1
 10
0.0
 20
0.0
  0
HATCH
  5
E6
100
AcDbEntity
  8
EBENE_1
 62
   152
100
AcDbHatch
 10
0.0
 20
0.0
 30
0.0
210
0.0
220
0.0
230
1.0
  2
SOLID
 70
     1
 71
     0
 91
        1
 92
        3
 72
     0
 73
     1
 93
        3
 10
3.2475192599826386
 20
0.6242513020833332
 10
-0.1951646592881944
 20
0.4902370876736111
 10
3.5406968858506942
 20
0.4943712022569444
 97
        0
 75
     2
 76
     1
 98
        1
 10
0.0
 20
0.0
  0
HATCH
  5
E5
100
AcDbEntity
  8
EBENE_1
 62
   152
100
AcDbHatch
 10
0.0
 20
0.0
 30
0.0
210
0.0
220
0.0
230
1.0
  2
SOLID
 70
     1
 71
     0
 91
        1
 92
        3
 72
     0
 73
     1
 93
        3
 10
-3.6087375217013884
 20
0.7338053385416666
 10
-4.814348687065972
 20
0.601858181423611
 10
-3.0775037977430553
 20
0.4592312282986111
 97
        0
 75
     2
 76
     1
 98
        1
 10
0.0
 20
0.0
  0
HATCH
  5
E4
100
AcDbEntity
  8
EBENE_1
 62
   152
100
AcDbHatch
 10
0.0
 20
0.0
 30
0.0
210
0.0
220
0.0
230
1.0
  2
SOLID
 70
     1
 71
     0
 91
        1
 92
        3
 72
     0
 73
     1
 93
        3
 10
0.2766411675347222
 20
0.7486192491319443
 10
-0.1951646592881944
 20
0.4902370876736111
 10
3.2475192599826386
 20
0.6242513020833332
 97
        0
 75
     2
 76
     1
 98
        1
 10
0.0
 20
0.0
  0
HATCH
  5
E3
100
AcDbEntity
  8
EBENE_1
 62
   152
100
AcDbHatch
 10
0.0
 20
0.0
 30
0.0
210
0.0
220
0.0
230
1.0
  2
SOLID
 70
     1
 71
     0
 91
        1
 92
        3
 72
     0
 73
     1
 93
        3
 10
2.7111178927951385
 20
0.8271674262152777
 10
0.2766411675347222
 20
0.7486192491319443
 10
3.2475192599826386
 20
0.6242513020833332
 97
        0
 75
     2
 76
     1
 98
        1
 10
0.0
 20
0.0
  0
HATCH
  5
E2
100
AcDbEntity
  8
EBENE_1
 62
   152
100
AcDbHatch
 10
0.0
 20
0.0
 30
0.0
210
0.0
220
0.0
230
1.0
  2
SOLID
 70
     1
 71
     0
 91
        1
 92
        3
 72
     0
 73
     1
 93
        3
 10
-4.6796454535590275
 20
0.868508572048611
 10
-4.814348687065972
 20
0.601858181423611
 10
-3.6087375217013884
 20
0.7338053385416666
 97
        0
 75
     2
 76
     1
 98
        1
 10
0.0
 20
0.0
  0
HATCH
  5
E1
100
AcDbEntity
  8
EBENE_1
 62
   152
100
AcDbHatch
 10
0.0
 20
0.0
 30
0.0
210
0.0
220
0.0
230
1.0
  2
SOLID
 70
     1
 71
     0
 91
        1
 92
        3
 72
     0
 73
     1
 93
        3
 10
-3.8986423068576386
 20
0.9029595269097221
 10
-4.6796454535590275
 20
0.868508572048611
 10
-3.6087375217013884
 20
0.7338053385416666
 97
        0
 75
     2
 76
     1
 98
        1
 10
0.0
 20
0.0
  0
HATCH
  5
E0
100
AcDbEntity
  8
EBENE_1
 62
   152
100
AcDbHatch
 10
0.0
 20
0.0
 30
0.0
210
0.0
220
0.0
230
1.0
  2
SOLID
 70
     1
 71
     0
 91
        1
 92
        3
 72
     0
 73
     1
 93
        3
 10
-3.9740898980034718
 20
0.948779296875
 10
-4.6796454535590275
 20
0.868508572048611
 10
-3.8986423068576386
 20
0.9029595269097221
 97
        0
 75
     2
 76
     1
 98
        1
 10
0.0
 20
0.0
  0
HATCH
  5
DF
100
AcDbEntity
  8
EBENE_1
 62
   152
100
AcDbHatch
 10
0.0
 20
0.0
 30
0.0
210
0.0
220
0.0
230
1.0
  2
SOLID
 70
     1
 71
     0
 91
        1
 92
        3
 72
     0
 73
     1
 93
        3
 10
0.8032240125868055
 20
0.9570475260416665
 10
0.2766411675347222
 20
0.7486192491319443
 10
2.7111178927951385
 20
0.8271674262152777
 97
        0
 75
     2
 76
     1
 98
        1
 10
0.0
 20
0.0
  0
HATCH
  5
DE
100
AcDbEntity
  8
EBENE_1
 62
   152
100
AcDbHatch
 10
0.0
 20
0.0
 30
0.0
210
0.0
220
0.0
230
1.0
  2
SOLID
 70
     1
 71
     0
 91
        1
 92
        3
 72
     0
 73
     1
 93
        3
 10
2.2348334418402778
 20
0.9601481119791666
 10
0.8032240125868055
 20
0.9570475260416665
 10
2.7111178927951385
 20
0.8271674262152777
 97
        0
 75
     2
 76
     1
 98
        1
 10
0.0
 20
0.0
  0
HATCH
  5
DD
100
AcDbEntity
  8
EBENE_1
 62
   152
100
AcDbHatch
 10
0.0
 20
0.0
 30
0.0
210
0.0
220
0.0
230
1.0
  2
SOLID
 70
     1
 71
     0
 91
        1
 92
        3
 72
     0
 73
     1
 93
        3
 10
-4.1130995008680555
 20
1.0200927734374998
 10
-4.6796454535590275
 20
0.868508572048611
 10
-3.9740898980034718
 20
0.948779296875
 97
        0
 75
     2
 76
     1
 98
        1
 10
0.0
 20
0.0
  0
HATCH
  5
DC
100
AcDbEntity
  8
EBENE_1
 62
   152
100
AcDbHatch
 10
0.0
 20
0.0
 30
0.0
210
0.0
220
0.0
230
1.0
  2
SOLID
 70
     1
 71
     0
 91
        1
 92
        3
 72
     0
 73
     1
 93
        3
 10
1.1036363389756942
 20
1.0214708116319444
 10
0.8032240125868055
 20
0.9570475260416665
 10
2.2348334418402778
 20
0.9601481119791666
 97
        0
 75
     2
 76
     1
 98
        1
 10
0.0
 20
0.0
  0
HATCH
  5
DB
100
AcDbEntity
  8
EBENE_1
 62
   152
100
AcDbHatch
 10
0.0
 20
0.0
 30
0.0
210
0.0
220
0.0
230
1.0
  2
SOLID
 70
     1
 71
     0
 91
        1
 92
        3
 72
     0
 73
     1
 93
        3
 10
1.8129814995659721
 20
1.0314615885416665
 10
1.1036363389756942
 20
1.0214708116319444
 10
2.2348334418402778
 20
0.9601481119791666
 97
        0
 75
     2
 76
     1
 98
        1
 10
0.0
 20
0.0
  0
HATCH
  5
DA
100
AcDbEntity
  8
EBENE_1
 62
   152
100
AcDbHatch
 10
0.0
 20
0.0
 30
0.0
210
0.0
220
0.0
230
1.0
  2
SOLID
 70
     1
 71
     0
 91
        1
 92
        3
 72
     0
 73
     1
 93
        3
 10
-4.4309095594618055
 20
1.0324951171874999
 10
-4.6796454535590275
 20
0.868508572048611
 10
-4.1130995008680555
 20
1.0200927734374998
 97
        0
 75
     2
 76
     1
 98
        1
 10
0.0
 20
0.0
  0
HATCH
  5
D9
100
AcDbEntity
  8
EBENE_1
 62
   152
100
AcDbHatch
 10
0.0
 20
0.0
 30
0.0
210
0.0
220
0.0
230
1.0
  2
SOLID
 70
     1
 71
     0
 91
        1
 92
        3
 72
     0
 73
     1
 93
        3
 10
1.4379828559027776
 20
1.0497205946180554
 10
1.1036363389756942
 20
1.0214708116319444
 10
1.8129814995659721
 20
1.0314615885416665
 97
        0
 75
     2
 76
     1
 98
        1
 10
0.0
 20
0.0
  0
HATCH
  5
D8
100
AcDbEntity
  8
EBENE_1
 62
   152
100
AcDbHatch
 10
0.0
 20
0.0
 30
0.0
210
0.0
220
0.0
230
1.0
  2
SOLID
 70
     1
 71
     0
 91
        1
 92
        3
 72
     0
 73
     1
 93
        3
 10
-4.2779473198784714
 20
1.0524766710069444
 10
-4.4309095594618055
 20
1.0324951171874999
 10
-4.1130995008680555
 20
1.0200927734374998
 97
        0
 75
     2
 76
     1
 98
        1
 10
0.0
 20
0.0
  0
ENDBLK
  5
118
100
AcDbEntity
  8
EBENE_1
100
AcDbBlockEnd
  0
BLOCK
  5
11B
100
AcDbEntity
  8
EBENE_1
 62
     7
100
AcDbBlockBegin
  2
AI9-BLK4
 70
     0
 10
0.0
 20
0.0
 30
0.0
  3
AI9-BLK4
  1

  0
HATCH
  5
15B
100
AcDbEntity
  8
EBENE_1
 62
   152
100
AcDbHatch
 10
0.0
 20
0.0
 30
0.0
210
0.0
220
0.0
230
1.0
  2
SOLID
 70
     1
 71
     0
 91
        1
 92
        3
 72
     0
 73
     1
 93
        3
 10
-1.1060479058159722
 20
-1.0228488498263888
 10
-1.8147040473090277
 20
-1.0318060980902777
 10
-1.4403944227430554
 20
-1.0500651041666667
 97
        0
 75
     2
 76
     1
 98
        1
 10
0.0
 20
0.0
  0
HATCH
  5
15A
100
AcDbEntity
  8
EBENE_1
 62
   152
100
AcDbHatch
 10
0.0
 20
0.0
 30
0.0
210
0.0
220
0.0
230
1.0
  2
SOLID
 70
     1
 71
     0
 91
        1
 92
        3
 72
     0
 73
     1
 93
        3
 10
4.1132717556423604
 20
-1.0200927734374998
 10
4.2781195746527771
 20
-1.0524766710069444
 10
4.4314263237847218
 20
-1.0324951171874999
 97
        0
 75
     2
 76
     1
 98
        1
 10
0.0
 20
0.0
  0
HATCH
  5
159
100
AcDbEntity
  8
EBENE_1
 62
   152
100
AcDbHatch
 10
0.0
 20
0.0
 30
0.0
210
0.0
220
0.0
230
1.0
  2
SOLID
 70
     1
 71
     0
 91
        1
 92
        3
 72
     0
 73
     1
 93
        3
 10
-2.2363837348090274
 20
-0.9608371310763888
 10
-1.8147040473090277
 20
-1.0318060980902777
 10
-1.1060479058159722
 20
-1.0228488498263888
 97
        0
 75
     2
 76
     1
 98
        1
 10
0.0
 20
0.0
  0
HATCH
  5
158
100
AcDbEntity
  8
EBENE_1
 62
   152
100
AcDbHatch
 10
0.0
 20
0.0
 30
0.0
210
0.0
220
0.0
230
1.0
  2
SOLID
 70
     1
 71
     0
 91
        1
 92
        3
 72
     0
 73
     1
 93
        3
 10
-0.8054633246527777
 20
-0.9580810546874999
 10
-2.2363837348090274
 20
-0.9608371310763888
 10
-1.1060479058159722
 20
-1.0228488498263888
 97
        0
 75
     2
 76
     1
 98
        1
 10
0.0
 20
0.0
  0
HATCH
  5
157
100
AcDbEntity
  8
EBENE_1
 62
   152
100
AcDbHatch
 10
0.0
 20
0.0
 30
0.0
210
0.0
220
0.0
230
1.0
  2
SOLID
 70
     1
 71
     0
 91
        1
 92
        3
 72
     0
 73
     1
 93
        3
 10
3.9742621527777775
 20
-0.948779296875
 10
4.1132717556423604
 20
-1.0200927734374998
 10
4.4314263237847218
 20
-1.0324951171874999
 97
        0
 75
     2
 76
     1
 98
        1
 10
0.0
 20
0.0
  0
HATCH
  5
156
100
AcDbEntity
  8
EBENE_1
 62
   152
100
AcDbHatch
 10
0.0
 20
0.0
 30
0.0
210
0.0
220
0.0
230
1.0
  2
SOLID
 70
     1
 71
     0
 91
        1
 92
        3
 72
     0
 73
     1
 93
        3
 10
3.8991590711805553
 20
-0.9033040364583332
 10
3.9742621527777775
 20
-0.948779296875
 10
4.4314263237847218
 20
-1.0324951171874999
 97
        0
 75
     2
 76
     1
 98
        1
 10
0.0
 20
0.0
  0
HATCH
  5
155
100
AcDbEntity
  8
EBENE_1
 62
   152
100
AcDbHatch
 10
0.0
 20
0.0
 30
0.0
210
0.0
220
0.0
230
1.0
  2
SOLID
 70
     1
 71
     0
 91
        1
 92
        3
 72
     0
 73
     1
 93
        3
 10
4.679989963107638
 20
-0.8691975911458333
 10
3.8991590711805553
 20
-0.9033040364583332
 10
4.4314263237847218
 20
-1.0324951171874999
 97
        0
 75
     2
 76
     1
 98
        1
 10
0.0
 20
0.0
  0
HATCH
  5
154
100
AcDbEntity
  8
EBENE_1
 62
   152
100
AcDbHatch
 10
0.0
 20
0.0
 30
0.0
210
0.0
220
0.0
230
1.0
  2
SOLID
 70
     1
 71
     0
 91
        1
 92
        3
 72
     0
 73
     1
 93
        3
 10
-2.7121514214409719
 20
-0.8271674262152777
 10
-2.2363837348090274
 20
-0.9608371310763888
 10
-0.8054633246527777
 20
-0.9580810546874999
 97
        0
 75
     2
 76
     1
 98
        1
 10
0.0
 20
0.0
  0
HATCH
  5
153
100
AcDbEntity
  8
EBENE_1
 62
   152
100
AcDbHatch
 10
0.0
 20
0.0
 30
0.0
210
0.0
220
0.0
230
1.0
  2
SOLID
 70
     1
 71
     0
 91
        1
 92
        3
 72
     0
 73
     1
 93
        3
 10
-0.2788804796006944
 20
-0.7503417968749999
 10
-2.7121514214409719
 20
-0.8271674262152777
 10
-0.8054633246527777
 20
-0.9580810546874999
 97
        0
 75
     2
 76
     1
 98
        1
 10
0.0
 20
0.0
  0
HATCH
  5
152
100
AcDbEntity
  8
EBENE_1
 62
   152
100
AcDbHatch
 10
0.0
 20
0.0
 30
0.0
210
0.0
220
0.0
230
1.0
  2
SOLID
 70
     1
 71
     0
 91
        1
 92
        3
 72
     0
 73
     1
 93
        3
 10
3.6089097764756941
 20
-0.7348388671874999
 10
3.8991590711805553
 20
-0.9033040364583332
 10
4.679989963107638
 20
-0.8691975911458333
 97
        0
 75
     2
 76
     1
 98
        1
 10
0.0
 20
0.0
  0
HATCH
  5
151
100
AcDbEntity
  8
EBENE_1
 62
   152
100
AcDbHatch
 10
0.0
 20
0.0
 30
0.0
210
0.0
220
0.0
230
1.0
  2
SOLID
 70
     1
 71
     0
 91
        1
 92
        3
 72
     0
 73
     1
 93
        3
 10
-3.2480360243055553
 20
-0.6245958116319444
 10
-2.7121514214409719
 20
-0.8271674262152777
 10
-0.2788804796006944
 20
-0.7503417968749999
 97
        0
 75
     2
 76
     1
 98
        1
 10
0.0
 20
0.0
  0
HATCH
  5
150
100
AcDbEntity
  8
EBENE_1
 62
   152
100
AcDbHatch
 10
0.0
 20
0.0
 30
0.0
210
0.0
220
0.0
230
1.0
  2
SOLID
 70
     1
 71
     0
 91
        1
 92
        3
 72
     0
 73
     1
 93
        3
 10
4.814348687065972
 20
-0.601858181423611
 10
3.6089097764756941
 20
-0.7348388671874999
 10
4.679989963107638
 20
-0.8691975911458333
 97
        0
 75
     2
 76
     1
 98
        1
 10
0.0
 20
0.0
  0
HATCH
  5
14F
100
AcDbEntity
  8
EBENE_1
 62
   152
100
AcDbHatch
 10
0.0
 20
0.0
 30
0.0
210
0.0
220
0.0
230
1.0
  2
SOLID
 70
     1
 71
     0
 91
        1
 92
        3
 72
     0
 73
     1
 93
        3
 10
-3.5406968858506942
 20
-0.4943712022569444
 10
-3.2480360243055553
 20
-0.6245958116319444
 10
-0.2788804796006944
 20
-0.7503417968749999
 97
        0
 75
     2
 76
     1
 98
        1
 10
0.0
 20
0.0
  0
HATCH
  5
14E
100
AcDbEntity
  8
EBENE_1
 62
   152
100
AcDbHatch
 10
0.0
 20
0.0
 30
0.0
210
0.0
220
0.0
230
1.0
  2
SOLID
 70
     1
 71
     0
 91
        1
 92
        3
 72
     0
 73
     1
 93
        3
 10
0.1930976019965278
 20
-0.4923041449652778
 10
-3.5406968858506942
 20
-0.4943712022569444
 10
-0.2788804796006944
 20
-0.7503417968749999
 97
        0
 75
     2
 76
     1
 98
        1
 10
0.0
 20
0.0
  0
HATCH
  5
14D
100
AcDbEntity
  8
EBENE_1
 62
   152
100
AcDbHatch
 10
0.0
 20
0.0
 30
0.0
210
0.0
220
0.0
230
1.0
  2
SOLID
 70
     1
 71
     0
 91
        1
 92
        3
 72
     0
 73
     1
 93
        3
 10
3.077676052517361
 20
-0.4609537760416667
 10
3.6089097764756941
 20
-0.7348388671874999
 10
4.814348687065972
 20
-0.601858181423611
 97
        0
 75
     2
 76
     1
 98
        1
 10
0.0
 20
0.0
  0
HATCH
  5
14C
100
AcDbEntity
  8
EBENE_1
 62
   152
100
AcDbHatch
 10
0.0
 20
0.0
 30
0.0
210
0.0
220
0.0
230
1.0
  2
SOLID
 70
     1
 71
     0
 91
        1
 92
        3
 72
     0
 73
     1
 93
        3
 10
-3.667131890190972
 20
-0.4344265407986111
 10
-3.5406968858506942
 20
-0.4943712022569444
 10
0.1930976019965278
 20
-0.4923041449652778
 97
        0
 75
     2
 76
     1
 98
        1
 10
0.0
 20
0.0
  0
HATCH
  5
14B
100
AcDbEntity
  8
EBENE_1
 62
   152
100
AcDbHatch
 10
0.0
 20
0.0
 30
0.0
210
0.0
220
0.0
230
1.0
  2
SOLID
 70
     1
 71
     0
 91
        1
 92
        3
 72
     0
 73
     1
 93
        3
 10
-3.7399956597222217
 20
-0.3989420572916667
 10
-3.667131890190972
 20
-0.4344265407986111
 10
0.1930976019965278
 20
-0.4923041449652778
 97
        0
 75
     2
 76
     1
 98
        1
 10
0.0
 20
0.0
  0
HATCH
  5
14A
100
AcDbEntity
  8
EBENE_1
 62
   152
100
AcDbHatch
 10
0.0
 20
0.0
 30
0.0
210
0.0
220
0.0
230
1.0
  2
SOLID
 70
     1
 71
     0
 91
        1
 92
        3
 72
     0
 73
     1
 93
        3
 10
4.7902330186631943
 20
-0.3042019314236111
 10
3.077676052517361
 20
-0.4609537760416667
 10
4.814348687065972
 20
-0.601858181423611
 97
        0
 75
     2
 76
     1
 98
        1
 10
0.0
 20
0.0
  0
HATCH
  5
149
100
AcDbEntity
  8
EBENE_1
 62
   152
100
AcDbHatch
 10
0.0
 20
0.0
 30
0.0
210
0.0
220
0.0
230
1.0
  2
SOLID
 70
     1
 71
     0
 91
        1
 92
        3
 72
     0
 73
     1
 93
        3
 10
2.6063869900173611
 20
-0.2645833333333333
 10
3.077676052517361
 20
-0.4609537760416667
 10
4.7902330186631943
 20
-0.3042019314236111
 97
        0
 75
     2
 76
     1
 98
        1
 10
0.0
 20
0.0
  0
HATCH
  5
148
100
AcDbEntity
  8
EBENE_1
 62
   152
100
AcDbHatch
 10
0.0
 20
0.0
 30
0.0
210
0.0
220
0.0
230
1.0
  2
SOLID
 70
     1
 71
     0
 91
        1
 92
        3
 72
     0
 73
     1
 93
        3
 10
-4.0099188910590273
 20
-0.2621717664930555
 10
-3.7399956597222217
 20
-0.3989420572916667
 10
0.1930976019965278
 20
-0.4923041449652778
 97
        0
 75
     2
 76
     1
 98
        1
 10
0.0
 20
0.0
  0
HATCH
  5
147
100
AcDbEntity
  8
EBENE_1
 62
   152
100
AcDbHatch
 10
0.0
 20
0.0
 30
0.0
210
0.0
220
0.0
230
1.0
  2
SOLID
 70
     1
 71
     0
 91
        1
 92
        3
 72
     0
 73
     1
 93
        3
 10
0.6642144097222221
 20
-0.2497694227430555
 10
-4.0099188910590273
 20
-0.2621717664930555
 10
0.1930976019965278
 20
-0.4923041449652778
 97
        0
 75
     2
 76
     1
 98
        1
 10
0.0
 20
0.0
  0
HATCH
  5
146
100
AcDbEntity
  8
EBENE_1
 62
   152
100
AcDbHatch
 10
0.0
 20
0.0
 30
0.0
210
0.0
220
0.0
230
1.0
  2
SOLID
 70
     1
 71
     0
 91
        1
 92
        3
 72
     0
 73
     1
 93
        3
 10
4.7049669053819443
 20
-0.1663981119791667
 10
2.6063869900173611
 20
-0.2645833333333333
 10
4.7902330186631943
 20
-0.3042019314236111
 97
        0
 75
     2
 76
     1
 98
        1
 10
0.0
 20
0.0
  0
HATCH
  5
145
100
AcDbEntity
  8
EBENE_1
 62
   152
100
AcDbHatch
 10
0.0
 20
0.0
 30
0.0
210
0.0
220
0.0
230
1.0
  2
SOLID
 70
     1
 71
     0
 91
        1
 92
        3
 72
     0
 73
     1
 93
        3
 10
-4.2371229383680555
 20
-0.1402153862847222
 10
-4.0099188910590273
 20
-0.2621717664930555
 10
0.6642144097222221
 20
-0.2497694227430555
 97
        0
 75
     2
 76
     1
 98
        1
 10
0.0
 20
0.0
  0
HATCH
  5
144
100
AcDbEntity
  8
EBENE_1
 62
   152
100
AcDbHatch
 10
0.0
 20
0.0
 30
0.0
210
0.0
220
0.0
230
1.0
  2
SOLID
 70
     1
 71
     0
 91
        1
 92
        3
 72
     0
 73
     1
 93
        3
 10
2.1886691623263888
 20
-0.1367702907986111
 10
2.6063869900173611
 20
-0.2645833333333333
 10
4.7049669053819443
 20
-0.1663981119791667
 97
        0
 75
     2
 76
     1
 98
        1
 10
0.0
 20
0.0
  0
HATCH
  5
143
100
AcDbEntity
  8
EBENE_1
 62
   152
100
AcDbHatch
 10
0.0
 20
0.0
 30
0.0
210
0.0
220
0.0
230
1.0
  2
SOLID
 70
     1
 71
     0
 91
        1
 92
        3
 72
     0
 73
     1
 93
        3
 10
1.1876966688368054
 20
-0.0871609157986111
 10
-4.2371229383680555
 20
-0.1402153862847222
 10
0.6642144097222221
 20
-0.2497694227430555
 97
        0
 75
     2
 76
     1
 98
        1
 10
0.0
 20
0.0
  0
HATCH
  5
142
100
AcDbEntity
  8
EBENE_1
 62
   152
100
AcDbHatch
 10
0.0
 20
0.0
 30
0.0
210
0.0
220
0.0
230
1.0
  2
SOLID
 70
     1
 71
     0
 91
        1
 92
        3
 72
     0
 73
     1
 93
        3
 10
1.8172878689236109
 20
-0.0702799479166667
 10
2.1886691623263888
 20
-0.1367702907986111
 10
4.7049669053819443
 20
-0.1663981119791667
 97
        0
 75
     2
 76
     1
 98
        1
 10
0.0
 20
0.0
  0
HATCH
  5
141
100
AcDbEntity
  8
EBENE_1
 62
   152
100
AcDbHatch
 10
0.0
 20
0.0
 30
0.0
210
0.0
220
0.0
230
1.0
  2
SOLID
 70
     1
 71
     0
 91
        1
 92
        3
 72
     0
 73
     1
 93
        3
 10
1.485869683159722
 20
-0.0561550564236111
 10
-4.2371229383680555
 20
-0.1402153862847222
 10
1.1876966688368054
 20
-0.0871609157986111
 97
        0
 75
     2
 76
     1
 98
        1
 10
0.0
 20
0.0
  0
HATCH
  5
140
100
AcDbEntity
  8
EBENE_1
 62
   152
100
AcDbHatch
 10
0.0
 20
0.0
 30
0.0
210
0.0
220
0.0
230
1.0
  2
SOLID
 70
     1
 71
     0
 91
        1
 92
        3
 72
     0
 73
     1
 93
        3
 10
1.485869683159722
 20
-0.0561550564236111
 10
1.8172878689236109
 20
-0.0702799479166667
 10
4.7049669053819443
 20
-0.1663981119791667
 97
        0
 75
     2
 76
     1
 98
        1
 10
0.0
 20
0.0
  0
HATCH
  5
13F
100
AcDbEntity
  8
EBENE_1
 62
   152
100
AcDbHatch
 10
0.0
 20
0.0
 30
0.0
210
0.0
220
0.0
230
1.0
  2
SOLID
 70
     1
 71
     0
 91
        1
 92
        3
 72
     0
 73
     1
 93
        3
 10
4.5632012261284718
 20
-0.0478868272569444
 10
1.485869683159722
 20
-0.0561550564236111
 10
4.7049669053819443
 20
-0.1663981119791667
 97
        0
 75
     2
 76
     1
 98
        1
 10
0.0
 20
0.0
  0
HATCH
  5
13E
100
AcDbEntity
  8
EBENE_1
 62
   152
100
AcDbHatch
 10
0.0
 20
0.0
 30
0.0
210
0.0
220
0.0
230
1.0
  2
SOLID
 70
     1
 71
     0
 91
        1
 92
        3
 72
     0
 73
     1
 93
        3
 10
-4.4117892795138882
 20
-0.0413411458333333
 10
1.485869683159722
 20
-0.0561550564236111
 10
4.5632012261284718
 20
-0.0478868272569444
 97
        0
 75
     2
 76
     1
 98
        1
 10
0.0
 20
0.0
  0
HATCH
  5
13D
100
AcDbEntity
  8
EBENE_1
 62
   152
100
AcDbHatch
 10
0.0
 20
0.0
 30
0.0
210
0.0
220
0.0
230
1.0
  2
SOLID
 70
     1
 71
     0
 91
        1
 92
        3
 72
     0
 73
     1
 93
        3
 10
-4.4117892795138882
 20
-0.0413411458333333
 10
-4.2371229383680555
 20
-0.1402153862847222
 10
1.485869683159722
 20
-0.0561550564236111
 97
        0
 75
     2
 76
     1
 98
        1
 10
0.0
 20
0.0
  0
HATCH
  5
13C
100
AcDbEntity
  8
EBENE_1
 62
   152
100
AcDbHatch
 10
0.0
 20
0.0
 30
0.0
210
0.0
220
0.0
230
1.0
  2
SOLID
 70
     1
 71
     0
 91
        1
 92
        3
 72
     0
 73
     1
 93
        3
 10
4.4117892795138882
 20
0.0413411458333333
 10
-4.4117892795138882
 20
-0.0413411458333333
 10
4.5632012261284718
 20
-0.0478868272569444
 97
        0
 75
     2
 76
     1
 98
        1
 10
0.0
 20
0.0
  0
HATCH
  5
13B
100
AcDbEntity
  8
EBENE_1
 62
   152
100
AcDbHatch
 10
0.0
 20
0.0
 30
0.0
210
0.0
220
0.0
230
1.0
  2
SOLID
 70
     1
 71
     0
 91
        1
 92
        3
 72
     0
 73
     1
 93
        3
 10
-4.5632012261284718
 20
0.0478868272569444
 10
-4.4117892795138882
 20
-0.0413411458333333
 10
4.4117892795138882
 20
0.0413411458333333
 97
        0
 75
     2
 76
     1
 98
        1
 10
0.0
 20
0.0
  0
HATCH
  5
13A
100
AcDbEntity
  8
EBENE_1
 62
   152
100
AcDbHatch
 10
0.0
 20
0.0
 30
0.0
210
0.0
220
0.0
230
1.0
  2
SOLID
 70
     1
 71
     0
 91
        1
 92
        3
 72
     0
 73
     1
 93
        3
 10
-1.4869032118055554
 20
0.0537434895833333
 10
-4.5632012261284718
 20
0.0478868272569444
 10
4.4117892795138882
 20
0.0413411458333333
 97
        0
 75
     2
 76
     1
 98
        1
 10
0.0
 20
0.0
  0
HATCH
  5
139
100
AcDbEntity
  8
EBENE_1
 62
   152
100
AcDbHatch
 10
0.0
 20
0.0
 30
0.0
210
0.0
220
0.0
230
1.0
  2
SOLID
 70
     1
 71
     0
 91
        1
 92
        3
 72
     0
 73
     1
 93
        3
 10
-1.8178046332465276
 20
0.0678683810763889
 10
-4.5632012261284718
 20
0.0478868272569444
 10
-1.4869032118055554
 20
0.0537434895833333
 97
        0
 75
     2
 76
     1
 98
        1
 10
0.0
 20
0.0
  0
HATCH
  5
138
100
AcDbEntity
  8
EBENE_1
 62
   152
100
AcDbHatch
 10
0.0
 20
0.0
 30
0.0
210
0.0
220
0.0
230
1.0
  2
SOLID
 70
     1
 71
     0
 91
        1
 92
        3
 72
     0
 73
     1
 93
        3
 10
-1.1889024522569442
 20
0.0844048394097222
 10
-1.4869032118055554
 20
0.0537434895833333
 10
4.4117892795138882
 20
0.0413411458333333
 97
        0
 75
     2
 76
     1
 98
        1
 10
0.0
 20
0.0
  0
HATCH
  5
137
100
AcDbEntity
  8
EBENE_1
 62
   152
100
AcDbHatch
 10
0.0
 20
0.0
 30
0.0
210
0.0
220
0.0
230
1.0
  2
SOLID
 70
     1
 71
     0
 91
        1
 92
        3
 72
     0
 73
     1
 93
        3
 10
-2.1888414171006945
 20
0.1343587239583333
 10
-4.5632012261284718
 20
0.0478868272569444
 10
-1.8178046332465276
 20
0.0678683810763889
 97
        0
 75
     2
 76
     1
 98
        1
 10
0.0
 20
0.0
  0
HATCH
  5
136
100
AcDbEntity
  8
EBENE_1
 62
   152
100
AcDbHatch
 10
0.0
 20
0.0
 30
0.0
210
0.0
220
0.0
230
1.0
  2
SOLID
 70
     1
 71
     0
 91
        1
 92
        3
 72
     0
 73
     1
 93
        3
 10
4.2371229383680555
 20
0.1402153862847222
 10
-1.1889024522569442
 20
0.0844048394097222
 10
4.4117892795138882
 20
0.0413411458333333
 97
        0
 75
     2
 76
     1
 98
        1
 10
0.0
 20
0.0
  0
HATCH
  5
135
100
AcDbEntity
  8
EBENE_1
 62
   152
100
AcDbHatch
 10
0.0
 20
0.0
 30
0.0
210
0.0
220
0.0
230
1.0
  2
SOLID
 70
     1
 71
     0
 91
        1
 92
        3
 72
     0
 73
     1
 93
        3
 10
-4.7049669053819443
 20
0.1663981119791667
 10
-4.5632012261284718
 20
0.0478868272569444
 10
-2.1888414171006945
 20
0.1343587239583333
 97
        0
 75
     2
 76
     1
 98
        1
 10
0.0
 20
0.0
  0
HATCH
  5
134
100
AcDbEntity
  8
EBENE_1
 62
   152
100
AcDbHatch
 10
0.0
 20
0.0
 30
0.0
210
0.0
220
0.0
230
1.0
  2
SOLID
 70
     1
 71
     0
 91
        1
 92
        3
 72
     0
 73
     1
 93
        3
 10
-0.6657647026909722
 20
0.2470133463541666
 10
-1.1889024522569442
 20
0.0844048394097222
 10
4.2371229383680555
 20
0.1402153862847222
 97
        0
 75
     2
 76
     1
 98
        1
 10
0.0
 20
0.0
  0
HATCH
  5
133
100
AcDbEntity
  8
EBENE_1
 62
   152
100
AcDbHatch
 10
0.0
 20
0.0
 30
0.0
210
0.0
220
0.0
230
1.0
  2
SOLID
 70
     1
 71
     0
 91
        1
 92
        3
 72
     0
 73
     1
 93
        3
 10
4.0099188910590273
 20
0.2621717664930555
 10
-0.6657647026909722
 20
0.2470133463541666
 10
4.2371229383680555
 20
0.1402153862847222
 97
        0
 75
     2
 76
     1
 98
        1
 10
0.0
 20
0.0
  0
HATCH
  5
132
100
AcDbEntity
  8
EBENE_1
 62
   152
100
AcDbHatch
 10
0.0
 20
0.0
 30
0.0
210
0.0
220
0.0
230
1.0
  2
SOLID
 70
     1
 71
     0
 91
        1
 92
        3
 72
     0
 73
     1
 93
        3
 10
-2.6067314995659721
 20
0.2621717664930555
 10
-4.7049669053819443
 20
0.1663981119791667
 10
-2.1888414171006945
 20
0.1343587239583333
 97
        0
 75
     2
 76
     1
 98
        1
 10
0.0
 20
0.0
  0
HATCH
  5
131
100
AcDbEntity
  8
EBENE_1
 62
   152
100
AcDbHatch
 10
0.0
 20
0.0
 30
0.0
210
0.0
220
0.0
230
1.0
  2
SOLID
 70
     1
 71
     0
 91
        1
 92
        3
 72
     0
 73
     1
 93
        3
 10
-4.7902330186631943
 20
0.3042019314236111
 10
-4.7049669053819443
 20
0.1663981119791667
 10
-2.6067314995659721
 20
0.2621717664930555
 97
        0
 75
     2
 76
     1
 98
        1
 10
0.0
 20
0.0
  0
HATCH
  5
130
100
AcDbEntity
  8
EBENE_1
 62
   152
100
AcDbHatch
 10
0.0
 20
0.0
 30
0.0
210
0.0
220
0.0
230
1.0
  2
SOLID
 70
     1
 71
     0
 91
        1
 92
        3
 72
     0
 73
     1
 93
        3
 10
3.7399956597222217
 20
0.3989420572916667
 10
-0.6657647026909722
 20
0.2470133463541666
 10
4.0099188910590273
 20
0.2621717664930555
 97
        0
 75
     2
 76
     1
 98
        1
 10
0.0
 20
0.0
  0
HATCH
  5
12F
100
AcDbEntity
  8
EBENE_1
 62
   152
100
AcDbHatch
 10
0.0
 20
0.0
 30
0.0
210
0.0
220
0.0
230
1.0
  2
SOLID
 70
     1
 71
     0
 91
        1
 92
        3
 72
     0
 73
     1
 93
        3
 10
3.667131890190972
 20
0.4344265407986111
 10
-0.6657647026909722
 20
0.2470133463541666
 10
3.7399956597222217
 20
0.3989420572916667
 97
        0
 75
     2
 76
     1
 98
        1
 10
0.0
 20
0.0
  0
HATCH
  5
12E
100
AcDbEntity
  8
EBENE_1
 62
   152
100
AcDbHatch
 10
0.0
 20
0.0
 30
0.0
210
0.0
220
0.0
230
1.0
  2
SOLID
 70
     1
 71
     0
 91
        1
 92
        3
 72
     0
 73
     1
 93
        3
 10
-3.0775037977430553
 20
0.4592312282986111
 10
-4.7902330186631943
 20
0.3042019314236111
 10
-2.6067314995659721
 20
0.2621717664930555
 97
        0
 75
     2
 76
     1
 98
        1
 10
0.0
 20
0.0
  0
HATCH
  5
12D
100
AcDbEntity
  8
EBENE_1
 62
   152
100
AcDbHatch
 10
0.0
 20
0.0
 30
0.0
210
0.0
220
0.0
230
1.0
  2
SOLID
 70
     1
 71
     0
 91
        1
 92
        3
 72
     0
 73
     1
 93
        3
 10
-0.1951646592881944
 20
0.4902370876736111
 10
-0.6657647026909722
 20
0.2470133463541666
 10
3.667131890190972
 20
0.4344265407986111
 97
        0
 75
     2
 76
     1
 98
        1
 10
0.0
 20
0.0
  0
HATCH
  5
12C
100
AcDbEntity
  8
EBENE_1
 62
   152
100
AcDbHatch
 10
0.0
 20
0.0
 30
0.0
210
0.0
220
0.0
230
1.0
  2
SOLID
 70
     1
 71
     0
 91
        1
 92
        3
 72
     0
 73
     1
 93
        3
 10
3.5406968858506942
 20
0.4940266927083333
 10
-0.1951646592881944
 20
0.4902370876736111
 10
3.667131890190972
 20
0.4344265407986111
 97
        0
 75
     2
 76
     1
 98
        1
 10
0.0
 20
0.0
  0
HATCH
  5
12B
100
AcDbEntity
  8
EBENE_1
 62
   152
100
AcDbHatch
 10
0.0
 20
0.0
 30
0.0
210
0.0
220
0.0
230
1.0
  2
SOLID
 70
     1
 71
     0
 91
        1
 92
        3
 72
     0
 73
     1
 93
        3
 10
-4.814348687065972
 20
0.601858181423611
 10
-4.7902330186631943
 20
0.3042019314236111
 10
-3.0775037977430553
 20
0.4592312282986111
 97
        0
 75
     2
 76
     1
 98
        1
 10
0.0
 20
0.0
  0
HATCH
  5
12A
100
AcDbEntity
  8
EBENE_1
 62
   152
100
AcDbHatch
 10
0.0
 20
0.0
 30
0.0
210
0.0
220
0.0
230
1.0
  2
SOLID
 70
     1
 71
     0
 91
        1
 92
        3
 72
     0
 73
     1
 93
        3
 10
3.2475192599826386
 20
0.6242513020833332
 10
-0.1951646592881944
 20
0.4902370876736111
 10
3.5406968858506942
 20
0.4940266927083333
 97
        0
 75
     2
 76
     1
 98
        1
 10
0.0
 20
0.0
  0
HATCH
  5
129
100
AcDbEntity
  8
EBENE_1
 62
   152
100
AcDbHatch
 10
0.0
 20
0.0
 30
0.0
210
0.0
220
0.0
230
1.0
  2
SOLID
 70
     1
 71
     0
 91
        1
 92
        3
 72
     0
 73
     1
 93
        3
 10
-3.6087375217013884
 20
0.7338053385416666
 10
-4.814348687065972
 20
0.601858181423611
 10
-3.0775037977430553
 20
0.4592312282986111
 97
        0
 75
     2
 76
     1
 98
        1
 10
0.0
 20
0.0
  0
HATCH
  5
128
100
AcDbEntity
  8
EBENE_1
 62
   152
100
AcDbHatch
 10
0.0
 20
0.0
 30
0.0
210
0.0
220
0.0
230
1.0
  2
SOLID
 70
     1
 71
     0
 91
        1
 92
        3
 72
     0
 73
     1
 93
        3
 10
0.2766411675347222
 20
0.7486192491319443
 10
-0.1951646592881944
 20
0.4902370876736111
 10
3.2475192599826386
 20
0.6242513020833332
 97
        0
 75
     2
 76
     1
 98
        1
 10
0.0
 20
0.0
  0
HATCH
  5
127
100
AcDbEntity
  8
EBENE_1
 62
   152
100
AcDbHatch
 10
0.0
 20
0.0
 30
0.0
210
0.0
220
0.0
230
1.0
  2
SOLID
 70
     1
 71
     0
 91
        1
 92
        3
 72
     0
 73
     1
 93
        3
 10
2.7111178927951385
 20
0.8271674262152777
 10
0.2766411675347222
 20
0.7486192491319443
 10
3.2475192599826386
 20
0.6242513020833332
 97
        0
 75
     2
 76
     1
 98
        1
 10
0.0
 20
0.0
  0
HATCH
  5
126
100
AcDbEntity
  8
EBENE_1
 62
   152
100
AcDbHatch
 10
0.0
 20
0.0
 30
0.0
210
0.0
220
0.0
230
1.0
  2
SOLID
 70
     1
 71
     0
 91
        1
 92
        3
 72
     0
 73
     1
 93
        3
 10
-4.6796454535590275
 20
0.8691975911458333
 10
-4.814348687065972
 20
0.601858181423611
 10
-3.6087375217013884
 20
0.7338053385416666
 97
        0
 75
     2
 76
     1
 98
        1
 10
0.0
 20
0.0
  0
HATCH
  5
125
100
AcDbEntity
  8
EBENE_1
 62
   152
100
AcDbHatch
 10
0.0
 20
0.0
 30
0.0
210
0.0
220
0.0
230
1.0
  2
SOLID
 70
     1
 71
     0
 91
        1
 92
        3
 72
     0
 73
     1
 93
        3
 10
-3.8986423068576386
 20
0.9029595269097221
 10
-4.6796454535590275
 20
0.8691975911458333
 10
-3.6087375217013884
 20
0.7338053385416666
 97
        0
 75
     2
 76
     1
 98
        1
 10
0.0
 20
0.0
  0
HATCH
  5
124
100
AcDbEntity
  8
EBENE_1
 62
   152
100
AcDbHatch
 10
0.0
 20
0.0
 30
0.0
210
0.0
220
0.0
230
1.0
  2
SOLID
 70
     1
 71
     0
 91
        1
 92
        3
 72
     0
 73
     1
 93
        3
 10
-3.9740898980034718
 20
0.948779296875
 10
-4.6796454535590275
 20
0.8691975911458333
 10
-3.8986423068576386
 20
0.9029595269097221
 97
        0
 75
     2
 76
     1
 98
        1
 10
0.0
 20
0.0
  0
HATCH
  5
123
100
AcDbEntity
  8
EBENE_1
 62
   152
100
AcDbHatch
 10
0.0
 20
0.0
 30
0.0
210
0.0
220
0.0
230
1.0
  2
SOLID
 70
     1
 71
     0
 91
        1
 92
        3
 72
     0
 73
     1
 93
        3
 10
0.8032240125868055
 20
0.9570475260416665
 10
0.2766411675347222
 20
0.7486192491319443
 10
2.7111178927951385
 20
0.8271674262152777
 97
        0
 75
     2
 76
     1
 98
        1
 10
0.0
 20
0.0
  0
HATCH
  5
122
100
AcDbEntity
  8
EBENE_1
 62
   152
100
AcDbHatch
 10
0.0
 20
0.0
 30
0.0
210
0.0
220
0.0
230
1.0
  2
SOLID
 70
     1
 71
     0
 91
        1
 92
        3
 72
     0
 73
     1
 93
        3
 10
2.2348334418402778
 20
0.9601481119791666
 10
0.8032240125868055
 20
0.9570475260416665
 10
2.7111178927951385
 20
0.8271674262152777
 97
        0
 75
     2
 76
     1
 98
        1
 10
0.0
 20
0.0
  0
HATCH
  5
121
100
AcDbEntity
  8
EBENE_1
 62
   152
100
AcDbHatch
 10
0.0
 20
0.0
 30
0.0
210
0.0
220
0.0
230
1.0
  2
SOLID
 70
     1
 71
     0
 91
        1
 92
        3
 72
     0
 73
     1
 93
        3
 10
-4.1130995008680555
 20
1.0200927734374998
 10
-4.6796454535590275
 20
0.8691975911458333
 10
-3.9740898980034718
 20
0.948779296875
 97
        0
 75
     2
 76
     1
 98
        1
 10
0.0
 20
0.0
  0
HATCH
  5
120
100
AcDbEntity
  8
EBENE_1
 62
   152
100
AcDbHatch
 10
0.0
 20
0.0
 30
0.0
210
0.0
220
0.0
230
1.0
  2
SOLID
 70
     1
 71
     0
 91
        1
 92
        3
 72
     0
 73
     1
 93
        3
 10
1.1036363389756942
 20
1.0214708116319444
 10
0.8032240125868055
 20
0.9570475260416665
 10
2.2348334418402778
 20
0.9601481119791666
 97
        0
 75
     2
 76
     1
 98
        1
 10
0.0
 20
0.0
  0
HATCH
  5
11F
100
AcDbEntity
  8
EBENE_1
 62
   152
100
AcDbHatch
 10
0.0
 20
0.0
 30
0.0
210
0.0
220
0.0
230
1.0
  2
SOLID
 70
     1
 71
     0
 91
        1
 92
        3
 72
     0
 73
     1
 93
        3
 10
1.8129814995659721
 20
1.0314615885416665
 10
1.1036363389756942
 20
1.0214708116319444
 10
2.2348334418402778
 20
0.9601481119791666
 97
        0
 75
     2
 76
     1
 98
        1
 10
0.0
 20
0.0
  0
HATCH
  5
11E
100
AcDbEntity
  8
EBENE_1
 62
   152
100
AcDbHatch
 10
0.0
 20
0.0
 30
0.0
210
0.0
220
0.0
230
1.0
  2
SOLID
 70
     1
 71
     0
 91
        1
 92
        3
 72
     0
 73
     1
 93
        3
 10
-4.4309095594618055
 20
1.0324951171874999
 10
-4.6796454535590275
 20
0.8691975911458333
 10
-4.1130995008680555
 20
1.0200927734374998
 97
        0
 75
     2
 76
     1
 98
        1
 10
0.0
 20
0.0
  0
HATCH
  5
11D
100
AcDbEntity
  8
EBENE_1
 62
   152
100
AcDbHatch
 10
0.0
 20
0.0
 30
0.0
210
0.0
220
0.0
230
1.0
  2
SOLID
 70
     1
 71
     0
 91
        1
 92
        3
 72
     0
 73
     1
 93
        3
 10
1.4379828559027776
 20
1.0497205946180554
 10
1.1036363389756942
 20
1.0214708116319444
 10
1.8129814995659721
 20
1.0314615885416665
 97
        0
 75
     2
 76
     1
 98
        1
 10
0.0
 20
0.0
  0
HATCH
  5
11C
100
AcDbEntity
  8
EBENE_1
 62
   152
100
AcDbHatch
 10
0.0
 20
0.0
 30
0.0
210
0.0
220
0.0
230
1.0
  2
SOLID
 70
     1
 71
     0
 91
        1
 92
        3
 72
     0
 73
     1
 93
        3
 10
-4.2779473198784714
 20
1.0524766710069444
 10
-4.4309095594618055
 20
1.0324951171874999
 10
-4.1130995008680555
 20
1.0200927734374998
 97
        0
 75
     2
 76
     1
 98
        1
 10
0.0
 20
0.0
  0
ENDBLK
  5
15C
100
AcDbEntity
  8
EBENE_1
100
AcDbBlockEnd
  0
BLOCK
  5
15F
100
AcDbEntity
  8
EBENE_1
 62
     7
100
AcDbBlockBegin
  2
AI9-BLK5
 70
     0
 10
0.0
 20
0.0
 30
0.0
  3
AI9-BLK5
  1

  0
HATCH
  5
19F
100
AcDbEntity
  8
EBENE_1
 62
   152
100
AcDbHatch
 10
0.0
 20
0.0
 30
0.0
210
0.0
220
0.0
230
1.0
  2
SOLID
 70
     1
 71
     0
 91
        1
 92
        3
 72
     0
 73
     1
 93
        3
 10
-1.1060479058159722
 20
-1.0221598307291666
 10
-1.8147040473090277
 20
-1.0314615885416665
 10
-1.4403944227430554
 20
-1.0497205946180554
 97
        0
 75
     2
 76
     1
 98
        1
 10
0.0
 20
0.0
  0
HATCH
  5
19E
100
AcDbEntity
  8
EBENE_1
 62
   152
100
AcDbHatch
 10
0.0
 20
0.0
 30
0.0
210
0.0
220
0.0
230
1.0
  2
SOLID
 70
     1
 71
     0
 91
        1
 92
        3
 72
     0
 73
     1
 93
        3
 10
4.1132717556423604
 20
-1.0200927734374998
 10
4.2781195746527771
 20
-1.0524766710069444
 10
4.4314263237847218
 20
-1.0324951171874999
 97
        0
 75
     2
 76
     1
 98
        1
 10
0.0
 20
0.0
  0
HATCH
  5
19D
100
AcDbEntity
  8
EBENE_1
 62
   152
100
AcDbHatch
 10
0.0
 20
0.0
 30
0.0
210
0.0
220
0.0
230
1.0
  2
SOLID
 70
     1
 71
     0
 91
        1
 92
        3
 72
     0
 73
     1
 93
        3
 10
-2.2363837348090274
 20
-0.9601481119791666
 10
-1.8147040473090277
 20
-1.0314615885416665
 10
-1.1060479058159722
 20
-1.0221598307291666
 97
        0
 75
     2
 76
     1
 98
        1
 10
0.0
 20
0.0
  0
HATCH
  5
19C
100
AcDbEntity
  8
EBENE_1
 62
   152
100
AcDbHatch
 10
0.0
 20
0.0
 30
0.0
210
0.0
220
0.0
230
1.0
  2
SOLID
 70
     1
 71
     0
 91
        1
 92
        3
 72
     0
 73
     1
 93
        3
 10
-0.8054633246527777
 20
-0.9580810546874999
 10
-2.2363837348090274
 20
-0.9601481119791666
 10
-1.1060479058159722
 20
-1.0221598307291666
 97
        0
 75
     2
 76
     1
 98
        1
 10
0.0
 20
0.0
  0
HATCH
  5
19B
100
AcDbEntity
  8
EBENE_1
 62
   152
100
AcDbHatch
 10
0.0
 20
0.0
 30
0.0
210
0.0
220
0.0
230
1.0
  2
SOLID
 70
     1
 71
     0
 91
        1
 92
        3
 72
     0
 73
     1
 93
        3
 10
3.9742621527777775
 20
-0.948779296875
 10
4.1132717556423604
 20
-1.0200927734374998
 10
4.4314263237847218
 20
-1.0324951171874999
 97
        0
 75
     2
 76
     1
 98
        1
 10
0.0
 20
0.0
  0
HATCH
  5
19A
100
AcDbEntity
  8
EBENE_1
 62
   152
100
AcDbHatch
 10
0.0
 20
0.0
 30
0.0
210
0.0
220
0.0
230
1.0
  2
SOLID
 70
     1
 71
     0
 91
        1
 92
        3
 72
     0
 73
     1
 93
        3
 10
3.8991590711805553
 20
-0.9033040364583332
 10
3.9742621527777775
 20
-0.948779296875
 10
4.4314263237847218
 20
-1.0324951171874999
 97
        0
 75
     2
 76
     1
 98
        1
 10
0.0
 20
0.0
  0
HATCH
  5
199
100
AcDbEntity
  8
EBENE_1
 62
   152
100
AcDbHatch
 10
0.0
 20
0.0
 30
0.0
210
0.0
220
0.0
230
1.0
  2
SOLID
 70
     1
 71
     0
 91
        1
 92
        3
 72
     0
 73
     1
 93
        3
 10
4.679989963107638
 20
-0.868508572048611
 10
3.8991590711805553
 20
-0.9033040364583332
 10
4.4314263237847218
 20
-1.0324951171874999
 97
        0
 75
     2
 76
     1
 98
        1
 10
0.0
 20
0.0
  0
HATCH
  5
198
100
AcDbEntity
  8
EBENE_1
 62
   152
100
AcDbHatch
 10
0.0
 20
0.0
 30
0.0
210
0.0
220
0.0
230
1.0
  2
SOLID
 70
     1
 71
     0
 91
        1
 92
        3
 72
     0
 73
     1
 93
        3
 10
-2.7121514214409719
 20
-0.8271674262152777
 10
-2.2363837348090274
 20
-0.9601481119791666
 10
-0.8054633246527777
 20
-0.9580810546874999
 97
        0
 75
     2
 76
     1
 98
        1
 10
0.0
 20
0.0
  0
HATCH
  5
197
100
AcDbEntity
  8
EBENE_1
 62
   152
100
AcDbHatch
 10
0.0
 20
0.0
 30
0.0
210
0.0
220
0.0
230
1.0
  2
SOLID
 70
     1
 71
     0
 91
        1
 92
        3
 72
     0
 73
     1
 93
        3
 10
-0.2788804796006944
 20
-0.7503417968749999
 10
-2.7121514214409719
 20
-0.8271674262152777
 10
-0.8054633246527777
 20
-0.9580810546874999
 97
        0
 75
     2
 76
     1
 98
        1
 10
0.0
 20
0.0
  0
HATCH
  5
196
100
AcDbEntity
  8
EBENE_1
 62
   152
100
AcDbHatch
 10
0.0
 20
0.0
 30
0.0
210
0.0
220
0.0
230
1.0
  2
SOLID
 70
     1
 71
     0
 91
        1
 92
        3
 72
     0
 73
     1
 93
        3
 10
3.6089097764756941
 20
-0.7348388671874999
 10
3.8991590711805553
 20
-0.9033040364583332
 10
4.679989963107638
 20
-0.868508572048611
 97
        0
 75
     2
 76
     1
 98
        1
 10
0.0
 20
0.0
  0
HATCH
  5
195
100
AcDbEntity
  8
EBENE_1
 62
   152
100
AcDbHatch
 10
0.0
 20
0.0
 30
0.0
210
0.0
220
0.0
230
1.0
  2
SOLID
 70
     1
 71
     0
 91
        1
 92
        3
 72
     0
 73
     1
 93
        3
 10
-3.2480360243055553
 20
-0.6242513020833332
 10
-2.7121514214409719
 20
-0.8271674262152777
 10
-0.2788804796006944
 20
-0.7503417968749999
 97
        0
 75
     2
 76
     1
 98
        1
 10
0.0
 20
0.0
  0
HATCH
  5
194
100
AcDbEntity
  8
EBENE_1
 62
   152
100
AcDbHatch
 10
0.0
 20
0.0
 30
0.0
210
0.0
220
0.0
230
1.0
  2
SOLID
 70
     1
 71
     0
 91
        1
 92
        3
 72
     0
 73
     1
 93
        3
 10
4.814348687065972
 20
-0.601858181423611
 10
3.6089097764756941
 20
-0.7348388671874999
 10
4.679989963107638
 20
-0.868508572048611
 97
        0
 75
     2
 76
     1
 98
        1
 10
0.0
 20
0.0
  0
HATCH
  5
193
100
AcDbEntity
  8
EBENE_1
 62
   152
100
AcDbHatch
 10
0.0
 20
0.0
 30
0.0
210
0.0
220
0.0
230
1.0
  2
SOLID
 70
     1
 71
     0
 91
        1
 92
        3
 72
     0
 73
     1
 93
        3
 10
-3.5406968858506942
 20
-0.4943712022569444
 10
-3.2480360243055553
 20
-0.6242513020833332
 10
-0.2788804796006944
 20
-0.7503417968749999
 97
        0
 75
     2
 76
     1
 98
        1
 10
0.0
 20
0.0
  0
HATCH
  5
192
100
AcDbEntity
  8
EBENE_1
 62
   152
100
AcDbHatch
 10
0.0
 20
0.0
 30
0.0
210
0.0
220
0.0
230
1.0
  2
SOLID
 70
     1
 71
     0
 91
        1
 92
        3
 72
     0
 73
     1
 93
        3
 10
0.1930976019965278
 20
-0.4923041449652778
 10
-3.5406968858506942
 20
-0.4943712022569444
 10
-0.2788804796006944
 20
-0.7503417968749999
 97
        0
 75
     2
 76
     1
 98
        1
 10
0.0
 20
0.0
  0
HATCH
  5
191
100
AcDbEntity
  8
EBENE_1
 62
   152
100
AcDbHatch
 10
0.0
 20
0.0
 30
0.0
210
0.0
220
0.0
230
1.0
  2
SOLID
 70
     1
 71
     0
 91
        1
 92
        3
 72
     0
 73
     1
 93
        3
 10
3.077676052517361
 20
-0.4609537760416667
 10
3.6089097764756941
 20
-0.7348388671874999
 10
4.814348687065972
 20
-0.601858181423611
 97
        0
 75
     2
 76
     1
 98
        1
 10
0.0
 20
0.0
  0
HATCH
  5
190
100
AcDbEntity
  8
EBENE_1
 62
   152
100
AcDbHatch
 10
0.0
 20
0.0
 30
0.0
210
0.0
220
0.0
230
1.0
  2
SOLID
 70
     1
 71
     0
 91
        1
 92
        3
 72
     0
 73
     1
 93
        3
 10
-3.667131890190972
 20
-0.4344265407986111
 10
-3.5406968858506942
 20
-0.4943712022569444
 10
0.1930976019965278
 20
-0.4923041449652778
 97
        0
 75
     2
 76
     1
 98
        1
 10
0.0
 20
0.0
  0
HATCH
  5
18F
100
AcDbEntity
  8
EBENE_1
 62
   152
100
AcDbHatch
 10
0.0
 20
0.0
 30
0.0
210
0.0
220
0.0
230
1.0
  2
SOLID
 70
     1
 71
     0
 91
        1
 92
        3
 72
     0
 73
     1
 93
        3
 10
-3.7399956597222217
 20
-0.3989420572916667
 10
-3.667131890190972
 20
-0.4344265407986111
 10
0.1930976019965278
 20
-0.4923041449652778
 97
        0
 75
     2
 76
     1
 98
        1
 10
0.0
 20
0.0
  0
HATCH
  5
18E
100
AcDbEntity
  8
EBENE_1
 62
   152
100
AcDbHatch
 10
0.0
 20
0.0
 30
0.0
210
0.0
220
0.0
230
1.0
  2
SOLID
 70
     1
 71
     0
 91
        1
 92
        3
 72
     0
 73
     1
 93
        3
 10
4.7902330186631943
 20
-0.303857421875
 10
3.077676052517361
 20
-0.4609537760416667
 10
4.814348687065972
 20
-0.601858181423611
 97
        0
 75
     2
 76
     1
 98
        1
 10
0.0
 20
0.0
  0
HATCH
  5
18D
100
AcDbEntity
  8
EBENE_1
 62
   152
100
AcDbHatch
 10
0.0
 20
0.0
 30
0.0
210
0.0
220
0.0
230
1.0
  2
SOLID
 70
     1
 71
     0
 91
        1
 92
        3
 72
     0
 73
     1
 93
        3
 10
2.6063869900173611
 20
-0.2642388237847222
 10
3.077676052517361
 20
-0.4609537760416667
 10
4.7902330186631943
 20
-0.303857421875
 97
        0
 75
     2
 76
     1
 98
        1
 10
0.0
 20
0.0
  0
HATCH
  5
18C
100
AcDbEntity
  8
EBENE_1
 62
   152
100
AcDbHatch
 10
0.0
 20
0.0
 30
0.0
210
0.0
220
0.0
230
1.0
  2
SOLID
 70
     1
 71
     0
 91
        1
 92
        3
 72
     0
 73
     1
 93
        3
 10
-4.0099188910590273
 20
-0.2621717664930555
 10
-3.7399956597222217
 20
-0.3989420572916667
 10
0.1930976019965278
 20
-0.4923041449652778
 97
        0
 75
     2
 76
     1
 98
        1
 10
0.0
 20
0.0
  0
HATCH
  5
18B
100
AcDbEntity
  8
EBENE_1
 62
   152
100
AcDbHatch
 10
0.0
 20
0.0
 30
0.0
210
0.0
220
0.0
230
1.0
  2
SOLID
 70
     1
 71
     0
 91
        1
 92
        3
 72
     0
 73
     1
 93
        3
 10
0.6642144097222221
 20
-0.2497694227430555
 10
-4.0099188910590273
 20
-0.2621717664930555
 10
0.1930976019965278
 20
-0.4923041449652778
 97
        0
 75
     2
 76
     1
 98
        1
 10
0.0
 20
0.0
  0
HATCH
  5
18A
100
AcDbEntity
  8
EBENE_1
 62
   152
100
AcDbHatch
 10
0.0
 20
0.0
 30
0.0
210
0.0
220
0.0
230
1.0
  2
SOLID
 70
     1
 71
     0
 91
        1
 92
        3
 72
     0
 73
     1
 93
        3
 10
4.7049669053819443
 20
-0.1663981119791667
 10
2.6063869900173611
 20
-0.2642388237847222
 10
4.7902330186631943
 20
-0.303857421875
 97
        0
 75
     2
 76
     1
 98
        1
 10
0.0
 20
0.0
  0
HATCH
  5
189
100
AcDbEntity
  8
EBENE_1
 62
   152
100
AcDbHatch
 10
0.0
 20
0.0
 30
0.0
210
0.0
220
0.0
230
1.0
  2
SOLID
 70
     1
 71
     0
 91
        1
 92
        3
 72
     0
 73
     1
 93
        3
 10
-4.2371229383680555
 20
-0.1402153862847222
 10
-4.0099188910590273
 20
-0.2621717664930555
 10
0.6642144097222221
 20
-0.2497694227430555
 97
        0
 75
     2
 76
     1
 98
        1
 10
0.0
 20
0.0
  0
HATCH
  5
188
100
AcDbEntity
  8
EBENE_1
 62
   152
100
AcDbHatch
 10
0.0
 20
0.0
 30
0.0
210
0.0
220
0.0
230
1.0
  2
SOLID
 70
     1
 71
     0
 91
        1
 92
        3
 72
     0
 73
     1
 93
        3
 10
2.1886691623263888
 20
-0.1367702907986111
 10
2.6063869900173611
 20
-0.2642388237847222
 10
4.7049669053819443
 20
-0.1663981119791667
 97
        0
 75
     2
 76
     1
 98
        1
 10
0.0
 20
0.0
  0
HATCH
  5
187
100
AcDbEntity
  8
EBENE_1
 62
   152
100
AcDbHatch
 10
0.0
 20
0.0
 30
0.0
210
0.0
220
0.0
230
1.0
  2
SOLID
 70
     1
 71
     0
 91
        1
 92
        3
 72
     0
 73
     1
 93
        3
 10
1.1876966688368054
 20
-0.08681640625
 10
-4.2371229383680555
 20
-0.1402153862847222
 10
0.6642144097222221
 20
-0.2497694227430555
 97
        0
 75
     2
 76
     1
 98
        1
 10
0.0
 20
0.0
  0
HATCH
  5
186
100
AcDbEntity
  8
EBENE_1
 62
   152
100
AcDbHatch
 10
0.0
 20
0.0
 30
0.0
210
0.0
220
0.0
230
1.0
  2
SOLID
 70
     1
 71
     0
 91
        1
 92
        3
 72
     0
 73
     1
 93
        3
 10
1.8172878689236109
 20
-0.0702799479166667
 10
2.1886691623263888
 20
-0.1367702907986111
 10
4.7049669053819443
 20
-0.1663981119791667
 97
        0
 75
     2
 76
     1
 98
        1
 10
0.0
 20
0.0
  0
HATCH
  5
185
100
AcDbEntity
  8
EBENE_1
 62
   152
100
AcDbHatch
 10
0.0
 20
0.0
 30
0.0
210
0.0
220
0.0
230
1.0
  2
SOLID
 70
     1
 71
     0
 91
        1
 92
        3
 72
     0
 73
     1
 93
        3
 10
1.485869683159722
 20
-0.0561550564236111
 10
-4.2371229383680555
 20
-0.1402153862847222
 10
1.1876966688368054
 20
-0.08681640625
 97
        0
 75
     2
 76
     1
 98
        1
 10
0.0
 20
0.0
  0
HATCH
  5
184
100
AcDbEntity
  8
EBENE_1
 62
   152
100
AcDbHatch
 10
0.0
 20
0.0
 30
0.0
210
0.0
220
0.0
230
1.0
  2
SOLID
 70
     1
 71
     0
 91
        1
 92
        3
 72
     0
 73
     1
 93
        3
 10
1.485869683159722
 20
-0.0561550564236111
 10
1.8172878689236109
 20
-0.0702799479166667
 10
4.7049669053819443
 20
-0.1663981119791667
 97
        0
 75
     2
 76
     1
 98
        1
 10
0.0
 20
0.0
  0
HATCH
  5
183
100
AcDbEntity
  8
EBENE_1
 62
   152
100
AcDbHatch
 10
0.0
 20
0.0
 30
0.0
210
0.0
220
0.0
230
1.0
  2
SOLID
 70
     1
 71
     0
 91
        1
 92
        3
 72
     0
 73
     1
 93
        3
 10
4.5632012261284718
 20
-0.0478868272569444
 10
1.485869683159722
 20
-0.0561550564236111
 10
4.7049669053819443
 20
-0.1663981119791667
 97
        0
 75
     2
 76
     1
 98
        1
 10
0.0
 20
0.0
  0
HATCH
  5
182
100
AcDbEntity
  8
EBENE_1
 62
   152
100
AcDbHatch
 10
0.0
 20
0.0
 30
0.0
210
0.0
220
0.0
230
1.0
  2
SOLID
 70
     1
 71
     0
 91
        1
 92
        3
 72
     0
 73
     1
 93
        3
 10
-4.4117892795138882
 20
-0.0413411458333333
 10
1.485869683159722
 20
-0.0561550564236111
 10
4.5632012261284718
 20
-0.0478868272569444
 97
        0
 75
     2
 76
     1
 98
        1
 10
0.0
 20
0.0
  0
HATCH
  5
181
100
AcDbEntity
  8
EBENE_1
 62
   152
100
AcDbHatch
 10
0.0
 20
0.0
 30
0.0
210
0.0
220
0.0
230
1.0
  2
SOLID
 70
     1
 71
     0
 91
        1
 92
        3
 72
     0
 73
     1
 93
        3
 10
-4.4117892795138882
 20
-0.0413411458333333
 10
-4.2371229383680555
 20
-0.1402153862847222
 10
1.485869683159722
 20
-0.0561550564236111
 97
        0
 75
     2
 76
     1
 98
        1
 10
0.0
 20
0.0
  0
HATCH
  5
180
100
AcDbEntity
  8
EBENE_1
 62
   152
100
AcDbHatch
 10
0.0
 20
0.0
 30
0.0
210
0.0
220
0.0
230
1.0
  2
SOLID
 70
     1
 71
     0
 91
        1
 92
        3
 72
     0
 73
     1
 93
        3
 10
4.4117892795138882
 20
0.0416856553819444
 10
-4.4117892795138882
 20
-0.0413411458333333
 10
4.5632012261284718
 20
-0.0478868272569444
 97
        0
 75
     2
 76
     1
 98
        1
 10
0.0
 20
0.0
  0
HATCH
  5
17F
100
AcDbEntity
  8
EBENE_1
 62
   152
100
AcDbHatch
 10
0.0
 20
0.0
 30
0.0
210
0.0
220
0.0
230
1.0
  2
SOLID
 70
     1
 71
     0
 91
        1
 92
        3
 72
     0
 73
     1
 93
        3
 10
-4.5632012261284718
 20
0.0478868272569444
 10
-4.4117892795138882
 20
-0.0413411458333333
 10
4.4117892795138882
 20
0.0416856553819444
 97
        0
 75
     2
 76
     1
 98
        1
 10
0.0
 20
0.0
  0
HATCH
  5
17E
100
AcDbEntity
  8
EBENE_1
 62
   152
100
AcDbHatch
 10
0.0
 20
0.0
 30
0.0
210
0.0
220
0.0
230
1.0
  2
SOLID
 70
     1
 71
     0
 91
        1
 92
        3
 72
     0
 73
     1
 93
        3
 10
-1.4869032118055554
 20
0.0537434895833333
 10
-4.5632012261284718
 20
0.0478868272569444
 10
4.4117892795138882
 20
0.0416856553819444
 97
        0
 75
     2
 76
     1
 98
        1
 10
0.0
 20
0.0
  0
HATCH
  5
17D
100
AcDbEntity
  8
EBENE_1
 62
   152
100
AcDbHatch
 10
0.0
 20
0.0
 30
0.0
210
0.0
220
0.0
230
1.0
  2
SOLID
 70
     1
 71
     0
 91
        1
 92
        3
 72
     0
 73
     1
 93
        3
 10
-1.8178046332465276
 20
0.0678683810763889
 10
-4.5632012261284718
 20
0.0478868272569444
 10
-1.4869032118055554
 20
0.0537434895833333
 97
        0
 75
     2
 76
     1
 98
        1
 10
0.0
 20
0.0
  0
HATCH
  5
17C
100
AcDbEntity
  8
EBENE_1
 62
   152
100
AcDbHatch
 10
0.0
 20
0.0
 30
0.0
210
0.0
220
0.0
230
1.0
  2
SOLID
 70
     1
 71
     0
 91
        1
 92
        3
 72
     0
 73
     1
 93
        3
 10
-1.1889024522569442
 20
0.0844048394097222
 10
-1.4869032118055554
 20
0.0537434895833333
 10
4.4117892795138882
 20
0.0416856553819444
 97
        0
 75
     2
 76
     1
 98
        1
 10
0.0
 20
0.0
  0
HATCH
  5
17B
100
AcDbEntity
  8
EBENE_1
 62
   152
100
AcDbHatch
 10
0.0
 20
0.0
 30
0.0
210
0.0
220
0.0
230
1.0
  2
SOLID
 70
     1
 71
     0
 91
        1
 92
        3
 72
     0
 73
     1
 93
        3
 10
-2.1888414171006945
 20
0.1343587239583333
 10
-4.5632012261284718
 20
0.0478868272569444
 10
-1.8178046332465276
 20
0.0678683810763889
 97
        0
 75
     2
 76
     1
 98
        1
 10
0.0
 20
0.0
  0
HATCH
  5
17A
100
AcDbEntity
  8
EBENE_1
 62
   152
100
AcDbHatch
 10
0.0
 20
0.0
 30
0.0
210
0.0
220
0.0
230
1.0
  2
SOLID
 70
     1
 71
     0
 91
        1
 92
        3
 72
     0
 73
     1
 93
        3
 10
4.2371229383680555
 20
0.1402153862847222
 10
-1.1889024522569442
 20
0.0844048394097222
 10
4.4117892795138882
 20
0.0416856553819444
 97
        0
 75
     2
 76
     1
 98
        1
 10
0.0
 20
0.0
  0
HATCH
  5
179
100
AcDbEntity
  8
EBENE_1
 62
   152
100
AcDbHatch
 10
0.0
 20
0.0
 30
0.0
210
0.0
220
0.0
230
1.0
  2
SOLID
 70
     1
 71
     0
 91
        1
 92
        3
 72
     0
 73
     1
 93
        3
 10
-4.7049669053819443
 20
0.1663981119791667
 10
-4.5632012261284718
 20
0.0478868272569444
 10
-2.1888414171006945
 20
0.1343587239583333
 97
        0
 75
     2
 76
     1
 98
        1
 10
0.0
 20
0.0
  0
HATCH
  5
178
100
AcDbEntity
  8
EBENE_1
 62
   152
100
AcDbHatch
 10
0.0
 20
0.0
 30
0.0
210
0.0
220
0.0
230
1.0
  2
SOLID
 70
     1
 71
     0
 91
        1
 92
        3
 72
     0
 73
     1
 93
        3
 10
-0.6657647026909722
 20
0.2470133463541666
 10
-1.1889024522569442
 20
0.0844048394097222
 10
4.2371229383680555
 20
0.1402153862847222
 97
        0
 75
     2
 76
     1
 98
        1
 10
0.0
 20
0.0
  0
HATCH
  5
177
100
AcDbEntity
  8
EBENE_1
 62
   152
100
AcDbHatch
 10
0.0
 20
0.0
 30
0.0
210
0.0
220
0.0
230
1.0
  2
SOLID
 70
     1
 71
     0
 91
        1
 92
        3
 72
     0
 73
     1
 93
        3
 10
4.0099188910590273
 20
0.2621717664930555
 10
-0.6657647026909722
 20
0.2470133463541666
 10
4.2371229383680555
 20
0.1402153862847222
 97
        0
 75
     2
 76
     1
 98
        1
 10
0.0
 20
0.0
  0
HATCH
  5
176
100
AcDbEntity
  8
EBENE_1
 62
   152
100
AcDbHatch
 10
0.0
 20
0.0
 30
0.0
210
0.0
220
0.0
230
1.0
  2
SOLID
 70
     1
 71
     0
 91
        1
 92
        3
 72
     0
 73
     1
 93
        3
 10
-2.6067314995659721
 20
0.2625162760416667
 10
-4.7049669053819443
 20
0.1663981119791667
 10
-2.1888414171006945
 20
0.1343587239583333
 97
        0
 75
     2
 76
     1
 98
        1
 10
0.0
 20
0.0
  0
HATCH
  5
175
100
AcDbEntity
  8
EBENE_1
 62
   152
100
AcDbHatch
 10
0.0
 20
0.0
 30
0.0
210
0.0
220
0.0
230
1.0
  2
SOLID
 70
     1
 71
     0
 91
        1
 92
        3
 72
     0
 73
     1
 93
        3
 10
-4.7902330186631943
 20
0.3042019314236111
 10
-4.7049669053819443
 20
0.1663981119791667
 10
-2.6067314995659721
 20
0.2625162760416667
 97
        0
 75
     2
 76
     1
 98
        1
 10
0.0
 20
0.0
  0
HATCH
  5
174
100
AcDbEntity
  8
EBENE_1
 62
   152
100
AcDbHatch
 10
0.0
 20
0.0
 30
0.0
210
0.0
220
0.0
230
1.0
  2
SOLID
 70
     1
 71
     0
 91
        1
 92
        3
 72
     0
 73
     1
 93
        3
 10
3.7399956597222217
 20
0.3989420572916667
 10
-0.6657647026909722
 20
0.2470133463541666
 10
4.0099188910590273
 20
0.2621717664930555
 97
        0
 75
     2
 76
     1
 98
        1
 10
0.0
 20
0.0
  0
HATCH
  5
173
100
AcDbEntity
  8
EBENE_1
 62
   152
100
AcDbHatch
 10
0.0
 20
0.0
 30
0.0
210
0.0
220
0.0
230
1.0
  2
SOLID
 70
     1
 71
     0
 91
        1
 92
        3
 72
     0
 73
     1
 93
        3
 10
3.667131890190972
 20
0.4344265407986111
 10
-0.6657647026909722
 20
0.2470133463541666
 10
3.7399956597222217
 20
0.3989420572916667
 97
        0
 75
     2
 76
     1
 98
        1
 10
0.0
 20
0.0
  0
HATCH
  5
172
100
AcDbEntity
  8
EBENE_1
 62
   152
100
AcDbHatch
 10
0.0
 20
0.0
 30
0.0
210
0.0
220
0.0
230
1.0
  2
SOLID
 70
     1
 71
     0
 91
        1
 92
        3
 72
     0
 73
     1
 93
        3
 10
-3.0775037977430553
 20
0.4592312282986111
 10
-4.7902330186631943
 20
0.3042019314236111
 10
-2.6067314995659721
 20
0.2625162760416667
 97
        0
 75
     2
 76
     1
 98
        1
 10
0.0
 20
0.0
  0
HATCH
  5
171
100
AcDbEntity
  8
EBENE_1
 62
   152
100
AcDbHatch
 10
0.0
 20
0.0
 30
0.0
210
0.0
220
0.0
230
1.0
  2
SOLID
 70
     1
 71
     0
 91
        1
 92
        3
 72
     0
 73
     1
 93
        3
 10
-0.1951646592881944
 20
0.4902370876736111
 10
-0.6657647026909722
 20
0.2470133463541666
 10
3.667131890190972
 20
0.4344265407986111
 97
        0
 75
     2
 76
     1
 98
        1
 10
0.0
 20
0.0
  0
HATCH
  5
170
100
AcDbEntity
  8
EBENE_1
 62
   152
100
AcDbHatch
 10
0.0
 20
0.0
 30
0.0
210
0.0
220
0.0
230
1.0
  2
SOLID
 70
     1
 71
     0
 91
        1
 92
        3
 72
     0
 73
     1
 93
        3
 10
3.5406968858506942
 20
0.4940266927083333
 10
-0.1951646592881944
 20
0.4902370876736111
 10
3.667131890190972
 20
0.4344265407986111
 97
        0
 75
     2
 76
     1
 98
        1
 10
0.0
 20
0.0
  0
HATCH
  5
16F
100
AcDbEntity
  8
EBENE_1
 62
   152
100
AcDbHatch
 10
0.0
 20
0.0
 30
0.0
210
0.0
220
0.0
230
1.0
  2
SOLID
 70
     1
 71
     0
 91
        1
 92
        3
 72
     0
 73
     1
 93
        3
 10
-4.814348687065972
 20
0.601858181423611
 10
-4.7902330186631943
 20
0.3042019314236111
 10
-3.0775037977430553
 20
0.4592312282986111
 97
        0
 75
     2
 76
     1
 98
        1
 10
0.0
 20
0.0
  0
HATCH
  5
16E
100
AcDbEntity
  8
EBENE_1
 62
   152
100
AcDbHatch
 10
0.0
 20
0.0
 30
0.0
210
0.0
220
0.0
230
1.0
  2
SOLID
 70
     1
 71
     0
 91
        1
 92
        3
 72
     0
 73
     1
 93
        3
 10
3.2475192599826386
 20
0.6242513020833332
 10
-0.1951646592881944
 20
0.4902370876736111
 10
3.5406968858506942
 20
0.4940266927083333
 97
        0
 75
     2
 76
     1
 98
        1
 10
0.0
 20
0.0
  0
HATCH
  5
16D
100
AcDbEntity
  8
EBENE_1
 62
   152
100
AcDbHatch
 10
0.0
 20
0.0
 30
0.0
210
0.0
220
0.0
230
1.0
  2
SOLID
 70
     1
 71
     0
 91
        1
 92
        3
 72
     0
 73
     1
 93
        3
 10
-3.6087375217013884
 20
0.7338053385416666
 10
-4.814348687065972
 20
0.601858181423611
 10
-3.0775037977430553
 20
0.4592312282986111
 97
        0
 75
     2
 76
     1
 98
        1
 10
0.0
 20
0.0
  0
HATCH
  5
16C
100
AcDbEntity
  8
EBENE_1
 62
   152
100
AcDbHatch
 10
0.0
 20
0.0
 30
0.0
210
0.0
220
0.0
230
1.0
  2
SOLID
 70
     1
 71
     0
 91
        1
 92
        3
 72
     0
 73
     1
 93
        3
 10
0.2766411675347222
 20
0.7486192491319443
 10
-0.1951646592881944
 20
0.4902370876736111
 10
3.2475192599826386
 20
0.6242513020833332
 97
        0
 75
     2
 76
     1
 98
        1
 10
0.0
 20
0.0
  0
HATCH
  5
16B
100
AcDbEntity
  8
EBENE_1
 62
   152
100
AcDbHatch
 10
0.0
 20
0.0
 30
0.0
210
0.0
220
0.0
230
1.0
  2
SOLID
 70
     1
 71
     0
 91
        1
 92
        3
 72
     0
 73
     1
 93
        3
 10
2.7111178927951385
 20
0.8271674262152777
 10
0.2766411675347222
 20
0.7486192491319443
 10
3.2475192599826386
 20
0.6242513020833332
 97
        0
 75
     2
 76
     1
 98
        1
 10
0.0
 20
0.0
  0
HATCH
  5
16A
100
AcDbEntity
  8
EBENE_1
 62
   152
100
AcDbHatch
 10
0.0
 20
0.0
 30
0.0
210
0.0
220
0.0
230
1.0
  2
SOLID
 70
     1
 71
     0
 91
        1
 92
        3
 72
     0
 73
     1
 93
        3
 10
-4.6796454535590275
 20
0.8691975911458333
 10
-4.814348687065972
 20
0.601858181423611
 10
-3.6087375217013884
 20
0.7338053385416666
 97
        0
 75
     2
 76
     1
 98
        1
 10
0.0
 20
0.0
  0
HATCH
  5
169
100
AcDbEntity
  8
EBENE_1
 62
   152
100
AcDbHatch
 10
0.0
 20
0.0
 30
0.0
210
0.0
220
0.0
230
1.0
  2
SOLID
 70
     1
 71
     0
 91
        1
 92
        3
 72
     0
 73
     1
 93
        3
 10
-3.8986423068576386
 20
0.9029595269097221
 10
-4.6796454535590275
 20
0.8691975911458333
 10
-3.6087375217013884
 20
0.7338053385416666
 97
        0
 75
     2
 76
     1
 98
        1
 10
0.0
 20
0.0
  0
HATCH
  5
168
100
AcDbEntity
  8
EBENE_1
 62
   152
100
AcDbHatch
 10
0.0
 20
0.0
 30
0.0
210
0.0
220
0.0
230
1.0
  2
SOLID
 70
     1
 71
     0
 91
        1
 92
        3
 72
     0
 73
     1
 93
        3
 10
-3.9740898980034718
 20
0.948779296875
 10
-4.6796454535590275
 20
0.8691975911458333
 10
-3.8986423068576386
 20
0.9029595269097221
 97
        0
 75
     2
 76
     1
 98
        1
 10
0.0
 20
0.0
  0
HATCH
  5
167
100
AcDbEntity
  8
EBENE_1
 62
   152
100
AcDbHatch
 10
0.0
 20
0.0
 30
0.0
210
0.0
220
0.0
230
1.0
  2
SOLID
 70
     1
 71
     0
 91
        1
 92
        3
 72
     0
 73
     1
 93
        3
 10
0.8032240125868055
 20
0.9570475260416665
 10
0.2766411675347222
 20
0.7486192491319443
 10
2.7111178927951385
 20
0.8271674262152777
 97
        0
 75
     2
 76
     1
 98
        1
 10
0.0
 20
0.0
  0
HATCH
  5
166
100
AcDbEntity
  8
EBENE_1
 62
   152
100
AcDbHatch
 10
0.0
 20
0.0
 30
0.0
210
0.0
220
0.0
230
1.0
  2
SOLID
 70
     1
 71
     0
 91
        1
 92
        3
 72
     0
 73
     1
 93
        3
 10
2.2348334418402778
 20
0.9601481119791666
 10
0.8032240125868055
 20
0.9570475260416665
 10
2.7111178927951385
 20
0.8271674262152777
 97
        0
 75
     2
 76
     1
 98
        1
 10
0.0
 20
0.0
  0
HATCH
  5
165
100
AcDbEntity
  8
EBENE_1
 62
   152
100
AcDbHatch
 10
0.0
 20
0.0
 30
0.0
210
0.0
220
0.0
230
1.0
  2
SOLID
 70
     1
 71
     0
 91
        1
 92
        3
 72
     0
 73
     1
 93
        3
 10
-4.1130995008680555
 20
1.0200927734374998
 10
-4.6796454535590275
 20
0.8691975911458333
 10
-3.9740898980034718
 20
0.948779296875
 97
        0
 75
     2
 76
     1
 98
        1
 10
0.0
 20
0.0
  0
HATCH
  5
164
100
AcDbEntity
  8
EBENE_1
 62
   152
100
AcDbHatch
 10
0.0
 20
0.0
 30
0.0
210
0.0
220
0.0
230
1.0
  2
SOLID
 70
     1
 71
     0
 91
        1
 92
        3
 72
     0
 73
     1
 93
        3
 10
1.1036363389756942
 20
1.0214708116319444
 10
0.8032240125868055
 20
0.9570475260416665
 10
2.2348334418402778
 20
0.9601481119791666
 97
        0
 75
     2
 76
     1
 98
        1
 10
0.0
 20
0.0
  0
HATCH
  5
163
100
AcDbEntity
  8
EBENE_1
 62
   152
100
AcDbHatch
 10
0.0
 20
0.0
 30
0.0
210
0.0
220
0.0
230
1.0
  2
SOLID
 70
     1
 71
     0
 91
        1
 92
        3
 72
     0
 73
     1
 93
        3
 10
1.8129814995659721
 20
1.0314615885416665
 10
1.1036363389756942
 20
1.0214708116319444
 10
2.2348334418402778
 20
0.9601481119791666
 97
        0
 75
     2
 76
     1
 98
        1
 10
0.0
 20
0.0
  0
HATCH
  5
162
100
AcDbEntity
  8
EBENE_1
 62
   152
100
AcDbHatch
 10
0.0
 20
0.0
 30
0.0
210
0.0
220
0.0
230
1.0
  2
SOLID
 70
     1
 71
     0
 91
        1
 92
        3
 72
     0
 73
     1
 93
        3
 10
-4.4309095594618055
 20
1.0324951171874999
 10
-4.6796454535590275
 20
0.8691975911458333
 10
-4.1130995008680555
 20
1.0200927734374998
 97
        0
 75
     2
 76
     1
 98
        1
 10
0.0
 20
0.0
  0
HATCH
  5
161
100
AcDbEntity
  8
EBENE_1
 62
   152
100
AcDbHatch
 10
0.0
 20
0.0
 30
0.0
210
0.0
220
0.0
230
1.0
  2
SOLID
 70
     1
 71
     0
 91
        1
 92
        3
 72
     0
 73
     1
 93
        3
 10
1.4379828559027776
 20
1.0497205946180554
 10
1.1036363389756942
 20
1.0214708116319444
 10
1.8129814995659721
 20
1.0314615885416665
 97
        0
 75
     2
 76
     1
 98
        1
 10
0.0
 20
0.0
  0
HATCH
  5
160
100
AcDbEntity
  8
EBENE_1
 62
   152
100
AcDbHatch
 10
0.0
 20
0.0
 30
0.0
210
0.0
220
0.0
230
1.0
  2
SOLID
 70
     1
 71
     0
 91
        1
 92
        3
 72
     0
 73
     1
 93
        3
 10
-4.2779473198784714
 20
1.0524766710069444
 10
-4.4309095594618055
 20
1.0324951171874999
 10
-4.1130995008680555
 20
1.0200927734374998
 97
        0
 75
     2
 76
     1
 98
        1
 10
0.0
 20
0.0
  0
ENDBLK
  5
1A0
100
AcDbEntity
  8
EBENE_1
100
AcDbBlockEnd
  0
BLOCK
  5
1A3
100
AcDbEntity
  8
EBENE_1
 62
     7
100
AcDbBlockBegin
  2
AI9-BLK6
 70
     0
 10
0.0
 20
0.0
 30
0.0
  3
AI9-BLK6
  1

  0
HATCH
  5
1E3
100
AcDbEntity
  8
EBENE_1
 62
   152
100
AcDbHatch
 10
0.0
 20
0.0
 30
0.0
210
0.0
220
0.0
230
1.0
  2
SOLID
 70
     1
 71
     0
 91
        1
 92
        3
 72
     0
 73
     1
 93
        3
 10
-1.1060479058159722
 20
-1.0221598307291666
 10
-1.8147040473090277
 20
-1.0314615885416665
 10
-1.4403944227430554
 20
-1.0497205946180554
 97
        0
 75
     2
 76
     1
 98
        1
 10
0.0
 20
0.0
  0
HATCH
  5
1E2
100
AcDbEntity
  8
EBENE_1
 62
   152
100
AcDbHatch
 10
0.0
 20
0.0
 30
0.0
210
0.0
220
0.0
230
1.0
  2
SOLID
 70
     1
 71
     0
 91
        1
 92
        3
 72
     0
 73
     1
 93
        3
 10
4.1132717556423604
 20
-1.0200927734374998
 10
4.2781195746527771
 20
-1.0524766710069444
 10
4.4314263237847218
 20
-1.0324951171874999
 97
        0
 75
     2
 76
     1
 98
        1
 10
0.0
 20
0.0
  0
HATCH
  5
1E1
100
AcDbEntity
  8
EBENE_1
 62
   152
100
AcDbHatch
 10
0.0
 20
0.0
 30
0.0
210
0.0
220
0.0
230
1.0
  2
SOLID
 70
     1
 71
     0
 91
        1
 92
        3
 72
     0
 73
     1
 93
        3
 10
-2.2363837348090274
 20
-0.9601481119791666
 10
-1.8147040473090277
 20
-1.0314615885416665
 10
-1.1060479058159722
 20
-1.0221598307291666
 97
        0
 75
     2
 76
     1
 98
        1
 10
0.0
 20
0.0
  0
HATCH
  5
1E0
100
AcDbEntity
  8
EBENE_1
 62
   152
100
AcDbHatch
 10
0.0
 20
0.0
 30
0.0
210
0.0
220
0.0
230
1.0
  2
SOLID
 70
     1
 71
     0
 91
        1
 92
        3
 72
     0
 73
     1
 93
        3
 10
-0.8054633246527777
 20
-0.9580810546874999
 10
-2.2363837348090274
 20
-0.9601481119791666
 10
-1.1060479058159722
 20
-1.0221598307291666
 97
        0
 75
     2
 76
     1
 98
        1
 10
0.0
 20
0.0
  0
HATCH
  5
1DF
100
AcDbEntity
  8
EBENE_1
 62
   152
100
AcDbHatch
 10
0.0
 20
0.0
 30
0.0
210
0.0
220
0.0
230
1.0
  2
SOLID
 70
     1
 71
     0
 91
        1
 92
        3
 72
     0
 73
     1
 93
        3
 10
3.9742621527777775
 20
-0.948779296875
 10
4.1132717556423604
 20
-1.0200927734374998
 10
4.4314263237847218
 20
-1.0324951171874999
 97
        0
 75
     2
 76
     1
 98
        1
 10
0.0
 20
0.0
  0
HATCH
  5
1DE
100
AcDbEntity
  8
EBENE_1
 62
   152
100
AcDbHatch
 10
0.0
 20
0.0
 30
0.0
210
0.0
220
0.0
230
1.0
  2
SOLID
 70
     1
 71
     0
 91
        1
 92
        3
 72
     0
 73
     1
 93
        3
 10
3.8991590711805553
 20
-0.9033040364583332
 10
3.9742621527777775
 20
-0.948779296875
 10
4.4314263237847218
 20
-1.0324951171874999
 97
        0
 75
     2
 76
     1
 98
        1
 10
0.0
 20
0.0
  0
HATCH
  5
1DD
100
AcDbEntity
  8
EBENE_1
 62
   152
100
AcDbHatch
 10
0.0
 20
0.0
 30
0.0
210
0.0
220
0.0
230
1.0
  2
SOLID
 70
     1
 71
     0
 91
        1
 92
        3
 72
     0
 73
     1
 93
        3
 10
4.679989963107638
 20
-0.868508572048611
 10
3.8991590711805553
 20
-0.9033040364583332
 10
4.4314263237847218
 20
-1.0324951171874999
 97
        0
 75
     2
 76
     1
 98
        1
 10
0.0
 20
0.0
  0
HATCH
  5
1DC
100
AcDbEntity
  8
EBENE_1
 62
   152
100
AcDbHatch
 10
0.0
 20
0.0
 30
0.0
210
0.0
220
0.0
230
1.0
  2
SOLID
 70
     1
 71
     0
 91
        1
 92
        3
 72
     0
 73
     1
 93
        3
 10
-2.7121514214409719
 20
-0.8271674262152777
 10
-2.2363837348090274
 20
-0.9601481119791666
 10
-0.8054633246527777
 20
-0.9580810546874999
 97
        0
 75
     2
 76
     1
 98
        1
 10
0.0
 20
0.0
  0
HATCH
  5
1DB
100
AcDbEntity
  8
EBENE_1
 62
   152
100
AcDbHatch
 10
0.0
 20
0.0
 30
0.0
210
0.0
220
0.0
230
1.0
  2
SOLID
 70
     1
 71
     0
 91
        1
 92
        3
 72
     0
 73
     1
 93
        3
 10
-0.2788804796006944
 20
-0.7503417968749999
 10
-2.7121514214409719
 20
-0.8271674262152777
 10
-0.8054633246527777
 20
-0.9580810546874999
 97
        0
 75
     2
 76
     1
 98
        1
 10
0.0
 20
0.0
  0
HATCH
  5
1DA
100
AcDbEntity
  8
EBENE_1
 62
   152
100
AcDbHatch
 10
0.0
 20
0.0
 30
0.0
210
0.0
220
0.0
230
1.0
  2
SOLID
 70
     1
 71
     0
 91
        1
 92
        3
 72
     0
 73
     1
 93
        3
 10
3.6089097764756941
 20
-0.7348388671874999
 10
3.8991590711805553
 20
-0.9033040364583332
 10
4.679989963107638
 20
-0.868508572048611
 97
        0
 75
     2
 76
     1
 98
        1
 10
0.0
 20
0.0
  0
HATCH
  5
1D9
100
AcDbEntity
  8
EBENE_1
 62
   152
100
AcDbHatch
 10
0.0
 20
0.0
 30
0.0
210
0.0
220
0.0
230
1.0
  2
SOLID
 70
     1
 71
     0
 91
        1
 92
        3
 72
     0
 73
     1
 93
        3
 10
-3.2480360243055553
 20
-0.6242513020833332
 10
-2.7121514214409719
 20
-0.8271674262152777
 10
-0.2788804796006944
 20
-0.7503417968749999
 97
        0
 75
     2
 76
     1
 98
        1
 10
0.0
 20
0.0
  0
HATCH
  5
1D8
100
AcDbEntity
  8
EBENE_1
 62
   152
100
AcDbHatch
 10
0.0
 20
0.0
 30
0.0
210
0.0
220
0.0
230
1.0
  2
SOLID
 70
     1
 71
     0
 91
        1
 92
        3
 72
     0
 73
     1
 93
        3
 10
4.814348687065972
 20
-0.601858181423611
 10
3.6089097764756941
 20
-0.7348388671874999
 10
4.679989963107638
 20
-0.868508572048611
 97
        0
 75
     2
 76
     1
 98
        1
 10
0.0
 20
0.0
  0
HATCH
  5
1D7
100
AcDbEntity
  8
EBENE_1
 62
   152
100
AcDbHatch
 10
0.0
 20
0.0
 30
0.0
210
0.0
220
0.0
230
1.0
  2
SOLID
 70
     1
 71
     0
 91
        1
 92
        3
 72
     0
 73
     1
 93
        3
 10
-3.5406968858506942
 20
-0.4943712022569444
 10
-3.2480360243055553
 20
-0.6242513020833332
 10
-0.2788804796006944
 20
-0.7503417968749999
 97
        0
 75
     2
 76
     1
 98
        1
 10
0.0
 20
0.0
  0
HATCH
  5
1D6
100
AcDbEntity
  8
EBENE_1
 62
   152
100
AcDbHatch
 10
0.0
 20
0.0
 30
0.0
210
0.0
220
0.0
230
1.0
  2
SOLID
 70
     1
 71
     0
 91
        1
 92
        3
 72
     0
 73
     1
 93
        3
 10
0.1930976019965278
 20
-0.4923041449652778
 10
-3.5406968858506942
 20
-0.4943712022569444
 10
-0.2788804796006944
 20
-0.7503417968749999
 97
        0
 75
     2
 76
     1
 98
        1
 10
0.0
 20
0.0
  0
HATCH
  5
1D5
100
AcDbEntity
  8
EBENE_1
 62
   152
100
AcDbHatch
 10
0.0
 20
0.0
 30
0.0
210
0.0
220
0.0
230
1.0
  2
SOLID
 70
     1
 71
     0
 91
        1
 92
        3
 72
     0
 73
     1
 93
        3
 10
3.077676052517361
 20
-0.4609537760416667
 10
3.6089097764756941
 20
-0.7348388671874999
 10
4.814348687065972
 20
-0.601858181423611
 97
        0
 75
     2
 76
     1
 98
        1
 10
0.0
 20
0.0
  0
HATCH
  5
1D4
100
AcDbEntity
  8
EBENE_1
 62
   152
100
AcDbHatch
 10
0.0
 20
0.0
 30
0.0
210
0.0
220
0.0
230
1.0
  2
SOLID
 70
     1
 71
     0
 91
        1
 92
        3
 72
     0
 73
     1
 93
        3
 10
-3.667131890190972
 20
-0.4344265407986111
 10
-3.5406968858506942
 20
-0.4943712022569444
 10
0.1930976019965278
 20
-0.4923041449652778
 97
        0
 75
     2
 76
     1
 98
        1
 10
0.0
 20
0.0
  0
HATCH
  5
1D3
100
AcDbEntity
  8
EBENE_1
 62
   152
100
AcDbHatch
 10
0.0
 20
0.0
 30
0.0
210
0.0
220
0.0
230
1.0
  2
SOLID
 70
     1
 71
     0
 91
        1
 92
        3
 72
     0
 73
     1
 93
        3
 10
-3.7399956597222217
 20
-0.3989420572916667
 10
-3.667131890190972
 20
-0.4344265407986111
 10
0.1930976019965278
 20
-0.4923041449652778
 97
        0
 75
     2
 76
     1
 98
        1
 10
0.0
 20
0.0
  0
HATCH
  5
1D2
100
AcDbEntity
  8
EBENE_1
 62
   152
100
AcDbHatch
 10
0.0
 20
0.0
 30
0.0
210
0.0
220
0.0
230
1.0
  2
SOLID
 70
     1
 71
     0
 91
        1
 92
        3
 72
     0
 73
     1
 93
        3
 10
4.7902330186631943
 20
-0.303857421875
 10
3.077676052517361
 20
-0.4609537760416667
 10
4.814348687065972
 20
-0.601858181423611
 97
        0
 75
     2
 76
     1
 98
        1
 10
0.0
 20
0.0
  0
HATCH
  5
1D1
100
AcDbEntity
  8
EBENE_1
 62
   152
100
AcDbHatch
 10
0.0
 20
0.0
 30
0.0
210
0.0
220
0.0
230
1.0
  2
SOLID
 70
     1
 71
     0
 91
        1
 92
        3
 72
     0
 73
     1
 93
        3
 10
2.6063869900173611
 20
-0.2642388237847222
 10
3.077676052517361
 20
-0.4609537760416667
 10
4.7902330186631943
 20
-0.303857421875
 97
        0
 75
     2
 76
     1
 98
        1
 10
0.0
 20
0.0
  0
HATCH
  5
1D0
100
AcDbEntity
  8
EBENE_1
 62
   152
100
AcDbHatch
 10
0.0
 20
0.0
 30
0.0
210
0.0
220
0.0
230
1.0
  2
SOLID
 70
     1
 71
     0
 91
        1
 92
        3
 72
     0
 73
     1
 93
        3
 10
-4.0099188910590273
 20
-0.2621717664930555
 10
-3.7399956597222217
 20
-0.3989420572916667
 10
0.1930976019965278
 20
-0.4923041449652778
 97
        0
 75
     2
 76
     1
 98
        1
 10
0.0
 20
0.0
  0
HATCH
  5
1CF
100
AcDbEntity
  8
EBENE_1
 62
   152
100
AcDbHatch
 10
0.0
 20
0.0
 30
0.0
210
0.0
220
0.0
230
1.0
  2
SOLID
 70
     1
 71
     0
 91
        1
 92
        3
 72
     0
 73
     1
 93
        3
 10
0.6642144097222221
 20
-0.2497694227430555
 10
-4.0099188910590273
 20
-0.2621717664930555
 10
0.1930976019965278
 20
-0.4923041449652778
 97
        0
 75
     2
 76
     1
 98
        1
 10
0.0
 20
0.0
  0
HATCH
  5
1CE
100
AcDbEntity
  8
EBENE_1
 62
   152
100
AcDbHatch
 10
0.0
 20
0.0
 30
0.0
210
0.0
220
0.0
230
1.0
  2
SOLID
 70
     1
 71
     0
 91
        1
 92
        3
 72
     0
 73
     1
 93
        3
 10
4.7049669053819443
 20
-0.1663981119791667
 10
2.6063869900173611
 20
-0.2642388237847222
 10
4.7902330186631943
 20
-0.303857421875
 97
        0
 75
     2
 76
     1
 98
        1
 10
0.0
 20
0.0
  0
HATCH
  5
1CD
100
AcDbEntity
  8
EBENE_1
 62
   152
100
AcDbHatch
 10
0.0
 20
0.0
 30
0.0
210
0.0
220
0.0
230
1.0
  2
SOLID
 70
     1
 71
     0
 91
        1
 92
        3
 72
     0
 73
     1
 93
        3
 10
-4.2371229383680555
 20
-0.1402153862847222
 10
-4.0099188910590273
 20
-0.2621717664930555
 10
0.6642144097222221
 20
-0.2497694227430555
 97
        0
 75
     2
 76
     1
 98
        1
 10
0.0
 20
0.0
  0
HATCH
  5
1CC
100
AcDbEntity
  8
EBENE_1
 62
   152
100
AcDbHatch
 10
0.0
 20
0.0
 30
0.0
210
0.0
220
0.0
230
1.0
  2
SOLID
 70
     1
 71
     0
 91
        1
 92
        3
 72
     0
 73
     1
 93
        3
 10
2.1886691623263888
 20
-0.13642578125
 10
2.6063869900173611
 20
-0.2642388237847222
 10
4.7049669053819443
 20
-0.1663981119791667
 97
        0
 75
     2
 76
     1
 98
        1
 10
0.0
 20
0.0
  0
HATCH
  5
1CB
100
AcDbEntity
  8
EBENE_1
 62
   152
100
AcDbHatch
 10
0.0
 20
0.0
 30
0.0
210
0.0
220
0.0
230
1.0
  2
SOLID
 70
     1
 71
     0
 91
        1
 92
        3
 72
     0
 73
     1
 93
        3
 10
1.1876966688368054
 20
-0.08681640625
 10
-4.2371229383680555
 20
-0.1402153862847222
 10
0.6642144097222221
 20
-0.2497694227430555
 97
        0
 75
     2
 76
     1
 98
        1
 10
0.0
 20
0.0
  0
HATCH
  5
1CA
100
AcDbEntity
  8
EBENE_1
 62
   152
100
AcDbHatch
 10
0.0
 20
0.0
 30
0.0
210
0.0
220
0.0
230
1.0
  2
SOLID
 70
     1
 71
     0
 91
        1
 92
        3
 72
     0
 73
     1
 93
        3
 10
1.8172878689236109
 20
-0.0702799479166667
 10
2.1886691623263888
 20
-0.13642578125
 10
4.7049669053819443
 20
-0.1663981119791667
 97
        0
 75
     2
 76
     1
 98
        1
 10
0.0
 20
0.0
  0
HATCH
  5
1C9
100
AcDbEntity
  8
EBENE_1
 62
   152
100
AcDbHatch
 10
0.0
 20
0.0
 30
0.0
210
0.0
220
0.0
230
1.0
  2
SOLID
 70
     1
 71
     0
 91
        1
 92
        3
 72
     0
 73
     1
 93
        3
 10
1.485869683159722
 20
-0.0561550564236111
 10
-4.2371229383680555
 20
-0.1402153862847222
 10
1.1876966688368054
 20
-0.08681640625
 97
        0
 75
     2
 76
     1
 98
        1
 10
0.0
 20
0.0
  0
HATCH
  5
1C8
100
AcDbEntity
  8
EBENE_1
 62
   152
100
AcDbHatch
 10
0.0
 20
0.0
 30
0.0
210
0.0
220
0.0
230
1.0
  2
SOLID
 70
     1
 71
     0
 91
        1
 92
        3
 72
     0
 73
     1
 93
        3
 10
1.485869683159722
 20
-0.0561550564236111
 10
1.8172878689236109
 20
-0.0702799479166667
 10
4.7049669053819443
 20
-0.1663981119791667
 97
        0
 75
     2
 76
     1
 98
        1
 10
0.0
 20
0.0
  0
HATCH
  5
1C7
100
AcDbEntity
  8
EBENE_1
 62
   152
100
AcDbHatch
 10
0.0
 20
0.0
 30
0.0
210
0.0
220
0.0
230
1.0
  2
SOLID
 70
     1
 71
     0
 91
        1
 92
        3
 72
     0
 73
     1
 93
        3
 10
4.5632012261284718
 20
-0.0478868272569444
 10
1.485869683159722
 20
-0.0561550564236111
 10
4.7049669053819443
 20
-0.1663981119791667
 97
        0
 75
     2
 76
     1
 98
        1
 10
0.0
 20
0.0
  0
HATCH
  5
1C6
100
AcDbEntity
  8
EBENE_1
 62
   152
100
AcDbHatch
 10
0.0
 20
0.0
 30
0.0
210
0.0
220
0.0
230
1.0
  2
SOLID
 70
     1
 71
     0
 91
        1
 92
        3
 72
     0
 73
     1
 93
        3
 10
-4.4117892795138882
 20
-0.0413411458333333
 10
1.485869683159722
 20
-0.0561550564236111
 10
4.5632012261284718
 20
-0.0478868272569444
 97
        0
 75
     2
 76
     1
 98
        1
 10
0.0
 20
0.0
  0
HATCH
  5
1C5
100
AcDbEntity
  8
EBENE_1
 62
   152
100
AcDbHatch
 10
0.0
 20
0.0
 30
0.0
210
0.0
220
0.0
230
1.0
  2
SOLID
 70
     1
 71
     0
 91
        1
 92
        3
 72
     0
 73
     1
 93
        3
 10
-4.4117892795138882
 20
-0.0413411458333333
 10
-4.2371229383680555
 20
-0.1402153862847222
 10
1.485869683159722
 20
-0.0561550564236111
 97
        0
 75
     2
 76
     1
 98
        1
 10
0.0
 20
0.0
  0
HATCH
  5
1C4
100
AcDbEntity
  8
EBENE_1
 62
   152
100
AcDbHatch
 10
0.0
 20
0.0
 30
0.0
210
0.0
220
0.0
230
1.0
  2
SOLID
 70
     1
 71
     0
 91
        1
 92
        3
 72
     0
 73
     1
 93
        3
 10
4.4117892795138882
 20
0.0416856553819444
 10
-4.4117892795138882
 20
-0.0413411458333333
 10
4.5632012261284718
 20
-0.0478868272569444
 97
        0
 75
     2
 76
     1
 98
        1
 10
0.0
 20
0.0
  0
HATCH
  5
1C3
100
AcDbEntity
  8
EBENE_1
 62
   152
100
AcDbHatch
 10
0.0
 20
0.0
 30
0.0
210
0.0
220
0.0
230
1.0
  2
SOLID
 70
     1
 71
     0
 91
        1
 92
        3
 72
     0
 73
     1
 93
        3
 10
-4.5632012261284718
 20
0.0478868272569444
 10
-4.4117892795138882
 20
-0.0413411458333333
 10
4.4117892795138882
 20
0.0416856553819444
 97
        0
 75
     2
 76
     1
 98
        1
 10
0.0
 20
0.0
  0
HATCH
  5
1C2
100
AcDbEntity
  8
EBENE_1
 62
   152
100
AcDbHatch
 10
0.0
 20
0.0
 30
0.0
210
0.0
220
0.0
230
1.0
  2
SOLID
 70
     1
 71
     0
 91
        1
 92
        3
 72
     0
 73
     1
 93
        3
 10
-1.4869032118055554
 20
0.0537434895833333
 10
-4.5632012261284718
 20
0.0478868272569444
 10
4.4117892795138882
 20
0.0416856553819444
 97
        0
 75
     2
 76
     1
 98
        1
 10
0.0
 20
0.0
  0
HATCH
  5
1C1
100
AcDbEntity
  8
EBENE_1
 62
   152
100
AcDbHatch
 10
0.0
 20
0.0
 30
0.0
210
0.0
220
0.0
230
1.0
  2
SOLID
 70
     1
 71
     0
 91
        1
 92
        3
 72
     0
 73
     1
 93
        3
 10
-1.8178046332465276
 20
0.0678683810763889
 10
-4.5632012261284718
 20
0.0478868272569444
 10
-1.4869032118055554
 20
0.0537434895833333
 97
        0
 75
     2
 76
     1
 98
        1
 10
0.0
 20
0.0
  0
HATCH
  5
1C0
100
AcDbEntity
  8
EBENE_1
 62
   152
100
AcDbHatch
 10
0.0
 20
0.0
 30
0.0
210
0.0
220
0.0
230
1.0
  2
SOLID
 70
     1
 71
     0
 91
        1
 92
        3
 72
     0
 73
     1
 93
        3
 10
-1.1889024522569442
 20
0.0844048394097222
 10
-1.4869032118055554
 20
0.0537434895833333
 10
4.4117892795138882
 20
0.0416856553819444
 97
        0
 75
     2
 76
     1
 98
        1
 10
0.0
 20
0.0
  0
HATCH
  5
1BF
100
AcDbEntity
  8
EBENE_1
 62
   152
100
AcDbHatch
 10
0.0
 20
0.0
 30
0.0
210
0.0
220
0.0
230
1.0
  2
SOLID
 70
     1
 71
     0
 91
        1
 92
        3
 72
     0
 73
     1
 93
        3
 10
-2.1888414171006945
 20
0.1343587239583333
 10
-4.5632012261284718
 20
0.0478868272569444
 10
-1.8178046332465276
 20
0.0678683810763889
 97
        0
 75
     2
 76
     1
 98
        1
 10
0.0
 20
0.0
  0
HATCH
  5
1BE
100
AcDbEntity
  8
EBENE_1
 62
   152
100
AcDbHatch
 10
0.0
 20
0.0
 30
0.0
210
0.0
220
0.0
230
1.0
  2
SOLID
 70
     1
 71
     0
 91
        1
 92
        3
 72
     0
 73
     1
 93
        3
 10
4.2371229383680555
 20
0.1402153862847222
 10
-1.1889024522569442
 20
0.0844048394097222
 10
4.4117892795138882
 20
0.0416856553819444
 97
        0
 75
     2
 76
     1
 98
        1
 10
0.0
 20
0.0
  0
HATCH
  5
1BD
100
AcDbEntity
  8
EBENE_1
 62
   152
100
AcDbHatch
 10
0.0
 20
0.0
 30
0.0
210
0.0
220
0.0
230
1.0
  2
SOLID
 70
     1
 71
     0
 91
        1
 92
        3
 72
     0
 73
     1
 93
        3
 10
-4.7049669053819443
 20
0.1663981119791667
 10
-4.5632012261284718
 20
0.0478868272569444
 10
-2.1888414171006945
 20
0.1343587239583333
 97
        0
 75
     2
 76
     1
 98
        1
 10
0.0
 20
0.0
  0
HATCH
  5
1BC
100
AcDbEntity
  8
EBENE_1
 62
   152
100
AcDbHatch
 10
0.0
 20
0.0
 30
0.0
210
0.0
220
0.0
230
1.0
  2
SOLID
 70
     1
 71
     0
 91
        1
 92
        3
 72
     0
 73
     1
 93
        3
 10
-0.6657647026909722
 20
0.2470133463541666
 10
-1.1889024522569442
 20
0.0844048394097222
 10
4.2371229383680555
 20
0.1402153862847222
 97
        0
 75
     2
 76
     1
 98
        1
 10
0.0
 20
0.0
  0
HATCH
  5
1BB
100
AcDbEntity
  8
EBENE_1
 62
   152
100
AcDbHatch
 10
0.0
 20
0.0
 30
0.0
210
0.0
220
0.0
230
1.0
  2
SOLID
 70
     1
 71
     0
 91
        1
 92
        3
 72
     0
 73
     1
 93
        3
 10
4.0099188910590273
 20
0.2625162760416667
 10
-0.6657647026909722
 20
0.2470133463541666
 10
4.2371229383680555
 20
0.1402153862847222
 97
        0
 75
     2
 76
     1
 98
        1
 10
0.0
 20
0.0
  0
HATCH
  5
1BA
100
AcDbEntity
  8
EBENE_1
 62
   152
100
AcDbHatch
 10
0.0
 20
0.0
 30
0.0
210
0.0
220
0.0
230
1.0
  2
SOLID
 70
     1
 71
     0
 91
        1
 92
        3
 72
     0
 73
     1
 93
        3
 10
-2.6067314995659721
 20
0.2625162760416667
 10
-4.7049669053819443
 20
0.1663981119791667
 10
-2.1888414171006945
 20
0.1343587239583333
 97
        0
 75
     2
 76
     1
 98
        1
 10
0.0
 20
0.0
  0
HATCH
  5
1B9
100
AcDbEntity
  8
EBENE_1
 62
   152
100
AcDbHatch
 10
0.0
 20
0.0
 30
0.0
210
0.0
220
0.0
230
1.0
  2
SOLID
 70
     1
 71
     0
 91
        1
 92
        3
 72
     0
 73
     1
 93
        3
 10
-4.7902330186631943
 20
0.3042019314236111
 10
-4.7049669053819443
 20
0.1663981119791667
 10
-2.6067314995659721
 20
0.2625162760416667
 97
        0
 75
     2
 76
     1
 98
        1
 10
0.0
 20
0.0
  0
HATCH
  5
1B8
100
AcDbEntity
  8
EBENE_1
 62
   152
100
AcDbHatch
 10
0.0
 20
0.0
 30
0.0
210
0.0
220
0.0
230
1.0
  2
SOLID
 70
     1
 71
     0
 91
        1
 92
        3
 72
     0
 73
     1
 93
        3
 10
3.7399956597222217
 20
0.3989420572916667
 10
-0.6657647026909722
 20
0.2470133463541666
 10
4.0099188910590273
 20
0.2625162760416667
 97
        0
 75
     2
 76
     1
 98
        1
 10
0.0
 20
0.0
  0
HATCH
  5
1B7
100
AcDbEntity
  8
EBENE_1
 62
   152
100
AcDbHatch
 10
0.0
 20
0.0
 30
0.0
210
0.0
220
0.0
230
1.0
  2
SOLID
 70
     1
 71
     0
 91
        1
 92
        3
 72
     0
 73
     1
 93
        3
 10
3.667131890190972
 20
0.4344265407986111
 10
-0.6657647026909722
 20
0.2470133463541666
 10
3.7399956597222217
 20
0.3989420572916667
 97
        0
 75
     2
 76
     1
 98
        1
 10
0.0
 20
0.0
  0
HATCH
  5
1B6
100
AcDbEntity
  8
EBENE_1
 62
   152
100
AcDbHatch
 10
0.0
 20
0.0
 30
0.0
210
0.0
220
0.0
230
1.0
  2
SOLID
 70
     1
 71
     0
 91
        1
 92
        3
 72
     0
 73
     1
 93
        3
 10
-3.0775037977430553
 20
0.4592312282986111
 10
-4.7902330186631943
 20
0.3042019314236111
 10
-2.6067314995659721
 20
0.2625162760416667
 97
        0
 75
     2
 76
     1
 98
        1
 10
0.0
 20
0.0
  0
HATCH
  5
1B5
100
AcDbEntity
  8
EBENE_1
 62
   152
100
AcDbHatch
 10
0.0
 20
0.0
 30
0.0
210
0.0
220
0.0
230
1.0
  2
SOLID
 70
     1
 71
     0
 91
        1
 92
        3
 72
     0
 73
     1
 93
        3
 10
-0.1951646592881944
 20
0.4902370876736111
 10
-0.6657647026909722
 20
0.2470133463541666
 10
3.667131890190972
 20
0.4344265407986111
 97
        0
 75
     2
 76
     1
 98
        1
 10
0.0
 20
0.0
  0
HATCH
  5
1B4
100
AcDbEntity
  8
EBENE_1
 62
   152
100
AcDbHatch
 10
0.0
 20
0.0
 30
0.0
210
0.0
220
0.0
230
1.0
  2
SOLID
 70
     1
 71
     0
 91
        1
 92
        3
 72
     0
 73
     1
 93
        3
 10
3.5406968858506942
 20
0.4943712022569444
 10
-0.1951646592881944
 20
0.4902370876736111
 10
3.667131890190972
 20
0.4344265407986111
 97
        0
 75
     2
 76
     1
 98
        1
 10
0.0
 20
0.0
  0
HATCH
  5
1B3
100
AcDbEntity
  8
EBENE_1
 62
   152
100
AcDbHatch
 10
0.0
 20
0.0
 30
0.0
210
0.0
220
0.0
230
1.0
  2
SOLID
 70
     1
 71
     0
 91
        1
 92
        3
 72
     0
 73
     1
 93
        3
 10
-4.814348687065972
 20
0.601858181423611
 10
-4.7902330186631943
 20
0.3042019314236111
 10
-3.0775037977430553
 20
0.4592312282986111
 97
        0
 75
     2
 76
     1
 98
        1
 10
0.0
 20
0.0
  0
HATCH
  5
1B2
100
AcDbEntity
  8
EBENE_1
 62
   152
100
AcDbHatch
 10
0.0
 20
0.0
 30
0.0
210
0.0
220
0.0
230
1.0
  2
SOLID
 70
     1
 71
     0
 91
        1
 92
        3
 72
     0
 73
     1
 93
        3
 10
3.2475192599826386
 20
0.6245958116319444
 10
-0.1951646592881944
 20
0.4902370876736111
 10
3.5406968858506942
 20
0.4943712022569444
 97
        0
 75
     2
 76
     1
 98
        1
 10
0.0
 20
0.0
  0
HATCH
  5
1B1
100
AcDbEntity
  8
EBENE_1
 62
   152
100
AcDbHatch
 10
0.0
 20
0.0
 30
0.0
210
0.0
220
0.0
230
1.0
  2
SOLID
 70
     1
 71
     0
 91
        1
 92
        3
 72
     0
 73
     1
 93
        3
 10
-3.6087375217013884
 20
0.7338053385416666
 10
-4.814348687065972
 20
0.601858181423611
 10
-3.0775037977430553
 20
0.4592312282986111
 97
        0
 75
     2
 76
     1
 98
        1
 10
0.0
 20
0.0
  0
HATCH
  5
1B0
100
AcDbEntity
  8
EBENE_1
 62
   152
100
AcDbHatch
 10
0.0
 20
0.0
 30
0.0
210
0.0
220
0.0
230
1.0
  2
SOLID
 70
     1
 71
     0
 91
        1
 92
        3
 72
     0
 73
     1
 93
        3
 10
0.2766411675347222
 20
0.7493082682291666
 10
-0.1951646592881944
 20
0.4902370876736111
 10
3.2475192599826386
 20
0.6245958116319444
 97
        0
 75
     2
 76
     1
 98
        1
 10
0.0
 20
0.0
  0
HATCH
  5
1AF
100
AcDbEntity
  8
EBENE_1
 62
   152
100
AcDbHatch
 10
0.0
 20
0.0
 30
0.0
210
0.0
220
0.0
230
1.0
  2
SOLID
 70
     1
 71
     0
 91
        1
 92
        3
 72
     0
 73
     1
 93
        3
 10
2.7111178927951385
 20
0.8271674262152777
 10
0.2766411675347222
 20
0.7493082682291666
 10
3.2475192599826386
 20
0.6245958116319444
 97
        0
 75
     2
 76
     1
 98
        1
 10
0.0
 20
0.0
  0
HATCH
  5
1AE
100
AcDbEntity
  8
EBENE_1
 62
   152
100
AcDbHatch
 10
0.0
 20
0.0
 30
0.0
210
0.0
220
0.0
230
1.0
  2
SOLID
 70
     1
 71
     0
 91
        1
 92
        3
 72
     0
 73
     1
 93
        3
 10
-4.6796454535590275
 20
0.8691975911458333
 10
-4.814348687065972
 20
0.601858181423611
 10
-3.6087375217013884
 20
0.7338053385416666
 97
        0
 75
     2
 76
     1
 98
        1
 10
0.0
 20
0.0
  0
HATCH
  5
1AD
100
AcDbEntity
  8
EBENE_1
 62
   152
100
AcDbHatch
 10
0.0
 20
0.0
 30
0.0
210
0.0
220
0.0
230
1.0
  2
SOLID
 70
     1
 71
     0
 91
        1
 92
        3
 72
     0
 73
     1
 93
        3
 10
-3.8986423068576386
 20
0.9029595269097221
 10
-4.6796454535590275
 20
0.8691975911458333
 10
-3.6087375217013884
 20
0.7338053385416666
 97
        0
 75
     2
 76
     1
 98
        1
 10
0.0
 20
0.0
  0
HATCH
  5
1AC
100
AcDbEntity
  8
EBENE_1
 62
   152
100
AcDbHatch
 10
0.0
 20
0.0
 30
0.0
210
0.0
220
0.0
230
1.0
  2
SOLID
 70
     1
 71
     0
 91
        1
 92
        3
 72
     0
 73
     1
 93
        3
 10
-3.9740898980034718
 20
0.948779296875
 10
-4.6796454535590275
 20
0.8691975911458333
 10
-3.8986423068576386
 20
0.9029595269097221
 97
        0
 75
     2
 76
     1
 98
        1
 10
0.0
 20
0.0
  0
HATCH
  5
1AB
100
AcDbEntity
  8
EBENE_1
 62
   152
100
AcDbHatch
 10
0.0
 20
0.0
 30
0.0
210
0.0
220
0.0
230
1.0
  2
SOLID
 70
     1
 71
     0
 91
        1
 92
        3
 72
     0
 73
     1
 93
        3
 10
0.8032240125868055
 20
0.9570475260416665
 10
0.2766411675347222
 20
0.7493082682291666
 10
2.7111178927951385
 20
0.8271674262152777
 97
        0
 75
     2
 76
     1
 98
        1
 10
0.0
 20
0.0
  0
HATCH
  5
1AA
100
AcDbEntity
  8
EBENE_1
 62
   152
100
AcDbHatch
 10
0.0
 20
0.0
 30
0.0
210
0.0
220
0.0
230
1.0
  2
SOLID
 70
     1
 71
     0
 91
        1
 92
        3
 72
     0
 73
     1
 93
        3
 10
2.2348334418402778
 20
0.9608371310763888
 10
0.8032240125868055
 20
0.9570475260416665
 10
2.7111178927951385
 20
0.8271674262152777
 97
        0
 75
     2
 76
     1
 98
        1
 10
0.0
 20
0.0
  0
HATCH
  5
1A9
100
AcDbEntity
  8
EBENE_1
 62
   152
100
AcDbHatch
 10
0.0
 20
0.0
 30
0.0
210
0.0
220
0.0
230
1.0
  2
SOLID
 70
     1
 71
     0
 91
        1
 92
        3
 72
     0
 73
     1
 93
        3
 10
-4.1130995008680555
 20
1.0200927734374998
 10
-4.6796454535590275
 20
0.8691975911458333
 10
-3.9740898980034718
 20
0.948779296875
 97
        0
 75
     2
 76
     1
 98
        1
 10
0.0
 20
0.0
  0
HATCH
  5
1A8
100
AcDbEntity
  8
EBENE_1
 62
   152
100
AcDbHatch
 10
0.0
 20
0.0
 30
0.0
210
0.0
220
0.0
230
1.0
  2
SOLID
 70
     1
 71
     0
 91
        1
 92
        3
 72
     0
 73
     1
 93
        3
 10
1.1036363389756942
 20
1.0221598307291666
 10
0.8032240125868055
 20
0.9570475260416665
 10
2.2348334418402778
 20
0.9608371310763888
 97
        0
 75
     2
 76
     1
 98
        1
 10
0.0
 20
0.0
  0
HATCH
  5
1A7
100
AcDbEntity
  8
EBENE_1
 62
   152
100
AcDbHatch
 10
0.0
 20
0.0
 30
0.0
210
0.0
220
0.0
230
1.0
  2
SOLID
 70
     1
 71
     0
 91
        1
 92
        3
 72
     0
 73
     1
 93
        3
 10
1.8129814995659721
 20
1.0314615885416665
 10
1.1036363389756942
 20
1.0221598307291666
 10
2.2348334418402778
 20
0.9608371310763888
 97
        0
 75
     2
 76
     1
 98
        1
 10
0.0
 20
0.0
  0
HATCH
  5
1A6
100
AcDbEntity
  8
EBENE_1
 62
   152
100
AcDbHatch
 10
0.0
 20
0.0
 30
0.0
210
0.0
220
0.0
230
1.0
  2
SOLID
 70
     1
 71
     0
 91
        1
 92
        3
 72
     0
 73
     1
 93
        3
 10
-4.4309095594618055
 20
1.0324951171874999
 10
-4.6796454535590275
 20
0.8691975911458333
 10
-4.1130995008680555
 20
1.0200927734374998
 97
        0
 75
     2
 76
     1
 98
        1
 10
0.0
 20
0.0
  0
HATCH
  5
1A5
100
AcDbEntity
  8
EBENE_1
 62
   152
100
AcDbHatch
 10
0.0
 20
0.0
 30
0.0
210
0.0
220
0.0
230
1.0
  2
SOLID
 70
     1
 71
     0
 91
        1
 92
        3
 72
     0
 73
     1
 93
        3
 10
1.4379828559027776
 20
1.0497205946180554
 10
1.1036363389756942
 20
1.0221598307291666
 10
1.8129814995659721
 20
1.0314615885416665
 97
        0
 75
     2
 76
     1
 98
        1
 10
0.0
 20
0.0
  0
HATCH
  5
1A4
100
AcDbEntity
  8
EBENE_1
 62
   152
100
AcDbHatch
 10
0.0
 20
0.0
 30
0.0
210
0.0
220
0.0
230
1.0
  2
SOLID
 70
     1
 71
     0
 91
        1
 92
        3
 72
     0
 73
     1
 93
        3
 10
-4.2779473198784714
 20
1.0524766710069444
 10
-4.4309095594618055
 20
1.0324951171874999
 10
-4.1130995008680555
 20
1.0200927734374998
 97
        0
 75
     2
 76
     1
 98
        1
 10
0.0
 20
0.0
  0
ENDBLK
  5
1E4
100
AcDbEntity
  8
EBENE_1
100
AcDbBlockEnd
  0
BLOCK
  5
25B
100
AcDbEntity
  8
SCHRAFUR
 62
     7
100
AcDbBlockBegin
  2
AI9-BLK7
 70
     0
 10
0.0
 20
0.0
 30
0.0
  3
AI9-BLK7
  1

  0
LINE
  5
276
100
AcDbEntity
  8
SCHRAFUR
 62
     7
100
AcDbLine
 10
-26.444381
 20
-1.194759
 30
0.0
 11
-25.669234
 21
-1.969217
 31
0.0
  0
LINE
  5
275
100
AcDbEntity
  8
SCHRAFUR
 62
     7
100
AcDbLine
 10
-26.444381
 20
0.960837
 30
0.0
 11
-23.514327
 21
-1.969217
 31
0.0
  0
LINE
  5
274
100
AcDbEntity
  8
SCHRAFUR
 62
     7
100
AcDbLine
 10
-25.297164
 20
1.969217
 30
0.0
 11
-21.942674
 21
-1.385273
 31
0.0
  0
LINE
  5
273
100
AcDbEntity
  8
SCHRAFUR
 62
     7
100
AcDbLine
 10
-23.141568
 20
1.969217
 30
0.0
 11
-19.203479
 21
-1.969217
 31
0.0
  0
LINE
  5
272
100
AcDbEntity
  8
SCHRAFUR
 62
     7
100
AcDbLine
 10
-20.98666
 20
1.969217
 30
0.0
 11
-17.087846
 21
-1.929942
 31
0.0
  0
LINE
  5
271
100
AcDbEntity
  8
SCHRAFUR
 62
     7
100
AcDbLine
 10
-18.831409
 20
1.969217
 30
0.0
 11
-14.892976
 21
-1.969217
 31
0.0
  0
LINE
  5
270
100
AcDbEntity
  8
SCHRAFUR
 62
     7
100
AcDbLine
 10
-16.675812
 20
1.969217
 30
0.0
 11
-12.737724
 21
-1.969217
 31
0.0
  0
LINE
  5
26F
100
AcDbEntity
  8
SCHRAFUR
 62
     7
100
AcDbLine
 10
-14.520905
 20
1.969217
 30
0.0
 11
-11.164004
 21
-1.38734
 31
0.0
  0
LINE
  5
26E
100
AcDbEntity
  8
SCHRAFUR
 62
     7
100
AcDbLine
 10
-12.365653
 20
1.969217
 30
0.0
 11
-8.42722
 21
-1.969217
 31
0.0
  0
LINE
  5
26D
100
AcDbEntity
  8
SCHRAFUR
 62
     7
100
AcDbLine
 10
-10.210057
 20
1.969217
 30
0.0
 11
-6.428376
 21
-1.813154
 31
0.0
  0
LINE
  5
26C
100
AcDbEntity
  8
SCHRAFUR
 62
     7
100
AcDbLine
 10
-8.05515
 20
1.969217
 30
0.0
 11
-4.116372
 21
-1.969217
 31
0.0
  0
LINE
  5
26B
100
AcDbEntity
  8
SCHRAFUR
 62
     7
100
AcDbLine
 10
-5.899898
 20
1.969217
 30
0.0
 11
-1.961465
 21
-1.969217
 31
0.0
  0
LINE
  5
26A
100
AcDbEntity
  8
SCHRAFUR
 62
     7
100
AcDbLine
 10
-3.744302
 20
1.969217
 30
0.0
 11
-0.382233
 21
-1.393541
 31
0.0
  0
LINE
  5
269
100
AcDbEntity
  8
SCHRAFUR
 62
     7
100
AcDbLine
 10
-1.589395
 20
1.969217
 30
0.0
 11
2.349383
 21
-1.969217
 31
0.0
  0
LINE
  5
268
100
AcDbEntity
  8
SCHRAFUR
 62
     7
100
AcDbLine
 10
0.565857
 20
1.969217
 30
0.0
 11
4.386812
 21
-1.852083
 31
0.0
  0
LINE
  5
267
100
AcDbEntity
  8
SCHRAFUR
 62
     7
100
AcDbLine
 10
2.721453
 20
1.969217
 30
0.0
 11
6.659542
 21
-1.969217
 31
0.0
  0
LINE
  5
266
100
AcDbEntity
  8
SCHRAFUR
 62
     7
100
AcDbLine
 10
4.87636
 20
1.969217
 30
0.0
 11
8.815138
 21
-1.969217
 31
0.0
  0
LINE
  5
265
100
AcDbEntity
  8
SCHRAFUR
 62
     7
100
AcDbLine
 10
7.031612
 20
1.969217
 30
0.0
 11
10.554567
 21
-1.553738
 31
0.0
  0
LINE
  5
264
100
AcDbEntity
  8
SCHRAFUR
 62
     7
100
AcDbLine
 10
9.187208
 20
1.969217
 30
0.0
 11
13.125297
 21
-1.969217
 31
0.0
  0
LINE
  5
263
100
AcDbEntity
  8
SCHRAFUR
 62
     7
100
AcDbLine
 10
11.342116
 20
1.969217
 30
0.0
 11
15.280893
 21
-1.969217
 31
0.0
  0
LINE
  5
262
100
AcDbEntity
  8
SCHRAFUR
 62
     7
100
AcDbLine
 10
13.497367
 20
1.969217
 30
0.0
 11
16.860125
 21
-1.393541
 31
0.0
  0
LINE
  5
261
100
AcDbEntity
  8
SCHRAFUR
 62
     7
100
AcDbLine
 10
15.652964
 20
1.969217
 30
0.0
 11
19.591052
 21
-1.969217
 31
0.0
  0
LINE
  5
260
100
AcDbEntity
  8
SCHRAFUR
 62
     7
100
AcDbLine
 10
17.807871
 20
1.969217
 30
0.0
 11
21.746648
 21
-1.969217
 31
0.0
  0
LINE
  5
25F
100
AcDbEntity
  8
SCHRAFUR
 62
     7
100
AcDbLine
 10
19.963123
 20
1.969217
 30
0.0
 11
23.901556
 21
-1.969217
 31
0.0
  0
LINE
  5
25E
100
AcDbEntity
  8
SCHRAFUR
 62
     7
100
AcDbLine
 10
22.118719
 20
1.969217
 30
0.0
 11
26.056807
 21
-1.969217
 31
0.0
  0
LINE
  5
25D
100
AcDbEntity
  8
SCHRAFUR
 62
     7
100
AcDbLine
 10
24.273971
 20
1.969217
 30
0.0
 11
26.444381
 21
-0.201883
 31
0.0
  0
LINE
  5
25C
100
AcDbEntity
  8
SCHRAFUR
 62
     7
100
AcDbLine
 10
26.428878
 20
1.969217
 30
0.0
 11
26.444381
 21
1.953369
 31
0.0
  0
ENDBLK
  5
277
100
AcDbEntity
  8
SCHRAFUR
100
AcDbBlockEnd
  0
BLOCK
  5
27A
100
AcDbEntity
  8
SCHRAFUR
 62
     7
100
AcDbBlockBegin
  2
AI9-BLK8
 70
     0
 10
0.0
 20
0.0
 30
0.0
  3
AI9-BLK8
  1

  0
LINE
  5
296
100
AcDbEntity
  8
SCHRAFUR
 62
     7
100
AcDbLine
 10
-26.444381
 20
-1.795584
 30
0.0
 11
-26.270748
 21
-1.969217
 31
0.0
  0
LINE
  5
295
100
AcDbEntity
  8
SCHRAFUR
 62
     7
100
AcDbLine
 10
-26.444381
 20
0.359668
 30
0.0
 11
-24.115152
 21
-1.969217
 31
0.0
  0
LINE
  5
294
100
AcDbEntity
  8
SCHRAFUR
 62
     7
100
AcDbLine
 10
-25.898678
 20
1.969217
 30
0.0
 11
-21.9599
 21
-1.969217
 31
0.0
  0
LINE
  5
293
100
AcDbEntity
  8
SCHRAFUR
 62
     7
100
AcDbLine
 10
-23.743081
 20
1.969217
 30
0.0
 11
-19.804993
 21
-1.969217
 31
0.0
  0
LINE
  5
292
100
AcDbEntity
  8
SCHRAFUR
 62
     7
100
AcDbLine
 10
-21.237463
 20
1.61885
 30
0.0
 11
-17.649396
 21
-1.969217
 31
0.0
  0
LINE
  5
291
100
AcDbEntity
  8
SCHRAFUR
 62
     7
100
AcDbLine
 10
-19.432922
 20
1.969217
 30
0.0
 11
-15.494145
 21
-1.969217
 31
0.0
  0
LINE
  5
290
100
AcDbEntity
  8
SCHRAFUR
 62
     7
100
AcDbLine
 10
-17.277326
 20
1.969217
 30
0.0
 11
-13.339237
 21
-1.969217
 31
0.0
  0
LINE
  5
28F
100
AcDbEntity
  8
SCHRAFUR
 62
     7
100
AcDbLine
 10
-15.101404
 20
1.948374
 30
0.0
 11
-11.183641
 21
-1.969217
 31
0.0
  0
LINE
  5
28E
100
AcDbEntity
  8
SCHRAFUR
 62
     7
100
AcDbLine
 10
-12.967167
 20
1.969217
 30
0.0
 11
-9.028389
 21
-1.969217
 31
0.0
  0
LINE
  5
28D
100
AcDbEntity
  8
SCHRAFUR
 62
     7
100
AcDbLine
 10
-10.431921
 20
1.589739
 30
0.0
 11
-6.873482
 21
-1.969217
 31
0.0
  0
LINE
  5
28C
100
AcDbEntity
  8
SCHRAFUR
 62
     7
100
AcDbLine
 10
-8.656319
 20
1.969217
 30
0.0
 11
-4.717886
 21
-1.969217
 31
0.0
  0
LINE
  5
28B
100
AcDbEntity
  8
SCHRAFUR
 62
     7
100
AcDbLine
 10
-6.033568
 20
1.501717
 30
0.0
 11
-2.562634
 21
-1.969217
 31
0.0
  0
LINE
  5
28A
100
AcDbEntity
  8
SCHRAFUR
 62
     7
100
AcDbLine
 10
-4.345816
 20
1.969217
 30
0.0
 11
-0.407727
 21
-1.969217
 31
0.0
  0
LINE
  5
289
100
AcDbEntity
  8
SCHRAFUR
 62
     7
100
AcDbLine
 10
-2.190564
 20
1.969217
 30
0.0
 11
1.747869
 21
-1.969217
 31
0.0
  0
LINE
  5
288
100
AcDbEntity
  8
SCHRAFUR
 62
     7
100
AcDbLine
 10
0.255798
 20
1.678106
 30
0.0
 11
3.903121
 21
-1.969217
 31
0.0
  0
LINE
  5
287
100
AcDbEntity
  8
SCHRAFUR
 62
     7
100
AcDbLine
 10
2.11994
 20
1.969217
 30
0.0
 11
6.058028
 21
-1.969217
 31
0.0
  0
LINE
  5
286
100
AcDbEntity
  8
SCHRAFUR
 62
     7
100
AcDbLine
 10
4.640716
 20
1.604036
 30
0.0
 11
8.213624
 21
-1.969217
 31
0.0
  0
LINE
  5
285
100
AcDbEntity
  8
SCHRAFUR
 62
     7
100
AcDbLine
 10
4.275191
 20
1.969217
 30
0.0
 11
4.371309
 21
1.872926
 31
0.0
  0
LINE
  5
284
100
AcDbEntity
  8
SCHRAFUR
 62
     7
100
AcDbLine
 10
6.430787
 20
1.969217
 30
0.0
 11
10.368876
 21
-1.969217
 31
0.0
  0
LINE
  5
283
100
AcDbEntity
  8
SCHRAFUR
 62
     7
100
AcDbLine
 10
8.585695
 20
1.969217
 30
0.0
 11
12.523783
 21
-1.969217
 31
0.0
  0
LINE
  5
282
100
AcDbEntity
  8
SCHRAFUR
 62
     7
100
AcDbLine
 10
11.314555
 20
1.395953
 30
0.0
 11
14.67938
 21
-1.969217
 31
0.0
  0
LINE
  5
281
100
AcDbEntity
  8
SCHRAFUR
 62
     7
100
AcDbLine
 10
12.896543
 20
1.969217
 30
0.0
 11
16.834631
 21
-1.969217
 31
0.0
  0
LINE
  5
280
100
AcDbEntity
  8
SCHRAFUR
 62
     7
100
AcDbLine
 10
15.05145
 20
1.969217
 30
0.0
 11
18.990228
 21
-1.969217
 31
0.0
  0
LINE
  5
27F
100
AcDbEntity
  8
SCHRAFUR
 62
     7
100
AcDbLine
 10
17.614601
 20
1.561834
 30
0.0
 11
21.145135
 21
-1.969217
 31
0.0
  0
LINE
  5
27E
100
AcDbEntity
  8
SCHRAFUR
 62
     7
100
AcDbLine
 10
19.362298
 20
1.969217
 30
0.0
 11
23.300387
 21
-1.969217
 31
0.0
  0
LINE
  5
27D
100
AcDbEntity
  8
SCHRAFUR
 62
     7
100
AcDbLine
 10
21.517205
 20
1.969217
 30
0.0
 11
25.455983
 21
-1.969217
 31
0.0
  0
LINE
  5
27C
100
AcDbEntity
  8
SCHRAFUR
 62
     7
100
AcDbLine
 10
23.777877
 20
1.864141
 30
0.0
 11
26.444381
 21
-0.802707
 31
0.0
  0
LINE
  5
27B
100
AcDbEntity
  8
SCHRAFUR
 62
     7
100
AcDbLine
 10
25.828053
 20
1.969217
 30
0.0
 11
26.444381
 21
1.352544
 31
0.0
  0
ENDBLK
  5
297
100
AcDbEntity
  8
SCHRAFUR
100
AcDbBlockEnd
  0
BLOCK
  5
29A
100
AcDbEntity
  8
SCHRAFUR
 62
     7
100
AcDbBlockBegin
  2
AI9-BLK9
 70
     0
 10
0.0
 20
0.0
 30
0.0
  3
AI9-BLK9
  1

  0
LINE
  5
2AD
100
AcDbEntity
  8
SCHRAFUR
 62
     7
100
AcDbLine
 10
-6.536896
 20
-0.2918
 30
0.0
 11
-10.080866
 21
-0.2918
 31
0.0
  0
LINE
  5
2AC
100
AcDbEntity
  8
SCHRAFUR
 62
     7
100
AcDbLine
 10
15.98576
 20
-0.2918
 30
0.0
 11
12.169972
 21
-0.2918
 31
0.0
  0
LINE
  5
2AB
100
AcDbEntity
  8
SCHRAFUR
 62
     7
100
AcDbLine
 10
-20.927405
 20
-0.2918
 30
0.0
 11
-17.111617
 21
-0.2918
 31
0.0
  0
LINE
  5
2AA
100
AcDbEntity
  8
SCHRAFUR
 62
     7
100
AcDbLine
 10
-26.444381
 20
-0.2918
 30
0.0
 11
-22.949331
 21
-0.2918
 31
0.0
  0
SPLINE
  5
2A9
100
AcDbEntity
  8
SCHRAFUR
 62
     7
100
AcDbSpline
210
0.0
220
0.0
230
1.0
 70
     8
 71
     3
 72
    11
 73
     7
 74
     0
 42
0.00000001
 43
0.00000001
 40
0.0
 40
0.0
 40
0.0
 40
0.0
 40
1.0
 40
1.0
 40
1.0
 40
2.0
 40
2.0
 40
2.0
 40
2.0
 10
-20.927404785156249
 20
-0.2917995876736111
 30
0.0
 10
-21.249865722656249
 20
0.2663058810763889
 30
0.0
 10
-21.963344997829861
 20
0.4575086805555555
 30
0.0
 10
-22.52213948567708
 20
0.1353922526041667
 30
0.0
 10
-22.699906412760413
 20
0.0327284071180556
 30
0.0
 10
-22.847011990017361
 20
-0.1147216796875
 30
0.0
 10
-22.949331325954859
 20
-0.2917995876736111
 30
0.0
  0
LINE
  5
2A8
100
AcDbEntity
  8
SCHRAFUR
 62
     7
100
AcDbLine
 10
-12.103482
 20
-0.2918
 30
0.0
 11
-15.089001
 21
-0.2918
 31
0.0
  0
SPLINE
  5
2A7
100
AcDbEntity
  8
SCHRAFUR
 62
     7
100
AcDbSpline
210
0.0
220
0.0
230
1.0
 70
     8
 71
     3
 72
    11
 73
     7
 74
     0
 42
0.00000001
 43
0.00000001
 40
0.0
 40
0.0
 40
0.0
 40
0.0
 40
1.0
 40
1.0
 40
1.0
 40
2.0
 40
2.0
 40
2.0
 40
2.0
 10
-15.089001464843749
 20
-0.2917995876736111
 30
0.0
 10
-15.411462402343748
 20
0.2663058810763889
 30
0.0
 10
-16.125630696614582
 20
0.4575086805555555
 30
0.0
 10
-16.684080674913194
 20
0.1353922526041667
 30
0.0
 10
-16.861503092447915
 20
0.0327284071180556
 30
0.0
 10
-17.008608669704859
 20
-0.1147216796875
 30
0.0
 10
-17.11161702473958
 20
-0.2917995876736111
 30
0.0
  0
SPLINE
  5
2A6
100
AcDbEntity
  8
SCHRAFUR
 62
     7
100
AcDbSpline
210
0.0
220
0.0
230
1.0
 70
     8
 71
     3
 72
    11
 73
     7
 74
     0
 42
0.00000001
 43
0.00000001
 40
0.0
 40
0.0
 40
0.0
 40
0.0
 40
1.0
 40
1.0
 40
1.0
 40
2.0
 40
2.0
 40
2.0
 40
2.0
 10
-10.080866156684026
 20
-0.2917995876736111
 30
0.0
 10
-10.403327094184027
 20
0.2663058810763889
 30
0.0
 10
-11.117495388454859
 20
0.4575086805555555
 30
0.0
 10
-11.676289876302082
 20
0.1353922526041667
 30
0.0
 10
-11.853367784288194
 20
0.0327284071180556
 30
0.0
 10
-12.00081787109375
 20
-0.1147216796875
 30
0.0
 10
-12.103481716579861
 20
-0.2917995876736111
 30
0.0
  0
LINE
  5
2A5
100
AcDbEntity
  8
SCHRAFUR
 62
     7
100
AcDbLine
 10
4.309298
 20
-0.2918
 30
0.0
 11
0.49351
 21
-0.2918
 31
0.0
  0
LINE
  5
2A4
100
AcDbEntity
  8
SCHRAFUR
 62
     7
100
AcDbLine
 10
-1.528417
 20
-0.2918
 30
0.0
 11
-4.514281
 21
-0.2918
 31
0.0
  0
SPLINE
  5
2A3
100
AcDbEntity
  8
SCHRAFUR
 62
     7
100
AcDbSpline
210
0.0
220
0.0
230
1.0
 70
     8
 71
     3
 72
    11
 73
     7
 74
     0
 42
0.00000001
 43
0.00000001
 40
0.0
 40
0.0
 40
0.0
 40
0.0
 40
1.0
 40
1.0
 40
1.0
 40
2.0
 40
2.0
 40
2.0
 40
2.0
 10
-4.5142808702256945
 20
-0.2917995876736111
 30
0.0
 10
-4.8367418077256943
 20
0.2663058810763889
 30
0.0
 10
-5.5509101019965277
 20
0.4575086805555555
 30
0.0
 10
-6.1090155707465268
 20
0.1353922526041667
 30
0.0
 10
-6.2867824978298605
 20
0.0327284071180556
 30
0.0
 10
-6.4342325846354163
 20
-0.1147216796875
 30
0.0
 10
-6.5368964301215273
 20
-0.2917995876736111
 30
0.0
  0
SPLINE
  5
2A2
100
AcDbEntity
  8
SCHRAFUR
 62
     7
100
AcDbSpline
210
0.0
220
0.0
230
1.0
 70
     8
 71
     3
 72
    11
 73
     7
 74
     0
 42
0.00000001
 43
0.00000001
 40
0.0
 40
0.0
 40
0.0
 40
0.0
 40
1.0
 40
1.0
 40
1.0
 40
2.0
 40
2.0
 40
2.0
 40
2.0
 10
0.4935099283854166
 20
-0.2917995876736111
 30
0.0
 10
0.1710489908854166
 20
0.2663058810763889
 30
0.0
 10
-0.5431193033854166
 20
0.4575086805555555
 30
0.0
 10
-1.1015692816840277
 20
0.1353922526041667
 30
0.0
 10
-1.2789916992187498
 20
0.0327284071180556
 30
0.0
 10
-1.4260972764756943
 20
-0.1147216796875
 30
0.0
 10
-1.5284166124131944
 20
-0.2917995876736111
 30
0.0
  0
LINE
  5
2A1
100
AcDbEntity
  8
SCHRAFUR
 62
     7
100
AcDbLine
 10
10.147356
 20
-0.2918
 30
0.0
 11
6.331913
 21
-0.2918
 31
0.0
  0
SPLINE
  5
2A0
100
AcDbEntity
  8
SCHRAFUR
 62
     7
100
AcDbSpline
210
0.0
220
0.0
230
1.0
 70
     8
 71
     3
 72
    11
 73
     7
 74
     0
 42
0.00000001
 43
0.00000001
 40
0.0
 40
0.0
 40
0.0
 40
0.0
 40
1.0
 40
1.0
 40
1.0
 40
2.0
 40
2.0
 40
2.0
 40
2.0
 10
6.3319132486979157
 20
-0.2917995876736111
 30
0.0
 10
6.0094523111979159
 20
0.2663058810763889
 30
0.0
 10
5.2952840169270825
 20
0.4575086805555555
 30
0.0
 10
4.736834038628472
 20
0.1353922526041667
 30
0.0
 10
4.5594116210937496
 20
0.0327284071180556
 30
0.0
 10
4.4116170247395825
 20
-0.1147216796875
 30
0.0
 10
4.3092976888020829
 20
-0.2917995876736111
 30
0.0
  0
SPLINE
  5
29F
100
AcDbEntity
  8
SCHRAFUR
 62
     7
100
AcDbSpline
210
0.0
220
0.0
230
1.0
 70
     8
 71
     3
 72
    11
 73
     7
 74
     0
 42
0.00000001
 43
0.00000001
 40
0.0
 40
0.0
 40
0.0
 40
0.0
 40
1.0
 40
1.0
 40
1.0
 40
2.0
 40
2.0
 40
2.0
 40
2.0
 10
12.169972059461804
 20
-0.2917995876736111
 30
0.0
 10
11.847511121961805
 20
0.2663058810763889
 30
0.0
 10
11.133342827690971
 20
0.4575086805555555
 30
0.0
 10
10.57454833984375
 20
0.1353922526041667
 30
0.0
 10
10.397470431857638
 20
0.0327284071180556
 30
0.0
 10
10.250020345052082
 20
-0.1147216796875
 30
0.0
 10
10.147356499565971
 20
-0.2917995876736111
 30
0.0
  0
SPLINE
  5
29E
100
AcDbEntity
  8
SCHRAFUR
 62
     7
100
AcDbSpline
210
0.0
220
0.0
230
1.0
 70
     8
 71
     3
 72
    11
 73
     7
 74
     0
 42
0.00000001
 43
0.00000001
 40
0.0
 40
0.0
 40
0.0
 40
0.0
 40
1.0
 40
1.0
 40
1.0
 40
2.0
 40
2.0
 40
2.0
 40
2.0
 10
23.846089680989582
 20
-0.2917995876736111
 30
0.0
 10
23.523628743489581
 20
0.2663058810763889
 30
0.0
 10
22.809460449218747
 20
0.4575086805555555
 30
0.0
 10
22.251010470920136
 20
0.1353922526041667
 30
0.0
 10
22.073588053385414
 20
0.0327284071180556
 30
0.0
 10
21.92648247612847
 20
-0.1147216796875
 30
0.0
 10
21.823474121093749
 20
-0.2917995876736111
 30
0.0
  0
SPLINE
  5
29D
100
AcDbEntity
  8
SCHRAFUR
 62
     7
100
AcDbSpline
210
0.0
220
0.0
230
1.0
 70
     8
 71
     3
 72
    11
 73
     7
 74
     0
 42
0.00000001
 43
0.00000001
 40
0.0
 40
0.0
 40
0.0
 40
0.0
 40
1.0
 40
1.0
 40
1.0
 40
2.0
 40
2.0
 40
2.0
 40
2.0
 10
18.007686360677081
 20
-0.2917995876736111
 30
0.0
 10
17.685914442274303
 20
0.2663058810763889
 30
0.0
 10
16.971746148003472
 20
0.4575086805555555
 30
0.0
 10
16.412951660156249
 20
0.1353922526041667
 30
0.0
 10
16.235873752170136
 20
0.0327284071180556
 30
0.0
 10
16.088079155815972
 20
-0.1147216796875
 30
0.0
 10
15.985759819878471
 20
-0.2917995876736111
 30
0.0
  0
LINE
  5
29C
100
AcDbEntity
  8
SCHRAFUR
 62
     7
100
AcDbLine
 10
21.823474
 20
-0.2918
 30
0.0
 11
18.007686
 21
-0.2918
 31
0.0
  0
LINE
  5
29B
100
AcDbEntity
  8
SCHRAFUR
 62
     7
100
AcDbLine
 10
26.444381
 20
-0.2918
 30
0.0
 11
23.84609
 21
-0.2918
 31
0.0
  0
ENDBLK
  5
2AE
100
AcDbEntity
  8
SCHRAFUR
100
AcDbBlockEnd
  0
BLOCK
  5
2DC
100
AcDbEntity
  8
ROHR
  6
AI9-LType2
 62
     7
100
AcDbBlockBegin
  2
AI9-BLK10
 70
     0
 10
0.0
 20
0.0
 30
0.0
  3
AI9-BLK10
  1

  0
LINE
  5
319
100
AcDbEntity
  8
ROHR
 62
     7
100
AcDbLine
 10
0.368625
 20
6.147945
 30
0.0
 11
1.164442
 21
6.943762
 31
0.0
  0
LINE
  5
318
100
AcDbEntity
  8
ROHR
 62
     7
100
AcDbLine
 10
-0.028939
 20
6.237862
 30
0.0
 11
0.865063
 21
7.131692
 31
0.0
  0
LINE
  5
317
100
AcDbEntity
  8
ROHR
 62
     7
100
AcDbLine
 10
-1.955436
 20
4.797984
 30
0.0
 11
0.514697
 21
7.268118
 31
0.0
  0
LINE
  5
316
100
AcDbEntity
  8
ROHR
 62
     7
100
AcDbLine
 10
-1.939244
 20
5.300968
 30
0.0
 11
0.096807
 21
7.33702
 31
0.0
  0
LINE
  5
315
100
AcDbEntity
  8
ROHR
 62
     7
100
AcDbLine
 10
-1.886534
 20
5.840987
 30
0.0
 11
-0.436149
 21
7.291545
 31
0.0
  0
LINE
  5
314
100
AcDbEntity
  8
ROHR
 62
     7
100
AcDbLine
 10
0.884356
 20
-1.614372
 30
0.0
 11
1.650545
 21
-0.84801
 31
0.0
  0
LINE
  5
313
100
AcDbEntity
  8
ROHR
 62
     7
100
AcDbLine
 10
0.917773
 20
-1.093818
 30
0.0
 11
1.721859
 21
-0.289905
 31
0.0
  0
LINE
  5
312
100
AcDbEntity
  8
ROHR
 62
     7
100
AcDbLine
 10
-1.39423
 20
-1.465544
 30
0.0
 11
-0.842326
 21
-0.913639
 31
0.0
  0
LINE
  5
311
100
AcDbEntity
  8
ROHR
 62
     7
100
AcDbLine
 10
-1.47519
 20
-1.052477
 30
0.0
 11
-0.870576
 21
-0.448035
 31
0.0
  0
LINE
  5
310
100
AcDbEntity
  8
ROHR
 62
     7
100
AcDbLine
 10
0.5271
 20
-4.893414
 30
0.0
 11
0.961871
 21
-4.458643
 31
0.0
  0
LINE
  5
30F
100
AcDbEntity
  8
ROHR
 62
     7
100
AcDbLine
 10
-0.387918
 20
-5.808431
 30
0.0
 11
-0.272852
 21
-5.693365
 31
0.0
  0
LINE
  5
30E
100
AcDbEntity
  8
ROHR
 62
     7
100
AcDbLine
 10
0.34072
 20
-6.053722
 30
0.0
 11
0.60427
 21
-5.790516
 31
0.0
  0
LINE
  5
30D
100
AcDbEntity
  8
ROHR
 62
     7
100
AcDbLine
 10
0.438905
 20
-5.468745
 30
0.0
 11
0.792716
 21
-5.114933
 31
0.0
  0
LINE
  5
30C
100
AcDbEntity
  8
ROHR
 62
     7
100
AcDbLine
 10
-0.285598
 20
-6.192904
 30
0.0
 11
-0.199471
 21
-6.106776
 31
0.0
  0
LINE
  5
30B
100
AcDbEntity
  8
ROHR
 62
     7
100
AcDbLine
 10
-0.181901
 20
-6.576343
 30
0.0
 11
-0.12299
 21
-6.517432
 31
0.0
  0
LINE
  5
30A
100
AcDbEntity
  8
ROHR
 62
     7
100
AcDbLine
 10
-0.076481
 20
-6.957715
 30
0.0
 11
-0.043408
 21
-6.924642
 31
0.0
  0
LINE
  5
309
100
AcDbEntity
  8
ROHR
 62
     7
100
AcDbLine
 10
0.232544
 20
-6.64869
 30
0.0
 11
0.393774
 21
-6.487459
 31
0.0
  0
LINE
  5
308
100
AcDbEntity
  8
ROHR
 62
     7
100
AcDbLine
 10
0.031006
 20
-7.33702
 30
0.0
 11
0.039274
 21
-7.328752
 31
0.0
  0
LINE
  5
307
100
AcDbEntity
  8
ROHR
 62
     7
100
AcDbLine
 10
0.113688
 20
-7.254338
 30
0.0
 11
0.158819
 21
-7.209207
 31
0.0
  0
LINE
  5
306
100
AcDbEntity
  8
ROHR
 62
     7
100
AcDbLine
 10
-0.587044
 20
-5.033974
 30
0.0
 11
-0.408588
 21
-4.855518
 31
0.0
  0
LINE
  5
305
100
AcDbEntity
  8
ROHR
 62
     7
100
AcDbLine
 10
-0.48817
 20
-5.421891
 30
0.0
 11
-0.342442
 21
-5.276164
 31
0.0
  0
LINE
  5
304
100
AcDbEntity
  8
ROHR
 62
     7
100
AcDbLine
 10
-1.312926
 20
-1.863797
 30
0.0
 11
-0.810286
 21
-1.360813
 31
0.0
  0
LINE
  5
303
100
AcDbEntity
  8
ROHR
 62
     7
100
AcDbLine
 10
-1.228866
 20
-2.266528
 30
0.0
 11
-0.773424
 21
-1.811259
 31
0.0
  0
LINE
  5
302
100
AcDbEntity
  8
ROHR
 62
     7
100
AcDbLine
 10
-1.142394
 20
-2.667193
 30
0.0
 11
-0.732772
 21
-2.257571
 31
0.0
  0
LINE
  5
301
100
AcDbEntity
  8
ROHR
 62
     7
100
AcDbLine
 10
0.843359
 20
-2.141988
 30
0.0
 11
1.568552
 21
-1.416968
 31
0.0
  0
LINE
  5
300
100
AcDbEntity
  8
ROHR
 62
     7
100
AcDbLine
 10
0.795817
 20
-2.676839
 30
0.0
 11
1.474501
 21
-1.997811
 31
0.0
  0
LINE
  5
2FF
100
AcDbEntity
  8
ROHR
 62
     7
100
AcDbLine
 10
0.740696
 20
-3.218925
 30
0.0
 11
1.368047
 21
-2.591573
 31
0.0
  0
LINE
  5
2FE
100
AcDbEntity
  8
ROHR
 62
     7
100
AcDbLine
 10
0.67765
 20
-3.768762
 30
0.0
 11
1.248158
 21
-3.198771
 31
0.0
  0
LINE
  5
2FD
100
AcDbEntity
  8
ROHR
 62
     7
100
AcDbLine
 10
0.606681
 20
-4.326868
 30
0.0
 11
1.112766
 21
-3.820611
 31
0.0
  0
LINE
  5
2FC
100
AcDbEntity
  8
ROHR
 62
     7
100
AcDbLine
 10
-1.054544
 20
-3.066135
 30
0.0
 11
-0.68833
 21
-2.699921
 31
0.0
  0
LINE
  5
2FB
100
AcDbEntity
  8
ROHR
 62
     7
100
AcDbLine
 10
-0.964627
 20
-3.463354
 30
0.0
 11
-0.639754
 21
-3.13831
 31
0.0
  0
LINE
  5
2FA
100
AcDbEntity
  8
ROHR
 62
     7
100
AcDbLine
 10
-0.872643
 20
-3.858679
 30
0.0
 11
-0.587389
 21
-3.572909
 31
0.0
  0
LINE
  5
2F9
100
AcDbEntity
  8
ROHR
 62
     7
100
AcDbLine
 10
-0.779281
 20
-4.252281
 30
0.0
 11
-0.531234
 21
-4.00389
 31
0.0
  0
LINE
  5
2F8
100
AcDbEntity
  8
ROHR
 62
     7
100
AcDbLine
 10
-0.684196
 20
-4.643644
 30
0.0
 11
-0.471634
 21
-4.431254
 31
0.0
  0
LINE
  5
2F7
100
AcDbEntity
  8
ROHR
 62
     7
100
AcDbLine
 10
0.985642
 20
2.382628
 30
0.0
 11
1.960259
 21
3.357246
 31
0.0
  0
LINE
  5
2F6
100
AcDbEntity
  8
ROHR
 62
     7
100
AcDbLine
 10
0.973584
 20
2.857362
 30
0.0
 11
1.962671
 21
3.846449
 31
0.0
  0
LINE
  5
2F5
100
AcDbEntity
  8
ROHR
 62
     7
100
AcDbLine
 10
-1.908927
 20
2.409844
 30
0.0
 11
-0.929487
 21
3.388596
 31
0.0
  0
LINE
  5
2F4
100
AcDbEntity
  8
ROHR
 62
     7
100
AcDbLine
 10
-1.933732
 20
2.871832
 30
0.0
 11
-0.913984
 21
3.89158
 31
0.0
  0
LINE
  5
2F3
100
AcDbEntity
  8
ROHR
 62
     7
100
AcDbLine
 10
-1.550293
 20
-0.640271
 30
0.0
 11
-0.895036
 21
0.014986
 31
0.0
  0
LINE
  5
2F2
100
AcDbEntity
  8
ROHR
 62
     7
100
AcDbLine
 10
-1.619539
 20
-0.222553
 30
0.0
 11
-0.914673
 21
0.482313
 31
0.0
  0
LINE
  5
2F1
100
AcDbEntity
  8
ROHR
 62
     7
100
AcDbLine
 10
-1.682929
 20
0.200849
 30
0.0
 11
-0.929142
 21
0.954464
 31
0.0
  0
LINE
  5
2F0
100
AcDbEntity
  8
ROHR
 62
     7
100
AcDbLine
 10
-1.740807
 20
0.629936
 30
0.0
 11
-0.939478
 21
1.431437
 31
0.0
  0
LINE
  5
2EF
100
AcDbEntity
  8
ROHR
 62
     7
100
AcDbLine
 10
-1.792483
 20
1.065224
 30
0.0
 11
-0.944645
 21
1.913062
 31
0.0
  0
LINE
  5
2EE
100
AcDbEntity
  8
ROHR
 62
     7
100
AcDbLine
 10
-1.837614
 20
1.506885
 30
0.0
 11
-0.94499
 21
2.399854
 31
0.0
  0
LINE
  5
2ED
100
AcDbEntity
  8
ROHR
 62
     7
100
AcDbLine
 10
-1.876888
 20
1.954919
 30
0.0
 11
-0.939822
 21
2.891469
 31
0.0
  0
LINE
  5
2EC
100
AcDbEntity
  8
ROHR
 62
     7
100
AcDbLine
 10
0.981508
 20
0.430637
 30
0.0
 11
1.87551
 21
1.324639
 31
0.0
  0
LINE
  5
2EB
100
AcDbEntity
  8
ROHR
 62
     7
100
AcDbLine
 10
0.966349
 20
-0.071313
 30
0.0
 11
1.83348
 21
0.795817
 31
0.0
  0
LINE
  5
2EA
100
AcDbEntity
  8
ROHR
 62
     7
100
AcDbLine
 10
0.945334
 20
-0.579293
 30
0.0
 11
1.782492
 21
0.257865
 31
0.0
  0
LINE
  5
2E9
100
AcDbEntity
  8
ROHR
 62
     7
100
AcDbLine
 10
0.990809
 20
0.926731
 30
0.0
 11
1.908583
 21
1.844849
 31
0.0
  0
LINE
  5
2E8
100
AcDbEntity
  8
ROHR
 62
     7
100
AcDbLine
 10
0.994255
 20
1.417485
 30
0.0
 11
1.933732
 21
2.35679
 31
0.0
  0
LINE
  5
2E7
100
AcDbEntity
  8
ROHR
 62
     7
100
AcDbLine
 10
0.992877
 20
1.902726
 30
0.0
 11
1.950958
 21
2.860463
 31
0.0
  0
LINE
  5
2E6
100
AcDbEntity
  8
ROHR
 62
     7
100
AcDbLine
 10
-1.951302
 20
3.341398
 30
0.0
 11
-0.89228
 21
4.400076
 31
0.0
  0
LINE
  5
2E5
100
AcDbEntity
  8
ROHR
 62
     7
100
AcDbLine
 10
-1.960948
 20
3.818544
 30
0.0
 11
-0.865063
 21
4.914429
 31
0.0
  0
LINE
  5
2E4
100
AcDbEntity
  8
ROHR
 62
     7
100
AcDbLine
 10
-1.962671
 20
4.303958
 30
0.0
 11
-0.833024
 21
5.433777
 31
0.0
  0
LINE
  5
2E3
100
AcDbEntity
  8
ROHR
 62
     7
100
AcDbLine
 10
0.956703
 20
3.327273
 30
0.0
 11
1.958192
 21
4.328935
 31
0.0
  0
LINE
  5
2E2
100
AcDbEntity
  8
ROHR
 62
     7
100
AcDbLine
 10
0.93431
 20
3.792361
 30
0.0
 11
1.946823
 21
4.80453
 31
0.0
  0
LINE
  5
2E1
100
AcDbEntity
  8
ROHR
 62
     7
100
AcDbLine
 10
0.908127
 20
4.252626
 30
0.0
 11
1.929598
 21
5.274441
 31
0.0
  0
LINE
  5
2E0
100
AcDbEntity
  8
ROHR
 62
     7
100
AcDbLine
 10
0.877121
 20
4.708757
 30
0.0
 11
1.895492
 21
5.727299
 31
0.0
  0
LINE
  5
2DF
100
AcDbEntity
  8
ROHR
 62
     7
100
AcDbLine
 10
0.841292
 20
5.160064
 30
0.0
 11
1.790761
 21
6.109532
 31
0.0
  0
LINE
  5
2DE
100
AcDbEntity
  8
ROHR
 62
     7
100
AcDbLine
 10
0.79754
 20
5.603103
 30
0.0
 11
1.628497
 21
6.43406
 31
0.0
  0
LINE
  5
2DD
100
AcDbEntity
  8
ROHR
 62
     7
100
AcDbLine
 10
0.637343
 20
5.929871
 30
0.0
 11
1.418001
 21
6.710701
 31
0.0
  0
ENDBLK
  5
31A
100
AcDbEntity
  8
ROHR
100
AcDbBlockEnd
  0
BLOCK
  5
31D
100
AcDbEntity
  8
ROHR
 62
     7
100
AcDbBlockBegin
  2
AI9-BLK11
 70
     0
 10
0.0
 20
0.0
 30
0.0
  3
AI9-BLK11
  1

  0
LINE
  5
35A
100
AcDbEntity
  8
ROHR
 62
     7
100
AcDbLine
 10
1.475793
 20
1.051874
 30
0.0
 11
0.871179
 21
0.447949
 31
0.0
  0
LINE
  5
359
100
AcDbEntity
  8
ROHR
 62
     7
100
AcDbLine
 10
1.394144
 20
1.465285
 30
0.0
 11
0.84224
 21
0.913381
 31
0.0
  0
LINE
  5
358
100
AcDbEntity
  8
ROHR
 62
     7
100
AcDbLine
 10
-0.91786
 20
1.093215
 30
0.0
 11
-1.721773
 21
0.289819
 31
0.0
  0
LINE
  5
357
100
AcDbEntity
  8
ROHR
 62
     7
100
AcDbLine
 10
-0.884098
 20
1.614113
 30
0.0
 11
-1.650631
 21
0.847924
 31
0.0
  0
LINE
  5
356
100
AcDbEntity
  8
ROHR
 62
     7
100
AcDbLine
 10
1.955522
 20
-4.798243
 30
0.0
 11
-0.514611
 21
-7.268376
 31
0.0
  0
LINE
  5
355
100
AcDbEntity
  8
ROHR
 62
     7
100
AcDbLine
 10
0.028853
 20
-6.237948
 30
0.0
 11
-0.864977
 21
-7.131951
 31
0.0
  0
LINE
  5
354
100
AcDbEntity
  8
ROHR
 62
     7
100
AcDbLine
 10
1.939503
 20
-5.300882
 30
0.0
 11
-0.096549
 21
-7.336934
 31
0.0
  0
LINE
  5
353
100
AcDbEntity
  8
ROHR
 62
     7
100
AcDbLine
 10
1.88662
 20
-5.841073
 30
0.0
 11
0.436063
 21
-7.291458
 31
0.0
  0
LINE
  5
352
100
AcDbEntity
  8
ROHR
 62
     7
100
AcDbLine
 10
-0.368367
 20
-6.148031
 30
0.0
 11
-1.164184
 21
-6.943848
 31
0.0
  0
LINE
  5
351
100
AcDbEntity
  8
ROHR
 62
     7
100
AcDbLine
 10
1.683188
 20
-0.201107
 30
0.0
 11
0.929228
 21
-0.95455
 31
0.0
  0
LINE
  5
350
100
AcDbEntity
  8
ROHR
 62
     7
100
AcDbLine
 10
1.741065
 20
-0.630022
 30
0.0
 11
0.939564
 21
-1.431351
 31
0.0
  0
LINE
  5
34F
100
AcDbEntity
  8
ROHR
 62
     7
100
AcDbLine
 10
1.838045
 20
-1.507143
 30
0.0
 11
0.945248
 21
-2.400112
 31
0.0
  0
LINE
  5
34E
100
AcDbEntity
  8
ROHR
 62
     7
100
AcDbLine
 10
1.550379
 20
0.640185
 30
0.0
 11
0.895122
 21
-0.015072
 31
0.0
  0
LINE
  5
34D
100
AcDbEntity
  8
ROHR
 62
     7
100
AcDbLine
 10
1.619626
 20
0.222295
 30
0.0
 11
0.914587
 21
-0.482572
 31
0.0
  0
LINE
  5
34C
100
AcDbEntity
  8
ROHR
 62
     7
100
AcDbLine
 10
1.792569
 20
-1.065482
 30
0.0
 11
0.945076
 21
-1.912975
 31
0.0
  0
LINE
  5
34B
100
AcDbEntity
  8
ROHR
 62
     7
100
AcDbLine
 10
1.962585
 20
-4.304216
 30
0.0
 11
0.832938
 21
-5.433863
 31
0.0
  0
LINE
  5
34A
100
AcDbEntity
  8
ROHR
 62
     7
100
AcDbLine
 10
1.961034
 20
-3.818802
 30
0.0
 11
0.86515
 21
-4.914343
 31
0.0
  0
LINE
  5
349
100
AcDbEntity
  8
ROHR
 62
     7
100
AcDbLine
 10
1.951388
 20
-3.341312
 30
0.0
 11
0.892538
 21
-4.400334
 31
0.0
  0
LINE
  5
348
100
AcDbEntity
  8
ROHR
 62
     7
100
AcDbLine
 10
1.876802
 20
-1.955006
 30
0.0
 11
0.940425
 21
-2.892072
 31
0.0
  0
LINE
  5
347
100
AcDbEntity
  8
ROHR
 62
     7
100
AcDbLine
 10
1.908841
 20
-2.410447
 30
0.0
 11
0.93009
 21
-3.388854
 31
0.0
  0
LINE
  5
346
100
AcDbEntity
  8
ROHR
 62
     7
100
AcDbLine
 10
1.933818
 20
-2.87209
 30
0.0
 11
0.914242
 21
-3.891838
 31
0.0
  0
LINE
  5
345
100
AcDbEntity
  8
ROHR
 62
     7
100
AcDbLine
 10
-0.985556
 20
-2.382886
 30
0.0
 11
-1.960001
 21
-3.357504
 31
0.0
  0
LINE
  5
344
100
AcDbEntity
  8
ROHR
 62
     7
100
AcDbLine
 10
-0.973153
 20
-2.857621
 30
0.0
 11
-1.962585
 21
-3.847052
 31
0.0
  0
LINE
  5
343
100
AcDbEntity
  8
ROHR
 62
     7
100
AcDbLine
 10
-0.934396
 20
-3.792619
 30
0.0
 11
-1.946737
 21
-4.804789
 31
0.0
  0
LINE
  5
342
100
AcDbEntity
  8
ROHR
 62
     7
100
AcDbLine
 10
-0.876863
 20
-4.709015
 30
0.0
 11
-1.895578
 21
-5.727385
 31
0.0
  0
LINE
  5
341
100
AcDbEntity
  8
ROHR
 62
     7
100
AcDbLine
 10
-0.841378
 20
-5.160322
 30
0.0
 11
-1.790675
 21
-6.109791
 31
0.0
  0
LINE
  5
340
100
AcDbEntity
  8
ROHR
 62
     7
100
AcDbLine
 10
-0.797281
 20
-5.603362
 30
0.0
 11
-1.628238
 21
-6.434319
 31
0.0
  0
LINE
  5
33F
100
AcDbEntity
  8
ROHR
 62
     7
100
AcDbLine
 10
-0.907869
 20
-4.252884
 30
0.0
 11
-1.929512
 21
-5.2747
 31
0.0
  0
LINE
  5
33E
100
AcDbEntity
  8
ROHR
 62
     7
100
AcDbLine
 10
-0.637084
 20
-5.929957
 30
0.0
 11
-1.418087
 21
-6.711304
 31
0.0
  0
LINE
  5
33D
100
AcDbEntity
  8
ROHR
 62
     7
100
AcDbLine
 10
-0.9561
 20
-3.327532
 30
0.0
 11
-1.957934
 21
-4.329021
 31
0.0
  0
LINE
  5
33C
100
AcDbEntity
  8
ROHR
 62
     7
100
AcDbLine
 10
-0.981422
 20
-0.430895
 30
0.0
 11
-1.875424
 21
-1.325242
 31
0.0
  0
LINE
  5
33B
100
AcDbEntity
  8
ROHR
 62
     7
100
AcDbLine
 10
-0.966435
 20
0.0714
 30
0.0
 11
-1.833566
 21
-0.796075
 31
0.0
  0
LINE
  5
33A
100
AcDbEntity
  8
ROHR
 62
     7
100
AcDbLine
 10
-0.945248
 20
0.579207
 30
0.0
 11
-1.782751
 21
-0.257952
 31
0.0
  0
LINE
  5
339
100
AcDbEntity
  8
ROHR
 62
     7
100
AcDbLine
 10
-0.990723
 20
-0.926989
 30
0.0
 11
-1.908497
 21
-1.844763
 31
0.0
  0
LINE
  5
338
100
AcDbEntity
  8
ROHR
 62
     7
100
AcDbLine
 10
-0.994341
 20
-1.417571
 30
0.0
 11
-1.933646
 21
-2.357048
 31
0.0
  0
LINE
  5
337
100
AcDbEntity
  8
ROHR
 62
     7
100
AcDbLine
 10
-0.992618
 20
-1.90264
 30
0.0
 11
-1.950355
 21
-2.861066
 31
0.0
  0
LINE
  5
336
100
AcDbEntity
  8
ROHR
 62
     7
100
AcDbLine
 10
1.313012
 20
1.863538
 30
0.0
 11
0.8102
 21
1.361243
 31
0.0
  0
LINE
  5
335
100
AcDbEntity
  8
ROHR
 62
     7
100
AcDbLine
 10
1.228779
 20
2.266614
 30
0.0
 11
0.773682
 21
1.811173
 31
0.0
  0
LINE
  5
334
100
AcDbEntity
  8
ROHR
 62
     7
100
AcDbLine
 10
1.142652
 20
2.666935
 30
0.0
 11
0.732858
 21
2.256968
 31
0.0
  0
LINE
  5
333
100
AcDbEntity
  8
ROHR
 62
     7
100
AcDbLine
 10
1.05463
 20
3.065877
 30
0.0
 11
0.688244
 21
2.699318
 31
0.0
  0
LINE
  5
332
100
AcDbEntity
  8
ROHR
 62
     7
100
AcDbLine
 10
-0.527013
 20
4.893155
 30
0.0
 11
-0.961612
 21
4.458384
 31
0.0
  0
LINE
  5
331
100
AcDbEntity
  8
ROHR
 62
     7
100
AcDbLine
 10
-0.843446
 20
2.141902
 30
0.0
 11
-1.568466
 21
1.417054
 31
0.0
  0
LINE
  5
330
100
AcDbEntity
  8
ROHR
 62
     7
100
AcDbLine
 10
-0.795731
 20
2.676581
 30
0.0
 11
-1.474415
 21
1.997897
 31
0.0
  0
LINE
  5
32F
100
AcDbEntity
  8
ROHR
 62
     7
100
AcDbLine
 10
-0.740437
 20
3.218839
 30
0.0
 11
-1.367961
 21
2.591487
 31
0.0
  0
LINE
  5
32E
100
AcDbEntity
  8
ROHR
 62
     7
100
AcDbLine
 10
-0.677564
 20
3.768676
 30
0.0
 11
-1.247555
 21
3.198168
 31
0.0
  0
LINE
  5
32D
100
AcDbEntity
  8
ROHR
 62
     7
100
AcDbLine
 10
-0.606595
 20
4.326093
 30
0.0
 11
-1.11268
 21
3.820353
 31
0.0
  0
LINE
  5
32C
100
AcDbEntity
  8
ROHR
 62
     7
100
AcDbLine
 10
0.873246
 20
3.858593
 30
0.0
 11
0.587475
 21
3.572995
 31
0.0
  0
LINE
  5
32B
100
AcDbEntity
  8
ROHR
 62
     7
100
AcDbLine
 10
0.779711
 20
4.251678
 30
0.0
 11
0.531664
 21
4.003632
 31
0.0
  0
LINE
  5
32A
100
AcDbEntity
  8
ROHR
 62
     7
100
AcDbLine
 10
0.684282
 20
4.64373
 30
0.0
 11
0.472236
 21
4.431168
 31
0.0
  0
LINE
  5
329
100
AcDbEntity
  8
ROHR
 62
     7
100
AcDbLine
 10
0.964713
 20
3.463441
 30
0.0
 11
0.639668
 21
3.138224
 31
0.0
  0
LINE
  5
328
100
AcDbEntity
  8
ROHR
 62
     7
100
AcDbLine
 10
0.587475
 20
5.033715
 30
0.0
 11
0.409191
 21
4.854915
 31
0.0
  0
LINE
  5
327
100
AcDbEntity
  8
ROHR
 62
     7
100
AcDbLine
 10
0.488773
 20
5.421805
 30
0.0
 11
0.342529
 21
5.275561
 31
0.0
  0
LINE
  5
326
100
AcDbEntity
  8
ROHR
 62
     7
100
AcDbLine
 10
0.388176
 20
5.808173
 30
0.0
 11
0.272765
 21
5.692762
 31
0.0
  0
LINE
  5
325
100
AcDbEntity
  8
ROHR
 62
     7
100
AcDbLine
 10
0.285857
 20
6.192818
 30
0.0
 11
0.199557
 21
6.106518
 31
0.0
  0
LINE
  5
324
100
AcDbEntity
  8
ROHR
 62
     7
100
AcDbLine
 10
0.181987
 20
6.576084
 30
0.0
 11
0.123076
 21
6.517173
 31
0.0
  0
LINE
  5
323
100
AcDbEntity
  8
ROHR
 62
     7
100
AcDbLine
 10
-0.340462
 20
6.053463
 30
0.0
 11
-0.604011
 21
5.789914
 31
0.0
  0
LINE
  5
322
100
AcDbEntity
  8
ROHR
 62
     7
100
AcDbLine
 10
0.076395
 20
6.957456
 30
0.0
 11
0.043494
 21
6.924556
 31
0.0
  0
LINE
  5
321
100
AcDbEntity
  8
ROHR
 62
     7
100
AcDbLine
 10
-0.232458
 20
6.648431
 30
0.0
 11
-0.393688
 21
6.487373
 31
0.0
  0
LINE
  5
320
100
AcDbEntity
  8
ROHR
 62
     7
100
AcDbLine
 10
-0.03092
 20
7.336934
 30
0.0
 11
-0.039188
 21
7.328666
 31
0.0
  0
LINE
  5
31F
100
AcDbEntity
  8
ROHR
 62
     7
100
AcDbLine
 10
-0.113774
 20
7.254079
 30
0.0
 11
-0.158561
 21
7.209293
 31
0.0
  0
LINE
  5
31E
100
AcDbEntity
  8
ROHR
 62
     7
100
AcDbLine
 10
-0.438647
 20
5.468314
 30
0.0
 11
-0.79263
 21
5.11433
 31
0.0
  0
ENDBLK
  5
35B
100
AcDbEntity
  8
ROHR
100
AcDbBlockEnd
  0
ENDSEC
  0
SECTION
  2
ENTITIES
  0
SPLINE
  5
380
100
AcDbEntity
  8
SCHRAUBE
 62
     7
100
AcDbSpline
210
0.0
220
0.0
230
1.0
 70
     8
 71
     3
 72
     8
 73
     4
 74
     0
 42
0.00000001
 43
0.00000001
 40
0.0
 40
0.0
 40
0.0
 40
0.0
 40
1.0
 40
1.0
 40
1.0
 40
1.0
 10
119.84557020399305
 20
130.99527723524304
 30
0.0
 10
119.70569932725694
 20
131.17511121961803
 30
0.0
 10
119.70569932725694
 20
131.42660319010415
 30
0.0
 10
119.84557020399305
 20
131.60643717447917
 30
0.0
  0
SPLINE
  5
37F
100
AcDbEntity
  8
SCHRAUBE
 62
     7
100
AcDbSpline
210
0.0
220
0.0
230
1.0
 70
     8
 71
     3
 72
     8
 73
     4
 74
     0
 42
0.00000001
 43
0.00000001
 40
0.0
 40
0.0
 40
0.0
 40
0.0
 40
1.0
 40
1.0
 40
1.0
 40
1.0
 10
120.73750542534721
 20
131.60643717447917
 30
0.0
 10
120.87772081163193
 20
131.42660319010415
 30
0.0
 10
120.87772081163193
 20
131.17511121961803
 30
0.0
 10
120.73750542534721
 20
130.99527723524304
 30
0.0
  0
SPLINE
  5
37E
100
AcDbEntity
  8
SCHRAUBE
 62
     7
100
AcDbSpline
210
0.0
220
0.0
230
1.0
 70
     8
 71
     3
 72
     8
 73
     4
 74
     0
 42
0.00000001
 43
0.00000001
 40
0.0
 40
0.0
 40
0.0
 40
0.0
 40
1.0
 40
1.0
 40
1.0
 40
1.0
 10
119.84557020399305
 20
129.16041937934025
 30
0.0
 10
119.70569932725694
 20
129.34025336371528
 30
0.0
 10
119.70569932725694
 20
129.59208984374999
 30
0.0
 10
119.84557020399305
 20
129.77192382812498
 30
0.0
  0
SPLINE
  5
37D
100
AcDbEntity
  8
SCHRAUBE
 62
     7
100
AcDbSpline
210
0.0
220
0.0
230
1.0
 70
     8
 71
     3
 72
     8
 73
     4
 74
     0
 42
0.00000001
 43
0.00000001
 40
0.0
 40
0.0
 40
0.0
 40
0.0
 40
1.0
 40
1.0
 40
1.0
 40
1.0
 10
120.73750542534721
 20
129.77192382812498
 30
0.0
 10
120.87772081163193
 20
129.59208984374999
 30
0.0
 10
120.87772081163193
 20
129.34025336371528
 30
0.0
 10
120.73750542534721
 20
129.16041937934025
 30
0.0
  0
SPLINE
  5
37C
100
AcDbEntity
  8
SCHRAUBE
 62
     7
100
AcDbSpline
210
0.0
220
0.0
230
1.0
 70
     8
 71
     3
 72
     8
 73
     4
 74
     0
 42
0.00000001
 43
0.00000001
 40
0.0
 40
0.0
 40
0.0
 40
0.0
 40
1.0
 40
1.0
 40
1.0
 40
1.0
 10
119.84557020399305
 20
129.77192382812498
 30
0.0
 10
119.70569932725694
 20
130.16776529947916
 30
0.0
 10
119.70569932725694
 20
130.59909125434027
 30
0.0
 10
119.84557020399305
 20
130.99527723524304
 30
0.0
  0
SPLINE
  5
37B
100
AcDbEntity
  8
SCHRAUBE
 62
     7
100
AcDbSpline
210
0.0
220
0.0
230
1.0
 70
     8
 71
     3
 72
     8
 73
     4
 74
     0
 42
0.00000001
 43
0.00000001
 40
0.0
 40
0.0
 40
0.0
 40
0.0
 40
1.0
 40
1.0
 40
1.0
 40
1.0
 10
120.73750542534721
 20
130.99527723524304
 30
0.0
 10
120.87772081163193
 20
130.59909125434027
 30
0.0
 10
120.87772081163193
 20
130.16776529947916
 30
0.0
 10
120.73750542534721
 20
129.77192382812498
 30
0.0
  0
SPLINE
  5
37A
100
AcDbEntity
  8
SCHRAUBE
 62
     7
100
AcDbSpline
210
0.0
220
0.0
230
1.0
 70
     8
 71
     3
 72
     8
 73
     4
 74
     0
 42
0.00000001
 43
0.00000001
 40
0.0
 40
0.0
 40
0.0
 40
0.0
 40
1.0
 40
1.0
 40
1.0
 40
1.0
 10
119.84557020399305
 20
165.28741319444444
 30
0.0
 10
119.70569932725694
 20
165.46724717881943
 30
0.0
 10
119.70569932725694
 20
165.71908365885415
 30
0.0
 10
119.84557020399305
 20
165.89891764322914
 30
0.0
  0
SPLINE
  5
379
100
AcDbEntity
  8
SCHRAUBE
 62
     7
100
AcDbSpline
210
0.0
220
0.0
230
1.0
 70
     8
 71
     3
 72
     8
 73
     4
 74
     0
 42
0.00000001
 43
0.00000001
 40
0.0
 40
0.0
 40
0.0
 40
0.0
 40
1.0
 40
1.0
 40
1.0
 40
1.0
 10
120.73750542534721
 20
165.89891764322914
 30
0.0
 10
120.87772081163193
 20
165.71908365885415
 30
0.0
 10
120.87772081163193
 20
165.46724717881943
 30
0.0
 10
120.73750542534721
 20
165.28741319444444
 30
0.0
  0
SPLINE
  5
378
100
AcDbEntity
  8
SCHRAUBE
 62
     7
100
AcDbSpline
210
0.0
220
0.0
230
1.0
 70
     8
 71
     3
 72
     8
 73
     4
 74
     0
 42
0.00000001
 43
0.00000001
 40
0.0
 40
0.0
 40
0.0
 40
0.0
 40
1.0
 40
1.0
 40
1.0
 40
1.0
 10
119.84557020399305
 20
163.45289984809025
 30
0.0
 10
119.70569932725694
 20
163.63273383246525
 30
0.0
 10
119.70569932725694
 20
163.88457031249999
 30
0.0
 10
119.84557020399305
 20
164.06440429687498
 30
0.0
  0
SPLINE
  5
377
100
AcDbEntity
  8
SCHRAUBE
 62
     7
100
AcDbSpline
210
0.0
220
0.0
230
1.0
 70
     8
 71
     3
 72
     8
 73
     4
 74
     0
 42
0.00000001
 43
0.00000001
 40
0.0
 40
0.0
 40
0.0
 40
0.0
 40
1.0
 40
1.0
 40
1.0
 40
1.0
 10
120.73750542534721
 20
164.06440429687498
 30
0.0
 10
120.87772081163193
 20
163.88457031249999
 30
0.0
 10
120.87772081163193
 20
163.63273383246525
 30
0.0
 10
120.73750542534721
 20
163.45289984809025
 30
0.0
  0
SPLINE
  5
376
100
AcDbEntity
  8
SCHRAUBE
 62
     7
100
AcDbSpline
210
0.0
220
0.0
230
1.0
 70
     8
 71
     3
 72
     8
 73
     4
 74
     0
 42
0.00000001
 43
0.00000001
 40
0.0
 40
0.0
 40
0.0
 40
0.0
 40
1.0
 40
1.0
 40
1.0
 40
1.0
 10
119.84557020399305
 20
164.06440429687498
 30
0.0
 10
119.70569932725694
 20
164.46024576822916
 30
0.0
 10
119.70569932725694
 20
164.89174397786456
 30
0.0
 10
119.84557020399305
 20
165.28741319444444
 30
0.0
  0
SPLINE
  5
375
100
AcDbEntity
  8
SCHRAUBE
 62
     7
100
AcDbSpline
210
0.0
220
0.0
230
1.0
 70
     8
 71
     3
 72
     8
 73
     4
 74
     0
 42
0.00000001
 43
0.00000001
 40
0.0
 40
0.0
 40
0.0
 40
0.0
 40
1.0
 40
1.0
 40
1.0
 40
1.0
 10
120.73750542534721
 20
165.28741319444444
 30
0.0
 10
120.87772081163193
 20
164.89174397786456
 30
0.0
 10
120.87772081163193
 20
164.46024576822916
 30
0.0
 10
120.73750542534721
 20
164.06440429687498
 30
0.0
  0
POLYLINE
  5
36F
100
AcDbEntity
  8
SCHRAUBE
 62
     7
100
AcDb2dPolyline
 66
     1
 10
0.0
 20
0.0
 30
0.0
 70
     1
  0
VERTEX
  5
370
100
AcDbEntity
  8
SCHRAUBE
 62
     7
100
AcDbVertex
100
AcDb2dVertex
 10
119.299867
 20
128.26814
 30
0.0
  0
VERTEX
  5
371
100
AcDbEntity
  8
SCHRAUBE
 62
     7
100
AcDbVertex
100
AcDb2dVertex
 10
119.299867
 20
132.498717
 30
0.0
  0
VERTEX
  5
372
100
AcDbEntity
  8
SCHRAUBE
 62
     7
100
AcDbVertex
100
AcDb2dVertex
 10
119.740839
 20
132.498717
 30
0.0
  0
VERTEX
  5
373
100
AcDbEntity
  8
SCHRAUBE
 62
     7
100
AcDbVertex
100
AcDb2dVertex
 10
119.740839
 20
128.26814
 30
0.0
  0
SEQEND
  5
374
100
AcDbEntity
  8
SCHRAUBE
 62
     7
  0
LINE
  5
36E
100
AcDbEntity
  8
SCHRAUBE
 62
     7
100
AcDbLine
 10
120.737505
 20
131.606437
 30
0.0
 11
119.84557
 21
131.606437
 31
0.0
  0
LINE
  5
36D
100
AcDbEntity
  8
SCHRAUBE
 62
     7
100
AcDbLine
 10
120.737505
 20
130.995277
 30
0.0
 11
119.84557
 21
130.995277
 31
0.0
  0
LINE
  5
36C
100
AcDbEntity
  8
SCHRAUBE
 62
     7
100
AcDbLine
 10
120.737505
 20
129.771924
 30
0.0
 11
119.84557
 21
129.771924
 31
0.0
  0
LINE
  5
36B
100
AcDbEntity
  8
SCHRAUBE
 62
     7
100
AcDbLine
 10
120.737505
 20
129.160419
 30
0.0
 11
119.84557
 21
129.160419
 31
0.0
  0
LINE
  5
36A
100
AcDbEntity
  8
SCHRAUBE
 62
     7
100
AcDbLine
 10
119.740839
 20
129.465999
 30
0.0
 11
119.740839
 21
131.301202
 31
0.0
  0
LINE
  5
369
100
AcDbEntity
  8
SCHRAUBE
 62
     7
100
AcDbLine
 10
120.842581
 20
129.465999
 30
0.0
 11
120.842581
 21
131.301202
 31
0.0
  0
POLYLINE
  5
363
100
AcDbEntity
  8
SCHRAUBE
 62
     7
100
AcDb2dPolyline
 66
     1
 10
0.0
 20
0.0
 30
0.0
 70
     1
  0
VERTEX
  5
364
100
AcDbEntity
  8
SCHRAUBE
 62
     7
100
AcDbVertex
100
AcDb2dVertex
 10
119.299867
 20
166.791542
 30
0.0
  0
VERTEX
  5
365
100
AcDbEntity
  8
SCHRAUBE
 62
     7
100
AcDbVertex
100
AcDb2dVertex
 10
119.299867
 20
162.560276
 30
0.0
  0
VERTEX
  5
366
100
AcDbEntity
  8
SCHRAUBE
 62
     7
100
AcDbVertex
100
AcDb2dVertex
 10
119.740839
 20
162.560276
 30
0.0
  0
VERTEX
  5
367
100
AcDbEntity
  8
SCHRAUBE
 62
     7
100
AcDbVertex
100
AcDb2dVertex
 10
119.740839
 20
166.791542
 30
0.0
  0
SEQEND
  5
368
100
AcDbEntity
  8
SCHRAUBE
 62
     7
  0
LINE
  5
362
100
AcDbEntity
  8
SCHRAUBE
 62
     7
100
AcDbLine
 10
120.737505
 20
165.898918
 30
0.0
 11
119.84557
 21
165.898918
 31
0.0
  0
LINE
  5
361
100
AcDbEntity
  8
SCHRAUBE
 62
     7
100
AcDbLine
 10
120.737505
 20
165.287413
 30
0.0
 11
119.84557
 21
165.287413
 31
0.0
  0
LINE
  5
360
100
AcDbEntity
  8
SCHRAUBE
 62
     7
100
AcDbLine
 10
120.737505
 20
164.064404
 30
0.0
 11
119.84557
 21
164.064404
 31
0.0
  0
LINE
  5
35F
100
AcDbEntity
  8
SCHRAUBE
 62
     7
100
AcDbLine
 10
120.737505
 20
163.4529
 30
0.0
 11
119.84557
 21
163.4529
 31
0.0
  0
LINE
  5
35E
100
AcDbEntity
  8
SCHRAUBE
 62
     7
100
AcDbLine
 10
119.740839
 20
163.758824
 30
0.0
 11
119.740839
 21
165.593338
 31
0.0
  0
LINE
  5
35D
100
AcDbEntity
  8
SCHRAUBE
 62
     7
100
AcDbLine
 10
120.842581
 20
163.758824
 30
0.0
 11
120.842581
 21
165.593338
 31
0.0
  0
INSERT
  5
31C
100
AcDbEntity
  8
ROHR
 62
     7
100
AcDbBlockReference
  2
AI9-BLK11
 10
101.708951
 20
142.774317
 30
0.0
  0
INSERT
  5
2DB
100
AcDbEntity
  8
ROHR
  6
AI9-LType2
 62
     7
100
AcDbBlockReference
  2
AI9-BLK10
 10
165.362172
 20
152.289412
 30
0.0
  0
LINE
  5
2D8
100
AcDbEntity
  8
GETRENNT
  6
AI9-LType2
 62
     7
100
AcDbLine
 10
107.685072
 20
91.830054
 30
0.0
 11
161.103689
 21
91.830054
 31
0.0
  0
LINE
  5
2D7
100
AcDbEntity
  8
GETRENNT
  6
AI9-LType2
 62
     7
100
AcDbLine
 10
107.685072
 20
202.868237
 30
0.0
 11
161.103689
 21
202.868237
 31
0.0
  0
SPLINE
  5
2D4
100
AcDbEntity
  8
DAEMMUNG
 62
     7
100
AcDbSpline
210
0.0
220
0.0
230
1.0
 70
     8
 71
     3
 72
    17
 73
    13
 74
     0
 42
0.00000001
 43
0.00000001
 40
0.0
 40
0.0
 40
0.0
 40
0.0
 40
1.0
 40
1.0
 40
1.0
 40
2.0
 40
2.0
 40
2.0
 40
3.0
 40
3.0
 40
3.0
 40
4.0
 40
4.0
 40
4.0
 40
4.0
 10
118.95122341579859
 20
189.52055935329858
 30
0.0
 10
118.26702745225694
 20
189.25304768880207
 30
0.0
 10
117.48809136284721
 20
189.47301703559026
 30
0.0
 10
117.04470757378471
 20
190.05868326822915
 30
0.0
 10
116.60132378472221
 20
190.64469401041666
 30
0.0
 10
116.60132378472221
 20
191.45394694010415
 30
0.0
 10
117.04470757378471
 20
192.03961317274303
 30
0.0
 10
117.48809136284721
 20
192.62562391493054
 30
0.0
 10
118.26702745225694
 20
192.84559326171873
 30
0.0
 10
118.95122341579859
 20
192.57808159722219
 30
0.0
 10
118.95122341579859
 20
192.57808159722219
 30
0.0
 10
122.88207736545138
 20
191.0493204752604
 30
0.0
 10
122.88207736545138
 20
191.0493204752604
 30
0.0
  0
SPLINE
  5
2D3
100
AcDbEntity
  8
DAEMMUNG
 62
     7
100
AcDbSpline
210
0.0
220
0.0
230
1.0
 70
     8
 71
     3
 72
    17
 73
    13
 74
     0
 42
0.00000001
 43
0.00000001
 40
0.0
 40
0.0
 40
0.0
 40
0.0
 40
1.0
 40
1.0
 40
1.0
 40
2.0
 40
2.0
 40
2.0
 40
3.0
 40
3.0
 40
3.0
 40
4.0
 40
4.0
 40
4.0
 40
4.0
 10
122.88207736545138
 20
187.5549601236979
 30
0.0
 10
123.59004448784721
 20
187.3287896050347
 30
0.0
 10
124.36277940538193
 20
187.58286539713541
 30
0.0
 10
124.79823947482637
 20
188.18455132378472
 30
0.0
 10
125.23404405381943
 20
188.7860649956597
 30
0.0
 10
125.23404405381943
 20
189.59945203993053
 30
0.0
 10
124.79823947482637
 20
190.20131022135416
 30
0.0
 10
124.36277940538193
 20
190.80282389322915
 30
0.0
 10
123.59004448784721
 20
191.05672743055553
 30
0.0
 10
122.88207736545138
 20
190.83107367621525
 30
0.0
 10
122.88207736545138
 20
190.83107367621525
 30
0.0
 10
118.95122341579859
 20
189.52055935329858
 30
0.0
 10
118.95122341579859
 20
189.52055935329858
 30
0.0
  0
SPLINE
  5
2D2
100
AcDbEntity
  8
DAEMMUNG
 62
     7
100
AcDbSpline
210
0.0
220
0.0
230
1.0
 70
     8
 71
     3
 72
    17
 73
    13
 74
     0
 42
0.00000001
 43
0.00000001
 40
0.0
 40
0.0
 40
0.0
 40
0.0
 40
1.0
 40
1.0
 40
1.0
 40
2.0
 40
2.0
 40
2.0
 40
3.0
 40
3.0
 40
3.0
 40
4.0
 40
4.0
 40
4.0
 40
4.0
 10
122.88207736545138
 20
95.50631510416666
 30
0.0
 10
123.59004448784721
 20
95.280661349826374
 30
0.0
 10
124.36277940538193
 20
95.534220377604157
 30
0.0
 10
124.79823947482637
 20
96.135734049479154
 30
0.0
 10
125.23404405381943
 20
96.737936740451374
 30
0.0
 10
125.23404405381943
 20
97.550979275173603
 30
0.0
 10
124.79823947482637
 20
98.1524929470486
 30
0.0
 10
124.36277940538193
 20
98.754006618923597
 30
0.0
 10
123.59004448784721
 20
99.008254665798603
 30
0.0
 10
122.88207736545138
 20
98.78225640190972
 30
0.0
 10
122.88207736545138
 20
98.78225640190972
 30
0.0
 10
118.95122341579859
 20
97.472086588541657
 30
0.0
 10
118.95122341579859
 20
97.472086588541657
 30
0.0
  0
SPLINE
  5
2D1
100
AcDbEntity
  8
DAEMMUNG
 62
     7
100
AcDbSpline
210
0.0
220
0.0
230
1.0
 70
     8
 71
     3
 72
    17
 73
    13
 74
     0
 42
0.00000001
 43
0.00000001
 40
0.0
 40
0.0
 40
0.0
 40
0.0
 40
1.0
 40
1.0
 40
1.0
 40
2.0
 40
2.0
 40
2.0
 40
3.0
 40
3.0
 40
3.0
 40
4.0
 40
4.0
 40
4.0
 40
4.0
 10
118.95122341579859
 20
97.472086588541657
 30
0.0
 10
118.26702745225694
 20
97.20440266927082
 30
0.0
 10
117.48809136284721
 20
97.424199761284711
 30
0.0
 10
117.04470757378471
 20
98.009865993923597
 30
0.0
 10
116.60132378472221
 20
98.59622124565972
 30
0.0
 10
116.60132378472221
 20
99.405129665798597
 30
0.0
 10
117.04470757378471
 20
99.99148491753472
 30
0.0
 10
117.48809136284721
 20
100.57715115017361
 30
0.0
 10
118.26702745225694
 20
100.7969482421875
 30
0.0
 10
118.95122341579859
 20
100.52926432291666
 30
0.0
 10
118.95122341579859
 20
100.52926432291666
 30
0.0
 10
122.88207736545138
 20
99.000675455729152
 30
0.0
 10
122.88207736545138
 20
99.000675455729152
 30
0.0
  0
SPLINE
  5
2D0
100
AcDbEntity
  8
DAEMMUNG
 62
     7
100
AcDbSpline
210
0.0
220
0.0
230
1.0
 70
     8
 71
     3
 72
    14
 73
    10
 74
     0
 42
0.00000001
 43
0.00000001
 40
0.0
 40
0.0
 40
0.0
 40
0.0
 40
1.0
 40
1.0
 40
1.0
 40
2.0
 40
2.0
 40
2.0
 40
3.0
 40
3.0
 40
3.0
 40
3.0
 10
116.71604546440972
 20
91.89895562065972
 30
0.0
 10
116.67746039496527
 20
92.459817165798597
 30
0.0
 10
116.92860785590277
 20
93.001386176215263
 30
0.0
 10
117.38163791232638
 20
93.334871419270826
 30
0.0
 10
117.83501247829859
 20
93.667667643229152
 30
0.0
 10
118.4272243923611
 20
93.745182291666652
 30
0.0
 10
118.95122341579859
 20
93.540543619791663
 30
0.0
 10
118.95122341579859
 20
93.540543619791663
 30
0.0
 10
122.88207736545138
 20
92.011954752604154
 30
0.0
 10
122.88207736545138
 20
92.011954752604154
 30
0.0
  0
SPLINE
  5
2CF
100
AcDbEntity
  8
DAEMMUNG
 62
     7
100
AcDbSpline
210
0.0
220
0.0
230
1.0
 70
     8
 71
     3
 72
    17
 73
    13
 74
     0
 42
0.00000001
 43
0.00000001
 40
0.0
 40
0.0
 40
0.0
 40
0.0
 40
1.0
 40
1.0
 40
1.0
 40
2.0
 40
2.0
 40
2.0
 40
3.0
 40
3.0
 40
3.0
 40
4.0
 40
4.0
 40
4.0
 40
4.0
 10
122.88207736545138
 20
92.011954752604154
 30
0.0
 10
123.59004448784721
 20
91.785956488715271
 30
0.0
 10
124.36277940538193
 20
92.039860026041652
 30
0.0
 10
124.79823947482637
 20
92.641373697916663
 30
0.0
 10
125.23404405381943
 20
93.243231879340271
 30
0.0
 10
125.23404405381943
 20
94.056963433159709
 30
0.0
 10
124.79823947482637
 20
94.65847710503472
 30
0.0
 10
124.36277940538193
 20
95.259990776909717
 30
0.0
 10
123.59004448784721
 20
95.514238823784709
 30
0.0
 10
122.88207736545138
 20
95.287551540798603
 30
0.0
 10
122.88207736545138
 20
95.287551540798603
 30
0.0
 10
118.95122341579859
 20
93.977037217881943
 30
0.0
 10
118.95122341579859
 20
93.977037217881943
 30
0.0
  0
SPLINE
  5
2CE
100
AcDbEntity
  8
DAEMMUNG
 62
     7
100
AcDbSpline
210
0.0
220
0.0
230
1.0
 70
     8
 71
     3
 72
    17
 73
    13
 74
     0
 42
0.00000001
 43
0.00000001
 40
0.0
 40
0.0
 40
0.0
 40
0.0
 40
1.0
 40
1.0
 40
1.0
 40
2.0
 40
2.0
 40
2.0
 40
3.0
 40
3.0
 40
3.0
 40
4.0
 40
4.0
 40
4.0
 40
4.0
 10
118.95122341579859
 20
93.977037217881943
 30
0.0
 10
118.26702745225694
 20
93.710042317708329
 30
0.0
 10
117.48809136284721
 20
93.929494900173609
 30
0.0
 10
117.04470757378471
 20
94.515850151909717
 30
0.0
 10
116.60132378472221
 20
95.101516384548603
 30
0.0
 10
116.60132378472221
 20
95.911113823784717
 30
0.0
 10
117.04470757378471
 20
96.496780056423603
 30
0.0
 10
117.48809136284721
 20
97.083135308159711
 30
0.0
 10
118.26702745225694
 20
97.302587890624991
 30
0.0
 10
118.95122341579859
 20
97.034903971354154
 30
0.0
 10
118.95122341579859
 20
97.034903971354154
 30
0.0
 10
122.88207736545138
 20
95.50631510416666
 30
0.0
 10
122.88207736545138
 20
95.50631510416666
 30
0.0
  0
SPLINE
  5
2CD
100
AcDbEntity
  8
DAEMMUNG
 62
     7
100
AcDbSpline
210
0.0
220
0.0
230
1.0
 70
     8
 71
     3
 72
    17
 73
    13
 74
     0
 42
0.00000001
 43
0.00000001
 40
0.0
 40
0.0
 40
0.0
 40
0.0
 40
1.0
 40
1.0
 40
1.0
 40
2.0
 40
2.0
 40
2.0
 40
3.0
 40
3.0
 40
3.0
 40
4.0
 40
4.0
 40
4.0
 40
4.0
 10
122.88207736545138
 20
112.97811686197916
 30
0.0
 10
123.59004448784721
 20
112.75211859809026
 30
0.0
 10
124.36277940538193
 20
113.00602213541666
 30
0.0
 10
124.79823947482637
 20
113.60788031684027
 30
0.0
 10
125.23404405381943
 20
114.20939398871526
 30
0.0
 10
125.23404405381943
 20
115.02312554253471
 30
0.0
 10
124.79823947482637
 20
115.62463921440971
 30
0.0
 10
124.36277940538193
 20
116.22649739583332
 30
0.0
 10
123.59004448784721
 20
116.48040093315971
 30
0.0
 10
122.88207736545138
 20
116.25440266927082
 30
0.0
 10
122.88207736545138
 20
116.25440266927082
 30
0.0
 10
118.95122341579859
 20
114.94388834635416
 30
0.0
 10
118.95122341579859
 20
114.94388834635416
 30
0.0
  0
SPLINE
  5
2CC
100
AcDbEntity
  8
DAEMMUNG
 62
     7
100
AcDbSpline
210
0.0
220
0.0
230
1.0
 70
     8
 71
     3
 72
    17
 73
    13
 74
     0
 42
0.00000001
 43
0.00000001
 40
0.0
 40
0.0
 40
0.0
 40
0.0
 40
1.0
 40
1.0
 40
1.0
 40
2.0
 40
2.0
 40
2.0
 40
3.0
 40
3.0
 40
3.0
 40
4.0
 40
4.0
 40
4.0
 40
4.0
 10
118.95122341579859
 20
111.44952799479165
 30
0.0
 10
118.26702745225694
 20
111.18184407552083
 30
0.0
 10
117.48809136284721
 20
111.40198567708332
 30
0.0
 10
117.04470757378471
 20
111.98730740017361
 30
0.0
 10
116.60132378472221
 20
112.57366265190971
 30
0.0
 10
116.60132378472221
 20
113.38257107204861
 30
0.0
 10
117.04470757378471
 20
113.96892632378471
 30
0.0
 10
117.48809136284721
 20
114.5545925564236
 30
0.0
 10
118.26702745225694
 20
114.77438964843749
 30
0.0
 10
118.95122341579859
 20
114.50705023871527
 30
0.0
 10
118.95122341579859
 20
114.50705023871527
 30
0.0
 10
122.88207736545138
 20
112.97811686197916
 30
0.0
 10
122.88207736545138
 20
112.97811686197916
 30
0.0
  0
SPLINE
  5
2CB
100
AcDbEntity
  8
DAEMMUNG
 62
     7
100
AcDbSpline
210
0.0
220
0.0
230
1.0
 70
     8
 71
     3
 72
    17
 73
    13
 74
     0
 42
0.00000001
 43
0.00000001
 40
0.0
 40
0.0
 40
0.0
 40
0.0
 40
1.0
 40
1.0
 40
1.0
 40
2.0
 40
2.0
 40
2.0
 40
3.0
 40
3.0
 40
3.0
 40
4.0
 40
4.0
 40
4.0
 40
4.0
 10
122.88207736545138
 20
99.000675455729152
 30
0.0
 10
123.59004448784721
 20
98.774677191840269
 30
0.0
 10
124.36277940538193
 20
99.028580729166663
 30
0.0
 10
124.79823947482637
 20
99.63009440104166
 30
0.0
 10
125.23404405381943
 20
100.23195258246527
 30
0.0
 10
125.23404405381943
 20
101.04568413628472
 30
0.0
 10
124.79823947482637
 20
101.64719780815972
 30
0.0
 10
124.36277940538193
 20
102.24871148003471
 30
0.0
 10
123.59004448784721
 20
102.50295952690971
 30
0.0
 10
122.88207736545138
 20
102.2762722439236
 30
0.0
 10
122.88207736545138
 20
102.2762722439236
 30
0.0
 10
118.95122341579859
 20
100.96644694010416
 30
0.0
 10
118.95122341579859
 20
100.96644694010416
 30
0.0
  0
SPLINE
  5
2CA
100
AcDbEntity
  8
DAEMMUNG
 62
     7
100
AcDbSpline
210
0.0
220
0.0
230
1.0
 70
     8
 71
     3
 72
    17
 73
    13
 74
     0
 42
0.00000001
 43
0.00000001
 40
0.0
 40
0.0
 40
0.0
 40
0.0
 40
1.0
 40
1.0
 40
1.0
 40
2.0
 40
2.0
 40
2.0
 40
3.0
 40
3.0
 40
3.0
 40
4.0
 40
4.0
 40
4.0
 40
4.0
 10
118.95122341579859
 20
107.95516764322916
 30
0.0
 10
118.26702745225694
 20
107.68748372395832
 30
0.0
 10
117.48809136284721
 20
107.90762532552083
 30
0.0
 10
117.04470757378471
 20
108.49329155815971
 30
0.0
 10
116.60132378472221
 20
109.0789577907986
 30
0.0
 10
116.60132378472221
 20
109.88855523003471
 30
0.0
 10
117.04470757378471
 20
110.4742214626736
 30
0.0
 10
117.48809136284721
 20
111.06057671440971
 30
0.0
 10
118.26702745225694
 20
111.28002929687499
 30
0.0
 10
118.95122341579859
 20
111.01303439670139
 30
0.0
 10
118.95122341579859
 20
111.01303439670139
 30
0.0
 10
122.88207736545138
 20
109.48375651041665
 30
0.0
 10
122.88207736545138
 20
109.48375651041665
 30
0.0
  0
SPLINE
  5
2C9
100
AcDbEntity
  8
DAEMMUNG
 62
     7
100
AcDbSpline
210
0.0
220
0.0
230
1.0
 70
     8
 71
     3
 72
    17
 73
    13
 74
     0
 42
0.00000001
 43
0.00000001
 40
0.0
 40
0.0
 40
0.0
 40
0.0
 40
1.0
 40
1.0
 40
1.0
 40
2.0
 40
2.0
 40
2.0
 40
3.0
 40
3.0
 40
3.0
 40
4.0
 40
4.0
 40
4.0
 40
4.0
 10
122.88207736545138
 20
105.98939615885416
 30
0.0
 10
123.59004448784721
 20
105.76339789496527
 30
0.0
 10
124.36277940538193
 20
106.01730143229166
 30
0.0
 10
124.79823947482637
 20
106.61915961371527
 30
0.0
 10
125.23404405381943
 20
107.22067328559027
 30
0.0
 10
125.23404405381943
 20
108.03440483940972
 30
0.0
 10
124.79823947482637
 20
108.63591851128471
 30
0.0
 10
124.36277940538193
 20
109.23743218315971
 30
0.0
 10
123.59004448784721
 20
109.49168023003472
 30
0.0
 10
122.88207736545138
 20
109.26568196614582
 30
0.0
 10
122.88207736545138
 20
109.26568196614582
 30
0.0
 10
118.95122341579859
 20
107.95516764322916
 30
0.0
 10
118.95122341579859
 20
107.95516764322916
 30
0.0
  0
SPLINE
  5
2C8
100
AcDbEntity
  8
DAEMMUNG
 62
     7
100
AcDbSpline
210
0.0
220
0.0
230
1.0
 70
     8
 71
     3
 72
    17
 73
    13
 74
     0
 42
0.00000001
 43
0.00000001
 40
0.0
 40
0.0
 40
0.0
 40
0.0
 40
1.0
 40
1.0
 40
1.0
 40
2.0
 40
2.0
 40
2.0
 40
3.0
 40
3.0
 40
3.0
 40
4.0
 40
4.0
 40
4.0
 40
4.0
 10
118.95122341579859
 20
100.96644694010416
 30
0.0
 10
118.26702745225694
 20
100.69876302083333
 30
0.0
 10
117.48809136284721
 20
100.91821560329861
 30
0.0
 10
117.04470757378471
 20
101.50457085503471
 30
0.0
 10
116.60132378472221
 20
102.0902370876736
 30
0.0
 10
116.60132378472221
 20
102.89983452690971
 30
0.0
 10
117.04470757378471
 20
103.4855007595486
 30
0.0
 10
117.48809136284721
 20
104.07185601128471
 30
0.0
 10
118.26702745225694
 20
104.29130859374999
 30
0.0
 10
118.95122341579859
 20
104.02362467447915
 30
0.0
 10
118.95122341579859
 20
104.02362467447915
 30
0.0
 10
122.88207736545138
 20
102.49503580729166
 30
0.0
 10
122.88207736545138
 20
102.49503580729166
 30
0.0
  0
SPLINE
  5
2C7
100
AcDbEntity
  8
DAEMMUNG
 62
     7
100
AcDbSpline
210
0.0
220
0.0
230
1.0
 70
     8
 71
     3
 72
    17
 73
    13
 74
     0
 42
0.00000001
 43
0.00000001
 40
0.0
 40
0.0
 40
0.0
 40
0.0
 40
1.0
 40
1.0
 40
1.0
 40
2.0
 40
2.0
 40
2.0
 40
3.0
 40
3.0
 40
3.0
 40
4.0
 40
4.0
 40
4.0
 40
4.0
 10
122.88207736545138
 20
102.49503580729166
 30
0.0
 10
123.59004448784721
 20
102.26938205295139
 30
0.0
 10
124.36277940538193
 20
102.52294108072915
 30
0.0
 10
124.79823947482637
 20
103.12514377170137
 30
0.0
 10
125.23404405381943
 20
103.72665744357639
 30
0.0
 10
125.23404405381943
 20
104.5396999782986
 30
0.0
 10
124.79823947482637
 20
105.1412136501736
 30
0.0
 10
124.36277940538193
 20
105.74272732204861
 30
0.0
 10
123.59004448784721
 20
105.9969753689236
 30
0.0
 10
122.88207736545138
 20
105.77132161458333
 30
0.0
 10
122.88207736545138
 20
105.77132161458333
 30
0.0
 10
118.95122341579859
 20
104.46080729166665
 30
0.0
 10
118.95122341579859
 20
104.46080729166665
 30
0.0
  0
SPLINE
  5
2C6
100
AcDbEntity
  8
DAEMMUNG
 62
     7
100
AcDbSpline
210
0.0
220
0.0
230
1.0
 70
     8
 71
     3
 72
    17
 73
    13
 74
     0
 42
0.00000001
 43
0.00000001
 40
0.0
 40
0.0
 40
0.0
 40
0.0
 40
1.0
 40
1.0
 40
1.0
 40
2.0
 40
2.0
 40
2.0
 40
3.0
 40
3.0
 40
3.0
 40
4.0
 40
4.0
 40
4.0
 40
4.0
 10
118.95122341579859
 20
104.46080729166665
 30
0.0
 10
118.26702745225694
 20
104.19312337239582
 30
0.0
 10
117.48809136284721
 20
104.41326497395832
 30
0.0
 10
117.04470757378471
 20
104.99858669704861
 30
0.0
 10
116.60132378472221
 20
105.58494194878472
 30
0.0
 10
116.60132378472221
 20
106.39385036892359
 30
0.0
 10
117.04470757378471
 20
106.98020562065972
 30
0.0
 10
117.48809136284721
 20
107.5658718532986
 30
0.0
 10
118.26702745225694
 20
107.78566894531249
 30
0.0
 10
118.95122341579859
 20
107.51798502604166
 30
0.0
 10
118.95122341579859
 20
107.51798502604166
 30
0.0
 10
122.88207736545138
 20
105.98939615885416
 30
0.0
 10
122.88207736545138
 20
105.98939615885416
 30
0.0
  0
SPLINE
  5
2C5
100
AcDbEntity
  8
DAEMMUNG
 62
     7
100
AcDbSpline
210
0.0
220
0.0
230
1.0
 70
     8
 71
     3
 72
    17
 73
    13
 74
     0
 42
0.00000001
 43
0.00000001
 40
0.0
 40
0.0
 40
0.0
 40
0.0
 40
1.0
 40
1.0
 40
1.0
 40
2.0
 40
2.0
 40
2.0
 40
3.0
 40
3.0
 40
3.0
 40
4.0
 40
4.0
 40
4.0
 40
4.0
 10
122.88207736545138
 20
109.48375651041665
 30
0.0
 10
123.59004448784721
 20
109.25810275607638
 30
0.0
 10
124.36277940538193
 20
109.51166178385415
 30
0.0
 10
124.79823947482637
 20
110.11386447482639
 30
0.0
 10
125.23404405381943
 20
110.71537814670138
 30
0.0
 10
125.23404405381943
 20
111.5284206814236
 30
0.0
 10
124.79823947482637
 20
112.12993435329859
 30
0.0
 10
124.36277940538193
 20
112.73144802517361
 30
0.0
 10
123.59004448784721
 20
112.9856960720486
 30
0.0
 10
122.88207736545138
 20
112.76004231770833
 30
0.0
 10
122.88207736545138
 20
112.76004231770833
 30
0.0
 10
118.95122341579859
 20
111.44952799479165
 30
0.0
 10
118.95122341579859
 20
111.44952799479165
 30
0.0
  0
SPLINE
  5
2C4
100
AcDbEntity
  8
DAEMMUNG
 62
     7
100
AcDbSpline
210
0.0
220
0.0
230
1.0
 70
     8
 71
     3
 72
    17
 73
    13
 74
     0
 42
0.00000001
 43
0.00000001
 40
0.0
 40
0.0
 40
0.0
 40
0.0
 40
1.0
 40
1.0
 40
1.0
 40
2.0
 40
2.0
 40
2.0
 40
3.0
 40
3.0
 40
3.0
 40
4.0
 40
4.0
 40
4.0
 40
4.0
 10
118.95122341579859
 20
114.94388834635416
 30
0.0
 10
118.26702745225694
 20
114.67620442708332
 30
0.0
 10
117.48809136284721
 20
114.89634602864582
 30
0.0
 10
117.04470757378471
 20
115.48235677083332
 30
0.0
 10
116.60132378472221
 20
116.06767849392359
 30
0.0
 10
116.60132378472221
 20
116.87727593315971
 30
0.0
 10
117.04470757378471
 20
117.46294216579859
 30
0.0
 10
117.48809136284721
 20
118.04929741753472
 30
0.0
 10
118.26702745225694
 20
118.26874999999998
 30
0.0
 10
118.95122341579859
 20
118.00175509982638
 30
0.0
 10
118.95122341579859
 20
118.00175509982638
 30
0.0
 10
122.88207736545138
 20
116.47247721354165
 30
0.0
 10
122.88207736545138
 20
116.47247721354165
 30
0.0
  0
SPLINE
  5
2C3
100
AcDbEntity
  8
DAEMMUNG
 62
     7
100
AcDbSpline
210
0.0
220
0.0
230
1.0
 70
     8
 71
     3
 72
    17
 73
    13
 74
     0
 42
0.00000001
 43
0.00000001
 40
0.0
 40
0.0
 40
0.0
 40
0.0
 40
1.0
 40
1.0
 40
1.0
 40
2.0
 40
2.0
 40
2.0
 40
3.0
 40
3.0
 40
3.0
 40
4.0
 40
4.0
 40
4.0
 40
4.0
 10
122.88207736545138
 20
116.47247721354165
 30
0.0
 10
123.59004448784721
 20
116.24682345920138
 30
0.0
 10
124.36277940538193
 20
116.50107150607637
 30
0.0
 10
124.79823947482637
 20
117.10258517795138
 30
0.0
 10
125.23404405381943
 20
117.70409884982638
 30
0.0
 10
125.23404405381943
 20
118.51714138454859
 30
0.0
 10
124.79823947482637
 20
119.11865505642361
 30
0.0
 10
124.36277940538193
 20
119.72085774739583
 30
0.0
 10
123.59004448784721
 20
119.97441677517359
 30
0.0
 10
122.88207736545138
 20
119.74876302083332
 30
0.0
 10
122.88207736545138
 20
119.74876302083332
 30
0.0
 10
118.95122341579859
 20
118.43824869791666
 30
0.0
 10
118.95122341579859
 20
118.43824869791666
 30
0.0
  0
SPLINE
  5
2C2
100
AcDbEntity
  8
DAEMMUNG
 62
     7
100
AcDbSpline
210
0.0
220
0.0
230
1.0
 70
     8
 71
     3
 72
    17
 73
    13
 74
     0
 42
0.00000001
 43
0.00000001
 40
0.0
 40
0.0
 40
0.0
 40
0.0
 40
1.0
 40
1.0
 40
1.0
 40
2.0
 40
2.0
 40
2.0
 40
3.0
 40
3.0
 40
3.0
 40
4.0
 40
4.0
 40
4.0
 40
4.0
 10
118.95122341579859
 20
118.43824869791666
 30
0.0
 10
118.26702745225694
 20
118.17056477864583
 30
0.0
 10
117.48809136284721
 20
118.39070638020833
 30
0.0
 10
117.04470757378471
 20
118.97671712239583
 30
0.0
 10
116.60132378472221
 20
119.56272786458332
 30
0.0
 10
116.60132378472221
 20
120.3712917751736
 30
0.0
 10
117.04470757378471
 20
120.95764702690971
 30
0.0
 10
117.48809136284721
 20
121.5433132595486
 30
0.0
 10
118.26702745225694
 20
121.76379937065971
 30
0.0
 10
118.95122341579859
 20
121.49577094184026
 30
0.0
 10
118.95122341579859
 20
121.49577094184026
 30
0.0
 10
122.88207736545138
 20
119.96683756510416
 30
0.0
 10
122.88207736545138
 20
119.96683756510416
 30
0.0
  0
SPLINE
  5
2C1
100
AcDbEntity
  8
DAEMMUNG
 62
     7
100
AcDbSpline
210
0.0
220
0.0
230
1.0
 70
     8
 71
     3
 72
    11
 73
     7
 74
     0
 42
0.00000001
 43
0.00000001
 40
0.0
 40
0.0
 40
0.0
 40
0.0
 40
1.0
 40
1.0
 40
1.0
 40
2.0
 40
2.0
 40
2.0
 40
2.0
 10
122.88207736545138
 20
119.96683756510416
 30
0.0
 10
123.38127170138888
 20
119.80354003906248
 30
0.0
 10
123.92800835503471
 20
119.88105468749998
 30
0.0
 10
124.36174587673609
 20
120.17664388020832
 30
0.0
 10
124.79582790798609
 20
120.47257758246526
 30
0.0
 10
125.06764594184027
 20
120.95282389322915
 30
0.0
 10
125.09796278211805
 20
121.47682291666665
 30
0.0
  0
SPLINE
  5
2C0
100
AcDbEntity
  8
DAEMMUNG
 62
     7
100
AcDbSpline
210
0.0
220
0.0
230
1.0
 70
     8
 71
     3
 72
    14
 73
    10
 74
     0
 42
0.00000001
 43
0.00000001
 40
0.0
 40
0.0
 40
0.0
 40
0.0
 40
1.0
 40
1.0
 40
1.0
 40
2.0
 40
2.0
 40
2.0
 40
3.0
 40
3.0
 40
3.0
 40
3.0
 10
116.71604546440972
 20
173.46400282118054
 30
0.0
 10
116.67746039496527
 20
174.02520887586803
 30
0.0
 10
116.92860785590277
 20
174.56712239583331
 30
0.0
 10
117.38163791232638
 20
174.90026312934026
 30
0.0
 10
117.83501247829859
 20
175.23323160807291
 30
0.0
 10
118.4272243923611
 20
175.31074625651041
 30
0.0
 10
118.95122341579859
 20
175.1061075846354
 30
0.0
 10
118.95122341579859
 20
175.1061075846354
 30
0.0
 10
122.88207736545138
 20
173.5773464626736
 30
0.0
 10
122.88207736545138
 20
173.5773464626736
 30
0.0
  0
SPLINE
  5
2BF
100
AcDbEntity
  8
DAEMMUNG
 62
     7
100
AcDbSpline
210
0.0
220
0.0
230
1.0
 70
     8
 71
     3
 72
    17
 73
    13
 74
     0
 42
0.00000001
 43
0.00000001
 40
0.0
 40
0.0
 40
0.0
 40
0.0
 40
1.0
 40
1.0
 40
1.0
 40
2.0
 40
2.0
 40
2.0
 40
3.0
 40
3.0
 40
3.0
 40
4.0
 40
4.0
 40
4.0
 40
4.0
 10
122.88207736545138
 20
173.5773464626736
 30
0.0
 10
123.59004448784721
 20
173.35134819878471
 30
0.0
 10
124.36277940538193
 20
173.60525173611109
 30
0.0
 10
124.79823947482637
 20
174.2069376627604
 30
0.0
 10
125.23404405381943
 20
174.80862358940971
 30
0.0
 10
125.23404405381943
 20
175.62183837890623
 30
0.0
 10
124.79823947482637
 20
176.22352430555554
 30
0.0
 10
124.36277940538193
 20
176.82538248697915
 30
0.0
 10
123.59004448784721
 20
177.07911376953123
 30
0.0
 10
122.88207736545138
 20
176.85328776041666
 30
0.0
 10
122.88207736545138
 20
176.85328776041666
 30
0.0
 10
118.95122341579859
 20
175.54277343749999
 30
0.0
 10
118.95122341579859
 20
175.54277343749999
 30
0.0
  0
SPLINE
  5
2BE
100
AcDbEntity
  8
DAEMMUNG
 62
     7
100
AcDbSpline
210
0.0
220
0.0
230
1.0
 70
     8
 71
     3
 72
    17
 73
    13
 74
     0
 42
0.00000001
 43
0.00000001
 40
0.0
 40
0.0
 40
0.0
 40
0.0
 40
1.0
 40
1.0
 40
1.0
 40
2.0
 40
2.0
 40
2.0
 40
3.0
 40
3.0
 40
3.0
 40
4.0
 40
4.0
 40
4.0
 40
4.0
 10
122.88207736545138
 20
180.56606716579859
 30
0.0
 10
123.59004448784721
 20
180.34006890190972
 30
0.0
 10
124.36277940538193
 20
180.5941446940104
 30
0.0
 10
124.79823947482637
 20
181.19565836588541
 30
0.0
 10
125.23404405381943
 20
181.79734429253472
 30
0.0
 10
125.23404405381943
 20
182.61073133680554
 30
0.0
 10
124.79823947482637
 20
183.21224500868053
 30
0.0
 10
124.36277940538193
 20
183.81410319010416
 30
0.0
 10
123.59004448784721
 20
184.06800672743054
 30
0.0
 10
122.88207736545138
 20
183.84200846354165
 30
0.0
 10
122.88207736545138
 20
183.84200846354165
 30
0.0
 10
118.95122341579859
 20
182.5318386501736
 30
0.0
 10
118.95122341579859
 20
182.5318386501736
 30
0.0
  0
SPLINE
  5
2BD
100
AcDbEntity
  8
DAEMMUNG
 62
     7
100
AcDbSpline
210
0.0
220
0.0
230
1.0
 70
     8
 71
     3
 72
    17
 73
    13
 74
     0
 42
0.00000001
 43
0.00000001
 40
0.0
 40
0.0
 40
0.0
 40
0.0
 40
1.0
 40
1.0
 40
1.0
 40
2.0
 40
2.0
 40
2.0
 40
3.0
 40
3.0
 40
3.0
 40
4.0
 40
4.0
 40
4.0
 40
4.0
 10
118.95122341579859
 20
182.5318386501736
 30
0.0
 10
118.26702745225694
 20
182.26415473090276
 30
0.0
 10
117.48809136284721
 20
182.48395182291665
 30
0.0
 10
117.04470757378471
 20
183.06996256510416
 30
0.0
 10
116.60132378472221
 20
183.65597330729165
 30
0.0
 10
116.60132378472221
 20
184.46522623697916
 30
0.0
 10
117.04470757378471
 20
185.05089246961805
 30
0.0
 10
117.48809136284721
 20
185.63690321180553
 30
0.0
 10
118.26702745225694
 20
185.85687255859372
 30
0.0
 10
118.95122341579859
 20
185.58918863932291
 30
0.0
 10
118.95122341579859
 20
185.58918863932291
 30
0.0
 10
122.88207736545138
 20
184.06059977213539
 30
0.0
 10
122.88207736545138
 20
184.06059977213539
 30
0.0
  0
SPLINE
  5
2BC
100
AcDbEntity
  8
DAEMMUNG
 62
     7
100
AcDbSpline
210
0.0
220
0.0
230
1.0
 70
     8
 71
     3
 72
    17
 73
    13
 74
     0
 42
0.00000001
 43
0.00000001
 40
0.0
 40
0.0
 40
0.0
 40
0.0
 40
1.0
 40
1.0
 40
1.0
 40
2.0
 40
2.0
 40
2.0
 40
3.0
 40
3.0
 40
3.0
 40
4.0
 40
4.0
 40
4.0
 40
4.0
 10
122.88207736545138
 20
184.06059977213539
 30
0.0
 10
123.59004448784721
 20
183.83442925347219
 30
0.0
 10
124.36277940538193
 20
184.0885050455729
 30
0.0
 10
124.79823947482637
 20
184.69019097222221
 30
0.0
 10
125.23404405381943
 20
185.29170464409719
 30
0.0
 10
125.23404405381943
 20
186.10509168836805
 30
0.0
 10
124.79823947482637
 20
186.70694986979166
 30
0.0
 10
124.36277940538193
 20
187.30846354166664
 30
0.0
 10
123.59004448784721
 20
187.56236707899305
 30
0.0
 10
122.88207736545138
 20
187.33636881510415
 30
0.0
 10
122.88207736545138
 20
187.33636881510415
 30
0.0
 10
118.95122341579859
 20
186.0261990017361
 30
0.0
 10
118.95122341579859
 20
186.0261990017361
 30
0.0
  0
SPLINE
  5
2BB
100
AcDbEntity
  8
DAEMMUNG
 62
     7
100
AcDbSpline
210
0.0
220
0.0
230
1.0
 70
     8
 71
     3
 72
    17
 73
    13
 74
     0
 42
0.00000001
 43
0.00000001
 40
0.0
 40
0.0
 40
0.0
 40
0.0
 40
1.0
 40
1.0
 40
1.0
 40
2.0
 40
2.0
 40
2.0
 40
3.0
 40
3.0
 40
3.0
 40
4.0
 40
4.0
 40
4.0
 40
4.0
 10
118.95122341579859
 20
186.0261990017361
 30
0.0
 10
118.26702745225694
 20
185.75868733723956
 30
0.0
 10
117.48809136284721
 20
185.97831217447916
 30
0.0
 10
117.04470757378471
 20
186.56432291666664
 30
0.0
 10
116.60132378472221
 20
187.15033365885415
 30
0.0
 10
116.60132378472221
 20
187.95958658854164
 30
0.0
 10
117.04470757378471
 20
188.54525282118053
 30
0.0
 10
117.48809136284721
 20
189.13126356336804
 30
0.0
 10
118.26702745225694
 20
189.35123291015623
 30
0.0
 10
118.95122341579859
 20
189.08372124565972
 30
0.0
 10
118.95122341579859
 20
189.08372124565972
 30
0.0
 10
122.88207736545138
 20
187.5549601236979
 30
0.0
 10
122.88207736545138
 20
187.5549601236979
 30
0.0
  0
SPLINE
  5
2BA
100
AcDbEntity
  8
DAEMMUNG
 62
     7
100
AcDbSpline
210
0.0
220
0.0
230
1.0
 70
     8
 71
     3
 72
    17
 73
    13
 74
     0
 42
0.00000001
 43
0.00000001
 40
0.0
 40
0.0
 40
0.0
 40
0.0
 40
1.0
 40
1.0
 40
1.0
 40
2.0
 40
2.0
 40
2.0
 40
3.0
 40
3.0
 40
3.0
 40
4.0
 40
4.0
 40
4.0
 40
4.0
 10
118.95122341579859
 20
175.54277343749999
 30
0.0
 10
118.26702745225694
 20
175.27543402777775
 30
0.0
 10
117.48809136284721
 20
175.49523111979164
 30
0.0
 10
117.04470757378471
 20
176.08124186197915
 30
0.0
 10
116.60132378472221
 20
176.66690809461804
 30
0.0
 10
116.60132378472221
 20
177.47616102430553
 30
0.0
 10
117.04470757378471
 20
178.06217176649304
 30
0.0
 10
117.48809136284721
 20
178.64801025390622
 30
0.0
 10
118.26702745225694
 20
178.86797960069444
 30
0.0
 10
118.95122341579859
 20
178.6004679361979
 30
0.0
 10
118.95122341579859
 20
178.6004679361979
 30
0.0
 10
122.88207736545138
 20
177.07170681423611
 30
0.0
 10
122.88207736545138
 20
177.07170681423611
 30
0.0
  0
SPLINE
  5
2B9
100
AcDbEntity
  8
DAEMMUNG
 62
     7
100
AcDbSpline
210
0.0
220
0.0
230
1.0
 70
     8
 71
     3
 72
    17
 73
    13
 74
     0
 42
0.00000001
 43
0.00000001
 40
0.0
 40
0.0
 40
0.0
 40
0.0
 40
1.0
 40
1.0
 40
1.0
 40
2.0
 40
2.0
 40
2.0
 40
3.0
 40
3.0
 40
3.0
 40
4.0
 40
4.0
 40
4.0
 40
4.0
 10
122.88207736545138
 20
177.07170681423611
 30
0.0
 10
123.59004448784721
 20
176.84570855034721
 30
0.0
 10
124.36277940538193
 20
177.09978434244789
 30
0.0
 10
124.79823947482637
 20
177.7012980143229
 30
0.0
 10
125.23404405381943
 20
178.30298394097221
 30
0.0
 10
125.23404405381943
 20
179.11637098524304
 30
0.0
 10
124.79823947482637
 20
179.71788465711805
 30
0.0
 10
124.36277940538193
 20
180.31974283854166
 30
0.0
 10
123.59004448784721
 20
180.57364637586804
 30
0.0
 10
122.88207736545138
 20
180.34764811197914
 30
0.0
 10
122.88207736545138
 20
180.34764811197914
 30
0.0
 10
118.95122341579859
 20
179.03747829861109
 30
0.0
 10
118.95122341579859
 20
179.03747829861109
 30
0.0
  0
SPLINE
  5
2B8
100
AcDbEntity
  8
DAEMMUNG
 62
     7
100
AcDbSpline
210
0.0
220
0.0
230
1.0
 70
     8
 71
     3
 72
    17
 73
    13
 74
     0
 42
0.00000001
 43
0.00000001
 40
0.0
 40
0.0
 40
0.0
 40
0.0
 40
1.0
 40
1.0
 40
1.0
 40
2.0
 40
2.0
 40
2.0
 40
3.0
 40
3.0
 40
3.0
 40
4.0
 40
4.0
 40
4.0
 40
4.0
 10
118.95122341579859
 20
179.03747829861109
 30
0.0
 10
118.26702745225694
 20
178.76979437934025
 30
0.0
 10
117.48809136284721
 20
178.98959147135415
 30
0.0
 10
117.04470757378471
 20
179.57560221354166
 30
0.0
 10
116.60132378472221
 20
180.16161295572914
 30
0.0
 10
116.60132378472221
 20
180.97052137586803
 30
0.0
 10
117.04470757378471
 20
181.55653211805554
 30
0.0
 10
117.48809136284721
 20
182.14254286024303
 30
0.0
 10
118.26702745225694
 20
182.36251220703124
 30
0.0
 10
118.95122341579859
 20
182.09482828776041
 30
0.0
 10
118.95122341579859
 20
182.09482828776041
 30
0.0
 10
122.88207736545138
 20
180.56606716579859
 30
0.0
 10
122.88207736545138
 20
180.56606716579859
 30
0.0
  0
LINE
  5
2B7
100
AcDbEntity
  8
DAEMMUNG
 62
     7
100
AcDbLine
 10
119.447662
 20
202.868237
 30
0.0
 11
122.882077
 21
201.532402
 31
0.0
  0
SPLINE
  5
2B6
100
AcDbEntity
  8
DAEMMUNG
 62
     7
100
AcDbSpline
210
0.0
220
0.0
230
1.0
 70
     8
 71
     3
 72
    17
 73
    13
 74
     0
 42
0.00000001
 43
0.00000001
 40
0.0
 40
0.0
 40
0.0
 40
0.0
 40
1.0
 40
1.0
 40
1.0
 40
2.0
 40
2.0
 40
2.0
 40
3.0
 40
3.0
 40
3.0
 40
4.0
 40
4.0
 40
4.0
 40
4.0
 10
118.95122341579859
 20
196.50928005642359
 30
0.0
 10
118.26702745225694
 20
196.24176839192705
 30
0.0
 10
117.48809136284721
 20
196.46173773871527
 30
0.0
 10
117.04470757378471
 20
197.04774848090275
 30
0.0
 10
116.60132378472221
 20
197.63341471354164
 30
0.0
 10
116.60132378472221
 20
198.44266764322916
 30
0.0
 10
117.04470757378471
 20
199.02867838541664
 30
0.0
 10
117.48809136284721
 20
199.61434461805553
 30
0.0
 10
118.26702745225694
 20
199.83431396484374
 30
0.0
 10
118.95122341579859
 20
199.56680230034721
 30
0.0
 10
118.95122341579859
 20
199.56680230034721
 30
0.0
 10
122.88207736545138
 20
198.03804117838538
 30
0.0
 10
122.88207736545138
 20
198.03804117838538
 30
0.0
  0
SPLINE
  5
2B5
100
AcDbEntity
  8
DAEMMUNG
 62
     7
100
AcDbSpline
210
0.0
220
0.0
230
1.0
 70
     8
 71
     3
 72
    17
 73
    13
 74
     0
 42
0.00000001
 43
0.00000001
 40
0.0
 40
0.0
 40
0.0
 40
0.0
 40
1.0
 40
1.0
 40
1.0
 40
2.0
 40
2.0
 40
2.0
 40
3.0
 40
3.0
 40
3.0
 40
4.0
 40
4.0
 40
4.0
 40
4.0
 10
122.88207736545138
 20
198.03804117838538
 30
0.0
 10
123.59004448784721
 20
197.81221516927081
 30
0.0
 10
124.36277940538193
 20
198.06611870659719
 30
0.0
 10
124.79823947482637
 20
198.66763237847221
 30
0.0
 10
125.23404405381943
 20
199.26949055989581
 30
0.0
 10
125.23404405381943
 20
200.08287760416664
 30
0.0
 10
124.79823947482637
 20
200.68439127604165
 30
0.0
 10
124.36277940538193
 20
201.28624945746526
 30
0.0
 10
123.59004448784721
 20
201.54015299479164
 30
0.0
 10
122.88207736545138
 20
201.31415473090277
 30
0.0
 10
122.88207736545138
 20
201.31415473090277
 30
0.0
 10
118.95122341579859
 20
200.0038126627604
 30
0.0
 10
118.95122341579859
 20
200.0038126627604
 30
0.0
  0
SPLINE
  5
2B4
100
AcDbEntity
  8
DAEMMUNG
 62
     7
100
AcDbSpline
210
0.0
220
0.0
230
1.0
 70
     8
 71
     3
 72
    17
 73
    13
 74
     0
 42
0.00000001
 43
0.00000001
 40
0.0
 40
0.0
 40
0.0
 40
0.0
 40
1.0
 40
1.0
 40
1.0
 40
2.0
 40
2.0
 40
2.0
 40
3.0
 40
3.0
 40
3.0
 40
4.0
 40
4.0
 40
4.0
 40
4.0
 10
122.88207736545138
 20
191.0493204752604
 30
0.0
 10
123.59004448784721
 20
190.82314995659721
 30
0.0
 10
124.36277940538193
 20
191.07722574869791
 30
0.0
 10
124.79823947482637
 20
191.67891167534719
 30
0.0
 10
125.23404405381943
 20
192.28042534722221
 30
0.0
 10
125.23404405381943
 20
193.09381239149303
 30
0.0
 10
124.79823947482637
 20
193.69567057291664
 30
0.0
 10
124.36277940538193
 20
194.29718424479165
 30
0.0
 10
123.59004448784721
 20
194.55108778211803
 30
0.0
 10
122.88207736545138
 20
194.32543402777776
 30
0.0
 10
122.88207736545138
 20
194.32543402777776
 30
0.0
 10
118.95122341579859
 20
193.01491970486109
 30
0.0
 10
118.95122341579859
 20
193.01491970486109
 30
0.0
  0
SPLINE
  5
2B3
100
AcDbEntity
  8
DAEMMUNG
 62
     7
100
AcDbSpline
210
0.0
220
0.0
230
1.0
 70
     8
 71
     3
 72
    17
 73
    13
 74
     0
 42
0.00000001
 43
0.00000001
 40
0.0
 40
0.0
 40
0.0
 40
0.0
 40
1.0
 40
1.0
 40
1.0
 40
2.0
 40
2.0
 40
2.0
 40
3.0
 40
3.0
 40
3.0
 40
4.0
 40
4.0
 40
4.0
 40
4.0
 10
122.88207736545138
 20
194.54368082682291
 30
0.0
 10
123.59004448784721
 20
194.31785481770831
 30
0.0
 10
124.36277940538193
 20
194.57158610026039
 30
0.0
 10
124.79823947482637
 20
195.1732720269097
 30
0.0
 10
125.23404405381943
 20
195.77513020833331
 30
0.0
 10
125.23404405381943
 20
196.58817274305554
 30
0.0
 10
124.79823947482637
 20
197.19003092447915
 30
0.0
 10
124.36277940538193
 20
197.79154459635416
 30
0.0
 10
123.59004448784721
 20
198.04544813368054
 30
0.0
 10
122.88207736545138
 20
197.81979437934027
 30
0.0
 10
122.88207736545138
 20
197.81979437934027
 30
0.0
 10
118.95122341579859
 20
196.50928005642359
 30
0.0
 10
118.95122341579859
 20
196.50928005642359
 30
0.0
  0
SPLINE
  5
2B2
100
AcDbEntity
  8
DAEMMUNG
 62
     7
100
AcDbSpline
210
0.0
220
0.0
230
1.0
 70
     8
 71
     3
 72
    17
 73
    13
 74
     0
 42
0.00000001
 43
0.00000001
 40
0.0
 40
0.0
 40
0.0
 40
0.0
 40
1.0
 40
1.0
 40
1.0
 40
2.0
 40
2.0
 40
2.0
 40
3.0
 40
3.0
 40
3.0
 40
4.0
 40
4.0
 40
4.0
 40
4.0
 10
118.95122341579859
 20
193.01491970486109
 30
0.0
 10
118.26702745225694
 20
192.74740804036458
 30
0.0
 10
117.48809136284721
 20
192.96737738715277
 30
0.0
 10
117.04470757378471
 20
193.55304361979165
 30
0.0
 10
116.60132378472221
 20
194.13905436197916
 30
0.0
 10
116.60132378472221
 20
194.94830729166665
 30
0.0
 10
117.04470757378471
 20
195.53431803385416
 30
0.0
 10
117.48809136284721
 20
196.11998426649305
 30
0.0
 10
118.26702745225694
 20
196.33995361328124
 30
0.0
 10
118.95122341579859
 20
196.0724419487847
 30
0.0
 10
118.95122341579859
 20
196.0724419487847
 30
0.0
 10
122.88207736545138
 20
194.54368082682291
 30
0.0
 10
122.88207736545138
 20
194.54368082682291
 30
0.0
  0
SPLINE
  5
2B1
100
AcDbEntity
  8
DAEMMUNG
 62
     7
100
AcDbSpline
210
0.0
220
0.0
230
1.0
 70
     8
 71
     3
 72
    11
 73
     7
 74
     0
 42
0.00000001
 43
0.00000001
 40
0.0
 40
0.0
 40
0.0
 40
0.0
 40
1.0
 40
1.0
 40
1.0
 40
2.0
 40
2.0
 40
2.0
 40
2.0
 10
118.95122341579859
 20
200.0038126627604
 30
0.0
 10
118.17952202690971
 20
199.70219455295137
 30
0.0
 10
117.30481228298611
 20
200.02241617838538
 30
0.0
 10
116.91034884982638
 20
200.75053710937499
 30
0.0
 10
116.51554090711805
 20
201.47883029513886
 30
0.0
 10
116.72534722222221
 20
202.38695746527776
 30
0.0
 10
117.39920789930555
 20
202.86823730468748
 30
0.0
  0
SPLINE
  5
2B0
100
AcDbEntity
  8
DAEMMUNG
 62
     7
100
AcDbSpline
210
0.0
220
0.0
230
1.0
 70
     8
 71
     3
 72
    11
 73
     7
 74
     0
 42
0.00000001
 43
0.00000001
 40
0.0
 40
0.0
 40
0.0
 40
0.0
 40
1.0
 40
1.0
 40
1.0
 40
2.0
 40
2.0
 40
2.0
 40
2.0
 10
122.88207736545138
 20
201.53240152994789
 30
0.0
 10
123.35439995659721
 20
201.38167860243053
 30
0.0
 10
123.8687527126736
 20
201.44196777343748
 30
0.0
 10
124.2935329861111
 20
201.69776611328123
 30
0.0
 10
124.71762424045137
 20
201.95390896267358
 30
0.0
 10
125.01114637586804
 20
202.38041178385416
 30
0.0
 10
125.09796278211805
 20
202.86823730468748
 30
0.0
  0
INSERT
  5
299
100
AcDbEntity
  8
SCHRAFUR
 62
     7
100
AcDbBlockReference
  2
AI9-BLK9
 10
134.129453
 20
121.84407
 30
0.0
  0
INSERT
  5
279
100
AcDbEntity
  8
SCHRAFUR
 62
     7
100
AcDbBlockReference
  2
AI9-BLK8
 10
134.129453
 20
171.538194
 30
0.0
  0
INSERT
  5
25A
100
AcDbEntity
  8
SCHRAFUR
 62
     7
100
AcDbBlockReference
  2
AI9-BLK7
 10
134.129453
 20
123.521487
 30
0.0
  0
POLYLINE
  5
253
100
AcDbEntity
  8
SCHRAFUR
 62
     7
100
AcDb2dPolyline
 66
     1
 10
0.0
 20
0.0
 30
0.0
  0
VERTEX
  5
254
100
AcDbEntity
  8
SCHRAFUR
 62
     7
100
AcDbVertex
100
AcDb2dVertex
 10
107.685072
 20
121.552271
 30
0.0
  0
VERTEX
  5
255
100
AcDbEntity
  8
SCHRAFUR
 62
     7
100
AcDbVertex
100
AcDb2dVertex
 10
107.685072
 20
125.490704
 30
0.0
  0
VERTEX
  5
256
100
AcDbEntity
  8
SCHRAFUR
 62
     7
100
AcDbVertex
100
AcDb2dVertex
 10
160.573834
 20
125.495182
 30
0.0
  0
VERTEX
  5
257
100
AcDbEntity
  8
SCHRAFUR
 62
     7
100
AcDbVertex
100
AcDb2dVertex
 10
160.573834
 20
121.552271
 30
0.0
  0
SEQEND
  5
258
100
AcDbEntity
  8
SCHRAFUR
 62
     7
  0
LINE
  5
252
100
AcDbEntity
  8
SCHRAFUR
 62
     7
100
AcDbLine
 10
126.179034
 20
94.134134
 30
0.0
 11
128.483803
 21
91.830054
 31
0.0
  0
LINE
  5
251
100
AcDbEntity
  8
SCHRAFUR
 62
     7
100
AcDbLine
 10
131.567508
 20
94.134134
 30
0.0
 11
133.871587
 21
91.830054
 31
0.0
  0
LINE
  5
250
100
AcDbEntity
  8
SCHRAFUR
 62
     7
100
AcDbLine
 10
126.179034
 20
99.522607
 30
0.0
 11
128.873443
 21
96.828198
 31
0.0
  0
LINE
  5
24F
100
AcDbEntity
  8
SCHRAFUR
 62
     7
100
AcDbLine
 10
136.955637
 20
94.134134
 30
0.0
 11
139.260061
 21
91.830054
 31
0.0
  0
LINE
  5
24E
100
AcDbEntity
  8
SCHRAFUR
 62
     7
100
AcDbLine
 10
131.567508
 20
99.522607
 30
0.0
 11
134.261228
 21
96.828198
 31
0.0
  0
LINE
  5
24D
100
AcDbEntity
  8
SCHRAFUR
 62
     7
100
AcDbLine
 10
126.179034
 20
104.910392
 30
0.0
 11
128.873443
 21
102.216328
 31
0.0
  0
LINE
  5
24C
100
AcDbEntity
  8
SCHRAFUR
 62
     7
100
AcDbLine
 10
142.343422
 20
94.134134
 30
0.0
 11
144.648191
 21
91.830054
 31
0.0
  0
LINE
  5
24B
100
AcDbEntity
  8
SCHRAFUR
 62
     7
100
AcDbLine
 10
136.955637
 20
99.522607
 30
0.0
 11
139.649702
 21
96.828198
 31
0.0
  0
LINE
  5
24A
100
AcDbEntity
  8
SCHRAFUR
 62
     7
100
AcDbLine
 10
131.567508
 20
104.910392
 30
0.0
 11
134.261228
 21
102.216328
 31
0.0
  0
LINE
  5
249
100
AcDbEntity
  8
SCHRAFUR
 62
     7
100
AcDbLine
 10
126.179034
 20
110.298522
 30
0.0
 11
128.873443
 21
107.604801
 31
0.0
  0
LINE
  5
248
100
AcDbEntity
  8
SCHRAFUR
 62
     7
100
AcDbLine
 10
147.731896
 20
94.134134
 30
0.0
 11
150.035975
 21
91.830054
 31
0.0
  0
LINE
  5
247
100
AcDbEntity
  8
SCHRAFUR
 62
     7
100
AcDbLine
 10
142.343422
 20
99.522607
 30
0.0
 11
145.037831
 21
96.828198
 31
0.0
  0
LINE
  5
246
100
AcDbEntity
  8
SCHRAFUR
 62
     7
100
AcDbLine
 10
136.955637
 20
104.910392
 30
0.0
 11
139.649702
 21
102.216328
 31
0.0
  0
LINE
  5
245
100
AcDbEntity
  8
SCHRAFUR
 62
     7
100
AcDbLine
 10
131.567508
 20
110.298522
 30
0.0
 11
134.261228
 21
107.604801
 31
0.0
  0
LINE
  5
244
100
AcDbEntity
  8
SCHRAFUR
 62
     7
100
AcDbLine
 10
126.179034
 20
115.686995
 30
0.0
 11
128.873443
 21
112.992586
 31
0.0
  0
LINE
  5
243
100
AcDbEntity
  8
SCHRAFUR
 62
     7
100
AcDbLine
 10
147.731896
 20
99.522607
 30
0.0
 11
150.426305
 21
96.828198
 31
0.0
  0
LINE
  5
242
100
AcDbEntity
  8
SCHRAFUR
 62
     7
100
AcDbLine
 10
142.343422
 20
104.910392
 30
0.0
 11
145.037831
 21
102.216328
 31
0.0
  0
LINE
  5
241
100
AcDbEntity
  8
SCHRAFUR
 62
     7
100
AcDbLine
 10
136.955637
 20
110.298522
 30
0.0
 11
139.649702
 21
107.604801
 31
0.0
  0
LINE
  5
240
100
AcDbEntity
  8
SCHRAFUR
 62
     7
100
AcDbLine
 10
131.567508
 20
115.686995
 30
0.0
 11
134.261228
 21
112.992586
 31
0.0
  0
LINE
  5
23F
100
AcDbEntity
  8
SCHRAFUR
 62
     7
100
AcDbLine
 10
126.179034
 20
121.07478
 30
0.0
 11
128.873443
 21
118.380716
 31
0.0
  0
LINE
  5
23E
100
AcDbEntity
  8
SCHRAFUR
 62
     7
100
AcDbLine
 10
147.731896
 20
104.910392
 30
0.0
 11
150.426305
 21
102.216328
 31
0.0
  0
LINE
  5
23D
100
AcDbEntity
  8
SCHRAFUR
 62
     7
100
AcDbLine
 10
142.343422
 20
110.298522
 30
0.0
 11
145.037831
 21
107.604801
 31
0.0
  0
LINE
  5
23C
100
AcDbEntity
  8
SCHRAFUR
 62
     7
100
AcDbLine
 10
136.955637
 20
115.686995
 30
0.0
 11
139.649702
 21
112.992586
 31
0.0
  0
LINE
  5
23B
100
AcDbEntity
  8
SCHRAFUR
 62
     7
100
AcDbLine
 10
131.567508
 20
121.07478
 30
0.0
 11
134.261228
 21
118.380716
 31
0.0
  0
LINE
  5
23A
100
AcDbEntity
  8
SCHRAFUR
 62
     7
100
AcDbLine
 10
147.731896
 20
110.298522
 30
0.0
 11
150.426305
 21
107.604801
 31
0.0
  0
LINE
  5
239
100
AcDbEntity
  8
SCHRAFUR
 62
     7
100
AcDbLine
 10
142.343422
 20
115.686995
 30
0.0
 11
145.037831
 21
112.992586
 31
0.0
  0
LINE
  5
238
100
AcDbEntity
  8
SCHRAFUR
 62
     7
100
AcDbLine
 10
136.955637
 20
121.07478
 30
0.0
 11
139.649702
 21
118.380716
 31
0.0
  0
LINE
  5
237
100
AcDbEntity
  8
SCHRAFUR
 62
     7
100
AcDbLine
 10
147.731896
 20
115.686995
 30
0.0
 11
150.426305
 21
112.992586
 31
0.0
  0
LINE
  5
236
100
AcDbEntity
  8
SCHRAFUR
 62
     7
100
AcDbLine
 10
142.343422
 20
121.07478
 30
0.0
 11
145.037831
 21
118.380716
 31
0.0
  0
LINE
  5
235
100
AcDbEntity
  8
SCHRAFUR
 62
     7
100
AcDbLine
 10
147.731896
 20
121.07478
 30
0.0
 11
150.426305
 21
118.380716
 31
0.0
  0
LINE
  5
234
100
AcDbEntity
  8
SCHRAFUR
 62
     7
100
AcDbLine
 10
126.179034
 20
174.956418
 30
0.0
 11
128.095885
 21
173.039912
 31
0.0
  0
LINE
  5
233
100
AcDbEntity
  8
SCHRAFUR
 62
     7
100
AcDbLine
 10
131.567508
 20
174.956418
 30
0.0
 11
133.600458
 21
172.923467
 31
0.0
  0
LINE
  5
232
100
AcDbEntity
  8
SCHRAFUR
 62
     7
100
AcDbLine
 10
126.179034
 20
180.344892
 30
0.0
 11
128.873443
 21
177.650655
 31
0.0
  0
LINE
  5
231
100
AcDbEntity
  8
SCHRAFUR
 62
     7
100
AcDbLine
 10
138.500762
 20
173.411121
 30
0.0
 11
138.770169
 21
173.142231
 31
0.0
  0
LINE
  5
230
100
AcDbEntity
  8
SCHRAFUR
 62
     7
100
AcDbLine
 10
136.955637
 20
174.956418
 30
0.0
 11
138.404644
 21
173.507411
 31
0.0
  0
LINE
  5
22F
100
AcDbEntity
  8
SCHRAFUR
 62
     7
100
AcDbLine
 10
131.567508
 20
180.344892
 30
0.0
 11
134.261228
 21
177.650655
 31
0.0
  0
LINE
  5
22E
100
AcDbEntity
  8
SCHRAFUR
 62
     7
100
AcDbLine
 10
126.179034
 20
185.732849
 30
0.0
 11
128.873443
 21
183.038612
 31
0.0
  0
LINE
  5
22D
100
AcDbEntity
  8
SCHRAFUR
 62
     7
100
AcDbLine
 10
142.343422
 20
174.956418
 30
0.0
 11
143.793118
 21
173.507411
 31
0.0
  0
LINE
  5
22C
100
AcDbEntity
  8
SCHRAFUR
 62
     7
100
AcDbLine
 10
136.955637
 20
180.344892
 30
0.0
 11
139.649702
 21
177.650655
 31
0.0
  0
LINE
  5
22B
100
AcDbEntity
  8
SCHRAFUR
 62
     7
100
AcDbLine
 10
131.567508
 20
185.732849
 30
0.0
 11
134.261228
 21
183.038612
 31
0.0
  0
LINE
  5
22A
100
AcDbEntity
  8
SCHRAFUR
 62
     7
100
AcDbLine
 10
126.179034
 20
191.121151
 30
0.0
 11
128.873443
 21
188.427086
 31
0.0
  0
LINE
  5
229
100
AcDbEntity
  8
SCHRAFUR
 62
     7
100
AcDbLine
 10
147.731896
 20
174.956418
 30
0.0
 11
149.180903
 21
173.507411
 31
0.0
  0
LINE
  5
228
100
AcDbEntity
  8
SCHRAFUR
 62
     7
100
AcDbLine
 10
142.343422
 20
180.344892
 30
0.0
 11
145.037831
 21
177.650655
 31
0.0
  0
LINE
  5
227
100
AcDbEntity
  8
SCHRAFUR
 62
     7
100
AcDbLine
 10
136.955637
 20
185.732849
 30
0.0
 11
139.649702
 21
183.038612
 31
0.0
  0
LINE
  5
226
100
AcDbEntity
  8
SCHRAFUR
 62
     7
100
AcDbLine
 10
131.567508
 20
191.121151
 30
0.0
 11
134.261228
 21
188.427086
 31
0.0
  0
LINE
  5
225
100
AcDbEntity
  8
SCHRAFUR
 62
     7
100
AcDbLine
 10
126.179034
 20
196.50928
 30
0.0
 11
128.873443
 21
193.815043
 31
0.0
  0
LINE
  5
224
100
AcDbEntity
  8
SCHRAFUR
 62
     7
100
AcDbLine
 10
147.731896
 20
180.344892
 30
0.0
 11
150.426305
 21
177.650655
 31
0.0
  0
LINE
  5
223
100
AcDbEntity
  8
SCHRAFUR
 62
     7
100
AcDbLine
 10
142.343422
 20
185.732849
 30
0.0
 11
145.037831
 21
183.038612
 31
0.0
  0
LINE
  5
222
100
AcDbEntity
  8
SCHRAFUR
 62
     7
100
AcDbLine
 10
136.955637
 20
191.121151
 30
0.0
 11
139.649702
 21
188.427086
 31
0.0
  0
LINE
  5
221
100
AcDbEntity
  8
SCHRAFUR
 62
     7
100
AcDbLine
 10
131.567508
 20
196.50928
 30
0.0
 11
134.261228
 21
193.815043
 31
0.0
  0
LINE
  5
220
100
AcDbEntity
  8
SCHRAFUR
 62
     7
100
AcDbLine
 10
126.179034
 20
201.897237
 30
0.0
 11
128.873443
 21
199.203345
 31
0.0
  0
LINE
  5
21F
100
AcDbEntity
  8
SCHRAFUR
 62
     7
100
AcDbLine
 10
147.731896
 20
185.732849
 30
0.0
 11
150.426305
 21
183.038612
 31
0.0
  0
LINE
  5
21E
100
AcDbEntity
  8
SCHRAFUR
 62
     7
100
AcDbLine
 10
142.343422
 20
191.121151
 30
0.0
 11
145.037831
 21
188.427086
 31
0.0
  0
LINE
  5
21D
100
AcDbEntity
  8
SCHRAFUR
 62
     7
100
AcDbLine
 10
136.955637
 20
196.50928
 30
0.0
 11
139.649702
 21
193.815043
 31
0.0
  0
LINE
  5
21C
100
AcDbEntity
  8
SCHRAFUR
 62
     7
100
AcDbLine
 10
131.567508
 20
201.897237
 30
0.0
 11
134.261228
 21
199.203345
 31
0.0
  0
LINE
  5
21B
100
AcDbEntity
  8
SCHRAFUR
 62
     7
100
AcDbLine
 10
147.731896
 20
191.121151
 30
0.0
 11
150.426305
 21
188.427086
 31
0.0
  0
LINE
  5
21A
100
AcDbEntity
  8
SCHRAFUR
 62
     7
100
AcDbLine
 10
142.343422
 20
196.50928
 30
0.0
 11
145.037831
 21
193.815043
 31
0.0
  0
LINE
  5
219
100
AcDbEntity
  8
SCHRAFUR
 62
     7
100
AcDbLine
 10
136.955637
 20
201.897237
 30
0.0
 11
139.649702
 21
199.203345
 31
0.0
  0
LINE
  5
218
100
AcDbEntity
  8
SCHRAFUR
 62
     7
100
AcDbLine
 10
147.731896
 20
196.50928
 30
0.0
 11
150.426305
 21
193.815043
 31
0.0
  0
LINE
  5
217
100
AcDbEntity
  8
SCHRAFUR
 62
     7
100
AcDbLine
 10
142.343422
 20
201.897237
 30
0.0
 11
145.037831
 21
199.203345
 31
0.0
  0
LINE
  5
216
100
AcDbEntity
  8
SCHRAFUR
 62
     7
100
AcDbLine
 10
147.731896
 20
201.897237
 30
0.0
 11
150.426305
 21
199.203345
 31
0.0
  0
LINE
  5
215
100
AcDbEntity
  8
SCHRAFUR
 62
     7
100
AcDbLine
 10
159.855187
 20
95.48151
 30
0.0
 11
160.573834
 21
96.200502
 31
0.0
  0
LINE
  5
214
100
AcDbEntity
  8
SCHRAFUR
 62
     7
100
AcDbLine
 10
156.20373
 20
91.830054
 30
0.0
 11
158.508499
 21
94.134134
 31
0.0
  0
LINE
  5
213
100
AcDbEntity
  8
SCHRAFUR
 62
     7
100
AcDbLine
 10
158.508499
 20
104.910392
 30
0.0
 11
160.573834
 21
106.976416
 31
0.0
  0
LINE
  5
212
100
AcDbEntity
  8
SCHRAFUR
 62
     7
100
AcDbLine
 10
154.467402
 20
100.869295
 30
0.0
 11
157.161122
 21
103.563704
 31
0.0
  0
LINE
  5
211
100
AcDbEntity
  8
SCHRAFUR
 62
     7
100
AcDbLine
 10
151.759557
 20
98.162139
 30
0.0
 11
153.120025
 21
99.522607
 31
0.0
  0
LINE
  5
210
100
AcDbEntity
  8
SCHRAFUR
 62
     7
100
AcDbLine
 10
157.161122
 20
114.339619
 30
0.0
 11
159.855187
 21
117.033683
 31
0.0
  0
LINE
  5
20F
100
AcDbEntity
  8
SCHRAFUR
 62
     7
100
AcDbLine
 10
153.120025
 20
110.298522
 30
0.0
 11
155.81409
 21
112.992586
 31
0.0
  0
LINE
  5
20E
100
AcDbEntity
  8
SCHRAFUR
 62
     7
100
AcDbLine
 10
151.759557
 20
108.938053
 30
0.0
 11
151.772993
 21
108.951489
 31
0.0
  0
LINE
  5
20D
100
AcDbEntity
  8
SCHRAFUR
 62
     7
100
AcDbLine
 10
151.772993
 20
119.728092
 30
0.0
 11
153.597171
 21
121.552271
 31
0.0
  0
LINE
  5
20C
100
AcDbEntity
  8
SCHRAFUR
 62
     7
100
AcDbLine
 10
114.055743
 20
92.787101
 30
0.0
 11
116.500038
 21
95.231396
 31
0.0
  0
LINE
  5
20B
100
AcDbEntity
  8
SCHRAFUR
 62
     7
100
AcDbLine
 10
112.709055
 20
102.216328
 30
0.0
 11
115.40312
 21
104.910392
 31
0.0
  0
LINE
  5
20A
100
AcDbEntity
  8
SCHRAFUR
 62
     7
100
AcDbLine
 10
108.667958
 20
98.175231
 30
0.0
 11
111.362023
 21
100.869295
 31
0.0
  0
LINE
  5
209
100
AcDbEntity
  8
SCHRAFUR
 62
     7
100
AcDbLine
 10
115.40312
 20
115.686995
 30
0.0
 11
116.500038
 21
116.784258
 31
0.0
  0
LINE
  5
208
100
AcDbEntity
  8
SCHRAFUR
 62
     7
100
AcDbLine
 10
111.362023
 20
111.645898
 30
0.0
 11
114.055743
 21
114.339619
 31
0.0
  0
LINE
  5
207
100
AcDbEntity
  8
SCHRAFUR
 62
     7
100
AcDbLine
 10
107.685072
 20
107.968948
 30
0.0
 11
110.014646
 21
110.298522
 31
0.0
  0
LINE
  5
206
100
AcDbEntity
  8
SCHRAFUR
 62
     7
100
AcDbLine
 10
110.014646
 20
121.07478
 30
0.0
 11
110.491791
 21
121.552271
 31
0.0
  0
LINE
  5
205
100
AcDbEntity
  8
SCHRAFUR
 62
     7
100
AcDbLine
 10
107.685072
 20
118.745896
 30
0.0
 11
108.667958
 21
119.728092
 31
0.0
  0
LINE
  5
204
100
AcDbEntity
  8
SCHRAFUR
 62
     7
100
AcDbLine
 10
157.161122
 20
178.997515
 30
0.0
 11
159.855187
 21
181.691752
 31
0.0
  0
LINE
  5
203
100
AcDbEntity
  8
SCHRAFUR
 62
     7
100
AcDbLine
 10
153.120025
 20
174.956418
 30
0.0
 11
155.81409
 21
177.650655
 31
0.0
  0
LINE
  5
202
100
AcDbEntity
  8
SCHRAFUR
 62
     7
100
AcDbLine
 10
151.087763
 20
172.924156
 30
0.0
 11
151.772993
 21
173.609558
 31
0.0
  0
LINE
  5
201
100
AcDbEntity
  8
SCHRAFUR
 62
     7
100
AcDbLine
 10
159.855187
 20
192.468183
 30
0.0
 11
160.573834
 21
193.18683
 31
0.0
  0
LINE
  5
200
100
AcDbEntity
  8
SCHRAFUR
 62
     7
100
AcDbLine
 10
155.81409
 20
188.427086
 30
0.0
 11
158.508499
 21
191.121151
 31
0.0
  0
LINE
  5
1FF
100
AcDbEntity
  8
SCHRAFUR
 62
     7
100
AcDbLine
 10
151.772993
 20
184.385989
 30
0.0
 11
154.467402
 21
187.079709
 31
0.0
  0
LINE
  5
1FE
100
AcDbEntity
  8
SCHRAFUR
 62
     7
100
AcDbLine
 10
158.508499
 20
201.897237
 30
0.0
 11
159.478982
 21
202.868237
 31
0.0
  0
LINE
  5
1FD
100
AcDbEntity
  8
SCHRAFUR
 62
     7
100
AcDbLine
 10
154.467402
 20
197.85614
 30
0.0
 11
157.161122
 21
200.550377
 31
0.0
  0
LINE
  5
1FC
100
AcDbEntity
  8
SCHRAFUR
 62
     7
100
AcDbLine
 10
151.759557
 20
195.148467
 30
0.0
 11
153.120025
 21
196.50928
 31
0.0
  0
LINE
  5
1FB
100
AcDbEntity
  8
SCHRAFUR
 62
     7
100
AcDbLine
 10
115.40312
 20
180.344892
 30
0.0
 11
116.500038
 21
181.44181
 31
0.0
  0
LINE
  5
1FA
100
AcDbEntity
  8
SCHRAFUR
 62
     7
100
AcDbLine
 10
111.362023
 20
176.303451
 30
0.0
 11
114.055743
 21
178.997515
 31
0.0
  0
LINE
  5
1F9
100
AcDbEntity
  8
SCHRAFUR
 62
     7
100
AcDbLine
 10
108.565639
 20
173.507411
 30
0.0
 11
110.014646
 21
174.956418
 31
0.0
  0
LINE
  5
1F8
100
AcDbEntity
  8
SCHRAFUR
 62
     7
100
AcDbLine
 10
114.055743
 20
189.773946
 30
0.0
 11
116.500038
 21
192.218241
 31
0.0
  0
LINE
  5
1F7
100
AcDbEntity
  8
SCHRAFUR
 62
     7
100
AcDbLine
 10
110.014646
 20
185.732849
 30
0.0
 11
112.709055
 21
188.427086
 31
0.0
  0
LINE
  5
1F6
100
AcDbEntity
  8
SCHRAFUR
 62
     7
100
AcDbLine
 10
107.685072
 20
183.403276
 30
0.0
 11
108.667958
 21
184.385989
 31
0.0
  0
LINE
  5
1F5
100
AcDbEntity
  8
SCHRAFUR
 62
     7
100
AcDbLine
 10
112.709055
 20
199.203345
 30
0.0
 11
115.40312
 21
201.897237
 31
0.0
  0
LINE
  5
1F4
100
AcDbEntity
  8
SCHRAFUR
 62
     7
100
AcDbLine
 10
108.667958
 20
195.162248
 30
0.0
 11
111.362023
 21
197.85614
 31
0.0
  0
LINE
  5
1F3
100
AcDbEntity
  8
SCHRAFUR
 62
     7
100
AcDbLine
 10
151.759557
 20
92.773665
 30
0.0
 11
160.573834
 21
101.587942
 31
0.0
  0
LINE
  5
1F2
100
AcDbEntity
  8
SCHRAFUR
 62
     7
100
AcDbLine
 10
151.759557
 20
103.54958
 30
0.0
 11
160.573834
 21
112.36489
 31
0.0
  0
LINE
  5
1F1
100
AcDbEntity
  8
SCHRAFUR
 62
     7
100
AcDbLine
 10
151.759557
 20
114.326527
 30
0.0
 11
158.9853
 21
121.552271
 31
0.0
  0
LINE
  5
1F0
100
AcDbEntity
  8
SCHRAFUR
 62
     7
100
AcDbLine
 10
107.710566
 20
91.830054
 30
0.0
 11
116.500038
 21
100.61987
 31
0.0
  0
LINE
  5
1EF
100
AcDbEntity
  8
SCHRAFUR
 62
     7
100
AcDbLine
 10
107.685072
 20
102.580819
 30
0.0
 11
116.500038
 21
111.395785
 31
0.0
  0
LINE
  5
1EE
100
AcDbEntity
  8
SCHRAFUR
 62
     7
100
AcDbLine
 10
107.685072
 20
113.357422
 30
0.0
 11
115.879921
 21
121.552271
 31
0.0
  0
LINE
  5
1ED
100
AcDbEntity
  8
SCHRAFUR
 62
     7
100
AcDbLine
 10
156.550996
 20
172.999259
 30
0.0
 11
160.573834
 21
177.02227
 31
0.0
  0
LINE
  5
1EC
100
AcDbEntity
  8
SCHRAFUR
 62
     7
100
AcDbLine
 10
151.759557
 20
178.983907
 30
0.0
 11
160.573834
 21
187.798701
 31
0.0
  0
LINE
  5
1EB
100
AcDbEntity
  8
SCHRAFUR
 62
     7
100
AcDbLine
 10
151.759557
 20
189.760338
 30
0.0
 11
160.573834
 21
198.574959
 31
0.0
  0
LINE
  5
1EA
100
AcDbEntity
  8
SCHRAFUR
 62
     7
100
AcDbLine
 10
151.759557
 20
200.536597
 30
0.0
 11
154.091197
 21
202.868237
 31
0.0
  0
LINE
  5
1E9
100
AcDbEntity
  8
SCHRAFUR
 62
     7
100
AcDbLine
 10
113.954112
 20
173.507411
 30
0.0
 11
116.500038
 21
176.053853
 31
0.0
  0
LINE
  5
1E8
100
AcDbEntity
  8
SCHRAFUR
 62
     7
100
AcDbLine
 10
107.685072
 20
178.015318
 30
0.0
 11
116.500038
 21
186.82994
 31
0.0
  0
LINE
  5
1E7
100
AcDbEntity
  8
SCHRAFUR
 62
     7
100
AcDbLine
 10
107.685072
 20
188.791577
 30
0.0
 11
116.500038
 21
197.606198
 31
0.0
  0
LINE
  5
1E6
100
AcDbEntity
  8
SCHRAFUR
 62
     7
100
AcDbLine
 10
107.685072
 20
199.567836
 30
0.0
 11
110.985818
 21
202.868237
 31
0.0
  0
INSERT
  5
1A2
100
AcDbEntity
  8
EBENE_1
 62
     7
100
AcDbBlockReference
  2
AI9-BLK6
 10
85.116941
 20
129.251025
 30
0.0
  0
INSERT
  5
15E
100
AcDbEntity
  8
EBENE_1
 62
     7
100
AcDbBlockReference
  2
AI9-BLK5
 10
85.116941
 20
126.720947
 30
0.0
  0
INSERT
  5
11A
100
AcDbEntity
  8
EBENE_1
 62
     7
100
AcDbBlockReference
  2
AI9-BLK4
 10
85.116941
 20
124.190869
 30
0.0
  0
INSERT
  5
D6
100
AcDbEntity
  8
EBENE_1
 62
     7
100
AcDbBlockReference
  2
AI9-BLK3
 10
85.116941
 20
131.776969
 30
0.0
  0
POLYLINE
  5
CE
100
AcDbEntity
  8
SCHRAFFUR
 62
     7
100
AcDb2dPolyline
 66
     1
 10
0.0
 20
0.0
 30
0.0
 70
     1
  0
VERTEX
  5
CF
100
AcDbEntity
  8
SCHRAFFUR
 62
     7
100
AcDbVertex
100
AcDb2dVertex
 10
110.337107
 20
125.492771
 30
0.0
  0
VERTEX
  5
D0
100
AcDbEntity
  8
SCHRAFFUR
 62
     7
100
AcDbVertex
100
AcDb2dVertex
 10
117.536667
 20
125.492771
 30
0.0
  0
VERTEX
  5
D1
100
AcDbEntity
  8
SCHRAFFUR
 62
     7
100
AcDbVertex
100
AcDb2dVertex
 10
117.536667
 20
169.566566
 30
0.0
  0
VERTEX
  5
D2
100
AcDbEntity
  8
SCHRAFFUR
 62
     7
100
AcDbVertex
100
AcDb2dVertex
 10
110.337107
 20
169.566566
 30
0.0
  0
SEQEND
  5
D3
100
AcDbEntity
  8
SCHRAFFUR
 62
     7
  0
INSERT
  5
B3
100
AcDbEntity
  8
SCHRAFFUR
  6
AI9-LType1
 62
     7
100
AcDbBlockReference
  2
AI9-BLK2
 10
113.936887
 20
147.529669
 30
0.0
  0
LINE
  5
B0
100
AcDbEntity
  8
MITTELLINIE
  6
AI9-LType1
 62
     7
100
AcDbLine
 10
171.376964
 20
147.530013
 30
0.0
 11
97.479838
 21
147.530013
 31
0.0
  0
LINE
  5
AE
100
AcDbEntity
  8
MITTELLINIE
 62
     7
100
AcDbLine
 10
106.641897
 20
130.383773
 30
0.0
 11
118.894724
 21
130.383773
 31
0.0
  0
LINE
  5
AD
100
AcDbEntity
  8
MITTELLINIE
 62
     7
100
AcDbLine
 10
106.808295
 20
164.675909
 30
0.0
 11
118.894724
 21
164.675909
 31
0.0
  0
SPLINE
  5
AB
100
AcDbEntity
  8
OBJEKT
 62
     7
100
AcDbSpline
210
0.0
220
0.0
230
1.0
 70
     8
 71
     3
 72
    11
 73
     7
 74
     0
 42
0.00000001
 43
0.00000001
 40
0.0
 40
0.0
 40
0.0
 40
0.0
 40
1.0
 40
1.0
 40
1.0
 40
2.0
 40
2.0
 40
2.0
 40
2.0
 10
152.1371392144097
 20
173.50741102430553
 30
0.0
 10
151.81536729600694
 20
172.94913330078123
 30
0.0
 10
151.10119900173609
 20
172.75775824652777
 30
0.0
 10
150.54240451388887
 20
173.08021918402775
 30
0.0
 10
150.36532660590277
 20
173.18271077473958
 30
0.0
 10
150.21753200954859
 20
173.32998860677083
 30
0.0
 10
150.1152126736111
 20
173.50741102430553
 30
0.0
  0
SPLINE
  5
AA
100
AcDbEntity
  8
OBJEKT
 62
     7
100
AcDbSpline
210
0.0
220
0.0
230
1.0
 70
     8
 71
     3
 72
    11
 73
     7
 74
     0
 42
0.00000001
 43
0.00000001
 40
0.0
 40
0.0
 40
0.0
 40
0.0
 40
1.0
 40
1.0
 40
1.0
 40
2.0
 40
2.0
 40
2.0
 40
2.0
 10
157.97554253472219
 20
173.50741102430553
 30
0.0
 10
157.65308159722221
 20
172.94913330078123
 30
0.0
 10
156.93891330295136
 20
172.75775824652777
 30
0.0
 10
156.38046332465277
 20
173.08021918402775
 30
0.0
 10
156.20304090711804
 20
173.18271077473958
 30
0.0
 10
156.05593532986109
 20
173.32998860677083
 30
0.0
 10
155.95292697482637
 20
173.50741102430553
 30
0.0
  0
SPLINE
  5
A9
100
AcDbEntity
  8
OBJEKT
 62
     7
100
AcDbSpline
210
0.0
220
0.0
230
1.0
 70
     8
 71
     3
 72
    11
 73
     7
 74
     0
 42
0.00000001
 43
0.00000001
 40
0.0
 40
0.0
 40
0.0
 40
0.0
 40
1.0
 40
1.0
 40
1.0
 40
2.0
 40
2.0
 40
2.0
 40
2.0
 10
146.29942491319443
 20
173.50741102430553
 30
0.0
 10
145.97696397569442
 20
172.94913330078123
 30
0.0
 10
145.2627956814236
 20
172.75775824652777
 30
0.0
 10
144.70400119357637
 20
173.08021918402775
 30
0.0
 10
144.52692328559027
 20
173.18271077473958
 30
0.0
 10
144.37947319878472
 20
173.32998860677083
 30
0.0
 10
144.2768093532986
 20
173.50741102430553
 30
0.0
  0
SPLINE
  5
A8
100
AcDbEntity
  8
OBJEKT
 62
     7
100
AcDbSpline
210
0.0
220
0.0
230
1.0
 70
     8
 71
     3
 72
    11
 73
     7
 74
     0
 42
0.00000001
 43
0.00000001
 40
0.0
 40
0.0
 40
0.0
 40
0.0
 40
1.0
 40
1.0
 40
1.0
 40
2.0
 40
2.0
 40
2.0
 40
2.0
 10
140.46136610243053
 20
173.50741102430553
 30
0.0
 10
140.13890516493055
 20
172.94913330078123
 30
0.0
 10
139.4247368706597
 20
172.75775824652777
 30
0.0
 10
138.8662868923611
 20
173.08021918402775
 30
0.0
 10
138.68886447482637
 20
173.18271077473958
 30
0.0
 10
138.5410698784722
 20
173.32998860677083
 30
0.0
 10
138.43875054253471
 20
173.50741102430553
 30
0.0
  0
SPLINE
  5
A7
100
AcDbEntity
  8
OBJEKT
 62
     7
100
AcDbSpline
210
0.0
220
0.0
230
1.0
 70
     8
 71
     3
 72
    11
 73
     7
 74
     0
 42
0.00000001
 43
0.00000001
 40
0.0
 40
0.0
 40
0.0
 40
0.0
 40
1.0
 40
1.0
 40
1.0
 40
2.0
 40
2.0
 40
2.0
 40
2.0
 10
134.62296278211804
 20
173.50741102430553
 30
0.0
 10
134.30050184461805
 20
172.94913330078123
 30
0.0
 10
133.58633355034721
 20
172.75775824652777
 30
0.0
 10
133.02788357204861
 20
173.08021918402775
 30
0.0
 10
132.85046115451388
 20
173.18271077473958
 30
0.0
 10
132.70335557725693
 20
173.32998860677083
 30
0.0
 10
132.60103624131943
 20
173.50741102430553
 30
0.0
  0
SPLINE
  5
A6
100
AcDbEntity
  8
OBJEKT
 62
     7
100
AcDbSpline
210
0.0
220
0.0
230
1.0
 70
     8
 71
     3
 72
    11
 73
     7
 74
     0
 42
0.00000001
 43
0.00000001
 40
0.0
 40
0.0
 40
0.0
 40
0.0
 40
1.0
 40
1.0
 40
1.0
 40
2.0
 40
2.0
 40
2.0
 40
2.0
 10
129.61517198350694
 20
173.50741102430553
 30
0.0
 10
129.29271104600693
 20
172.94913330078123
 30
0.0
 10
128.57854275173611
 20
172.75775824652777
 30
0.0
 10
128.02043728298611
 20
173.08021918402775
 30
0.0
 10
127.84267035590277
 20
173.18271077473958
 30
0.0
 10
127.69522026909721
 20
173.32998860677083
 30
0.0
 10
127.5925564236111
 20
173.50741102430553
 30
0.0
  0
SPLINE
  5
A5
100
AcDbEntity
  8
OBJEKT
 62
     7
100
AcDbSpline
210
0.0
220
0.0
230
1.0
 70
     8
 71
     3
 72
    11
 73
     7
 74
     0
 42
0.00000001
 43
0.00000001
 40
0.0
 40
0.0
 40
0.0
 40
0.0
 40
1.0
 40
1.0
 40
1.0
 40
2.0
 40
2.0
 40
2.0
 40
2.0
 10
124.04858669704861
 20
173.50741102430553
 30
0.0
 10
123.72612575954859
 20
172.94913330078123
 30
0.0
 10
123.01195746527776
 20
172.75775824652777
 30
0.0
 10
122.45316297743055
 20
173.08021918402775
 30
0.0
 10
122.27608506944443
 20
173.18271077473958
 30
0.0
 10
122.12863498263887
 20
173.32998860677083
 30
0.0
 10
122.02597113715277
 20
173.50741102430553
 30
0.0
  0
SPLINE
  5
A4
100
AcDbEntity
  8
OBJEKT
 62
     7
100
AcDbSpline
210
0.0
220
0.0
230
1.0
 70
     8
 71
     3
 72
    11
 73
     7
 74
     0
 42
0.00000001
 43
0.00000001
 40
0.0
 40
0.0
 40
0.0
 40
0.0
 40
1.0
 40
1.0
 40
1.0
 40
2.0
 40
2.0
 40
2.0
 40
2.0
 10
119.04045138888888
 20
173.50741102430553
 30
0.0
 10
118.71799045138887
 20
172.94913330078123
 30
0.0
 10
118.00382215711805
 20
172.75775824652777
 30
0.0
 10
117.44537217881944
 20
173.08021918402775
 30
0.0
 10
117.26794976128471
 20
173.18271077473958
 30
0.0
 10
117.12084418402776
 20
173.32998860677083
 30
0.0
 10
117.01783582899304
 20
173.50741102430553
 30
0.0
  0
SPLINE
  5
A3
100
AcDbEntity
  8
OBJEKT
 62
     7
100
AcDbSpline
210
0.0
220
0.0
230
1.0
 70
     8
 71
     3
 72
    11
 73
     7
 74
     0
 42
0.00000001
 43
0.00000001
 40
0.0
 40
0.0
 40
0.0
 40
0.0
 40
1.0
 40
1.0
 40
1.0
 40
2.0
 40
2.0
 40
2.0
 40
2.0
 10
113.20204806857637
 20
173.50741102430553
 30
0.0
 10
112.87958713107638
 20
172.94913330078123
 30
0.0
 10
112.16610785590277
 20
172.75775824652777
 30
0.0
 10
111.60731336805554
 20
173.08021918402775
 30
0.0
 10
111.42954644097222
 20
173.18271077473958
 30
0.0
 10
111.28244086371527
 20
173.32998860677083
 30
0.0
 10
111.18012152777777
 20
173.50741102430553
 30
0.0
  0
SPLINE
  5
A2
100
AcDbEntity
  8
OBJEKT
 62
     7
100
AcDbSpline
210
0.0
220
0.0
230
1.0
 70
     8
 71
     3
 72
    11
 73
     7
 74
     0
 42
0.00000001
 43
0.00000001
 40
0.0
 40
0.0
 40
0.0
 40
0.0
 40
1.0
 40
1.0
 40
1.0
 40
2.0
 40
2.0
 40
2.0
 40
2.0
 10
151.75955674913192
 20
121.94983452690971
 30
0.0
 10
149.95639377170139
 20
122.27884114583333
 30
0.0
 10
152.39035373263889
 20
122.21924099392361
 30
0.0
 10
150.54240451388887
 20
121.97946234809027
 30
0.0
 10
149.85476345486109
 20
121.38552788628471
 30
0.0
 10
150.70949164496525
 20
122.23991156684026
 30
0.0
 10
150.1152126736111
 20
121.55227050781249
 30
0.0
  0
SPLINE
  5
A1
100
AcDbEntity
  8
OBJEKT
 62
     7
100
AcDbSpline
210
0.0
220
0.0
230
1.0
 70
     8
 71
     3
 72
    11
 73
     7
 74
     0
 42
0.00000001
 43
0.00000001
 40
0.0
 40
0.0
 40
0.0
 40
0.0
 40
1.0
 40
1.0
 40
1.0
 40
2.0
 40
2.0
 40
2.0
 40
2.0
 10
146.29942491319443
 20
121.55227050781249
 30
0.0
 10
145.97696397569442
 20
122.11037597656249
 30
0.0
 10
145.2627956814236
 20
122.30157877604165
 30
0.0
 10
144.70400119357637
 20
121.97946234809027
 30
0.0
 10
144.52692328559027
 20
121.87679850260416
 30
0.0
 10
144.37947319878472
 20
121.7293484157986
 30
0.0
 10
144.2768093532986
 20
121.55227050781249
 30
0.0
  0
SPLINE
  5
A0
100
AcDbEntity
  8
OBJEKT
 62
     7
100
AcDbSpline
210
0.0
220
0.0
230
1.0
 70
     8
 71
     3
 72
    11
 73
     7
 74
     0
 42
0.00000001
 43
0.00000001
 40
0.0
 40
0.0
 40
0.0
 40
0.0
 40
1.0
 40
1.0
 40
1.0
 40
2.0
 40
2.0
 40
2.0
 40
2.0
 10
140.46136610243053
 20
121.55227050781249
 30
0.0
 10
140.13890516493055
 20
122.11037597656249
 30
0.0
 10
139.4247368706597
 20
122.30157877604165
 30
0.0
 10
138.8662868923611
 20
121.97946234809027
 30
0.0
 10
138.68886447482637
 20
121.87679850260416
 30
0.0
 10
138.5410698784722
 20
121.7293484157986
 30
0.0
 10
138.43875054253471
 20
121.55227050781249
 30
0.0
  0
SPLINE
  5
9F
100
AcDbEntity
  8
OBJEKT
 62
     7
100
AcDbSpline
210
0.0
220
0.0
230
1.0
 70
     8
 71
     3
 72
    11
 73
     7
 74
     0
 42
0.00000001
 43
0.00000001
 40
0.0
 40
0.0
 40
0.0
 40
0.0
 40
1.0
 40
1.0
 40
1.0
 40
2.0
 40
2.0
 40
2.0
 40
2.0
 10
134.62296278211804
 20
121.55227050781249
 30
0.0
 10
134.30050184461805
 20
122.11037597656249
 30
0.0
 10
133.58633355034721
 20
122.30157877604165
 30
0.0
 10
133.02788357204861
 20
121.97946234809027
 30
0.0
 10
132.85046115451388
 20
121.87679850260416
 30
0.0
 10
132.70335557725693
 20
121.7293484157986
 30
0.0
 10
132.60103624131943
 20
121.55227050781249
 30
0.0
  0
SPLINE
  5
9E
100
AcDbEntity
  8
OBJEKT
 62
     7
100
AcDbSpline
210
0.0
220
0.0
230
1.0
 70
     8
 71
     3
 72
    11
 73
     7
 74
     0
 42
0.00000001
 43
0.00000001
 40
0.0
 40
0.0
 40
0.0
 40
0.0
 40
1.0
 40
1.0
 40
1.0
 40
2.0
 40
2.0
 40
2.0
 40
2.0
 10
129.61517198350694
 20
121.55227050781249
 30
0.0
 10
129.29271104600693
 20
122.11037597656249
 30
0.0
 10
128.57854275173611
 20
122.30157877604165
 30
0.0
 10
128.02043728298611
 20
121.97946234809027
 30
0.0
 10
127.84267035590277
 20
121.87679850260416
 30
0.0
 10
127.69522026909721
 20
121.7293484157986
 30
0.0
 10
127.5925564236111
 20
121.55227050781249
 30
0.0
  0
SPLINE
  5
9D
100
AcDbEntity
  8
OBJEKT
 62
     7
100
AcDbSpline
210
0.0
220
0.0
230
1.0
 70
     8
 71
     3
 72
    11
 73
     7
 74
     0
 42
0.00000001
 43
0.00000001
 40
0.0
 40
0.0
 40
0.0
 40
0.0
 40
1.0
 40
1.0
 40
1.0
 40
2.0
 40
2.0
 40
2.0
 40
2.0
 10
119.04045138888888
 20
121.55227050781249
 30
0.0
 10
118.71799045138887
 20
122.11037597656249
 30
0.0
 10
118.00382215711805
 20
122.30157877604165
 30
0.0
 10
117.44537217881944
 20
121.97946234809027
 30
0.0
 10
117.26794976128471
 20
121.87679850260416
 30
0.0
 10
117.12084418402776
 20
121.7293484157986
 30
0.0
 10
117.01783582899304
 20
121.55227050781249
 30
0.0
  0
SPLINE
  5
9C
100
AcDbEntity
  8
OBJEKT
 62
     7
100
AcDbSpline
210
0.0
220
0.0
230
1.0
 70
     8
 71
     3
 72
    11
 73
     7
 74
     0
 42
0.00000001
 43
0.00000001
 40
0.0
 40
0.0
 40
0.0
 40
0.0
 40
1.0
 40
1.0
 40
1.0
 40
2.0
 40
2.0
 40
2.0
 40
2.0
 10
113.20204806857637
 20
121.55227050781249
 30
0.0
 10
112.87958713107638
 20
122.11037597656249
 30
0.0
 10
112.16610785590277
 20
122.30157877604165
 30
0.0
 10
111.60731336805554
 20
121.97946234809027
 30
0.0
 10
111.42954644097222
 20
121.87679850260416
 30
0.0
 10
111.28244086371527
 20
121.7293484157986
 30
0.0
 10
111.18012152777777
 20
121.55227050781249
 30
0.0
  0
LINE
  5
9B
100
AcDbEntity
  8
OBJEKT
 62
     7
100
AcDbLine
 10
150.115213
 20
173.507411
 30
0.0
 11
146.299425
 21
173.507411
 31
0.0
  0
LINE
  5
9A
100
AcDbEntity
  8
OBJEKT
 62
     7
100
AcDbLine
 10
150.115213
 20
121.552271
 30
0.0
 11
146.299425
 21
121.552271
 31
0.0
  0
LINE
  5
99
100
AcDbEntity
  8
OBJEKT
 62
     7
100
AcDbLine
 10
160.573834
 20
125.492771
 30
0.0
 11
107.685072
 21
125.492771
 31
0.0
  0
LINE
  5
98
100
AcDbEntity
  8
OBJEKT
 62
     7
100
AcDbLine
 10
160.573834
 20
169.566566
 30
0.0
 11
107.685072
 21
169.566566
 31
0.0
  0
LINE
  5
97
100
AcDbEntity
  8
OBJEKT
 62
     7
100
AcDbLine
 10
127.592556
 20
121.552271
 30
0.0
 11
125.315004
 21
121.552271
 31
0.0
  0
LINE
  5
96
100
AcDbEntity
  8
OBJEKT
 62
     7
100
AcDbLine
 10
113.202048
 20
121.552271
 30
0.0
 11
117.017836
 21
121.552271
 31
0.0
  0
LINE
  5
95
100
AcDbEntity
  8
OBJEKT
 62
     7
100
AcDbLine
 10
107.685072
 20
121.552271
 30
0.0
 11
111.180122
 21
121.552271
 31
0.0
  0
LINE
  5
94
100
AcDbEntity
  8
OBJEKT
 62
     7
100
AcDbLine
 10
138.438751
 20
121.552271
 30
0.0
 11
134.622963
 21
121.552271
 31
0.0
  0
LINE
  5
93
100
AcDbEntity
  8
OBJEKT
 62
     7
100
AcDbLine
 10
132.601036
 20
121.552271
 30
0.0
 11
129.615172
 21
121.552271
 31
0.0
  0
LINE
  5
92
100
AcDbEntity
  8
OBJEKT
 62
     7
100
AcDbLine
 10
144.276809
 20
121.552271
 30
0.0
 11
140.461366
 21
121.552271
 31
0.0
  0
LINE
  5
91
100
AcDbEntity
  8
OBJEKT
 62
     7
100
AcDbLine
 10
127.592556
 20
173.507411
 30
0.0
 11
124.048587
 21
173.507411
 31
0.0
  0
LINE
  5
90
100
AcDbEntity
  8
OBJEKT
 62
     7
100
AcDbLine
 10
113.202048
 20
173.507411
 30
0.0
 11
117.017836
 21
173.507411
 31
0.0
  0
LINE
  5
8F
100
AcDbEntity
  8
OBJEKT
 62
     7
100
AcDbLine
 10
107.685072
 20
173.507411
 30
0.0
 11
111.180122
 21
173.507411
 31
0.0
  0
LINE
  5
8E
100
AcDbEntity
  8
OBJEKT
 62
     7
100
AcDbLine
 10
122.025971
 20
173.507411
 30
0.0
 11
119.040451
 21
173.507411
 31
0.0
  0
LINE
  5
8D
100
AcDbEntity
  8
OBJEKT
 62
     7
100
AcDbLine
 10
138.438751
 20
173.507411
 30
0.0
 11
134.622963
 21
173.507411
 31
0.0
  0
LINE
  5
8C
100
AcDbEntity
  8
OBJEKT
 62
     7
100
AcDbLine
 10
132.601036
 20
173.507411
 30
0.0
 11
129.615172
 21
173.507411
 31
0.0
  0
LINE
  5
8B
100
AcDbEntity
  8
OBJEKT
 62
     7
100
AcDbLine
 10
144.276809
 20
173.507411
 30
0.0
 11
140.461366
 21
173.507411
 31
0.0
  0
LINE
  5
8A
100
AcDbEntity
  8
OBJEKT
 62
     7
100
AcDbLine
 10
155.952927
 20
173.507411
 30
0.0
 11
152.137139
 21
173.507411
 31
0.0
  0
LINE
  5
89
100
AcDbEntity
  8
OBJEKT
 62
     7
100
AcDbLine
 10
160.573834
 20
173.507411
 30
0.0
 11
157.975543
 21
173.507411
 31
0.0
  0
LINE
  5
87
100
AcDbEntity
  8
AM_8
 62
   253
100
AcDbLine
 10
121.790671
 20
125.492771
 30
0.0
 11
76.342455
 21
106.193001
 31
0.0
  0
LINE
  5
86
100
AcDbEntity
  8
AM_8
 62
   253
100
AcDbLine
 10
110.706076
 20
162.542017
 30
0.0
 11
63.680178
 21
152.589825
 31
0.0
  0
LINE
  5
85
100
AcDbEntity
  8
AM_8
 62
   253
100
AcDbLine
 10
112.98294
 20
175.976855
 30
0.0
 11
86.226606
 21
169.580347
 31
0.0
  0
LINE
  5
84
100
AcDbEntity
  8
AM_8
 62
   253
100
AcDbLine
 10
119.509673
 20
187.794911
 30
0.0
 11
82.498668
 21
196.31825
 31
0.0
  0
LINE
  5
82
100
AcDbEntity
  8
AM_0
 62
     7
100
AcDbLine
 10
108.573907
 20
135.409134
 30
0.0
 11
101.705248
 21
135.409134
 31
0.0
  0
LINE
  5
81
100
AcDbEntity
  8
AM_0
 62
     7
100
AcDbLine
 10
108.573907
 20
159.650203
 30
0.0
 11
101.705248
 21
159.650203
 31
0.0
  0
SPLINE
  5
80
100
AcDbEntity
  8
AM_0
 62
     7
100
AcDbSpline
210
0.0
220
0.0
230
1.0
 70
     8
 71
     3
 72
    11
 73
     7
 74
     0
 42
0.00000001
 43
0.00000001
 40
0.0
 40
0.0
 40
0.0
 40
0.0
 40
1.0
 40
1.0
 40
1.0
 40
2.0
 40
2.0
 40
2.0
 40
2.0
 10
99.77737223307291
 20
137.29704589843749
 30
0.0
 10
99.799937608506937
 20
136.23182237413192
 30
0.0
 10
100.68119303385416
 20
135.38777398003472
 30
0.0
 10
101.74572753906249
 20
135.40982259114583
 30
0.0
 10
102.79717068142361
 20
135.43187120225693
 30
0.0
 10
103.63656819661458
 20
136.29245605468748
 30
0.0
 10
103.63329535590277
 20
137.34355468749999
 30
0.0
  0
SPLINE
  5
7F
100
AcDbEntity
  8
AM_0
 62
     7
100
AcDbSpline
210
0.0
220
0.0
230
1.0
 70
     8
 71
     3
 72
    11
 73
     7
 74
     0
 42
0.00000001
 43
0.00000001
 40
0.0
 40
0.0
 40
0.0
 40
0.0
 40
1.0
 40
1.0
 40
1.0
 40
2.0
 40
2.0
 40
2.0
 40
2.0
 10
100.87859700520832
 20
137.33735351562498
 30
0.0
 10
100.87859700520832
 20
136.88087836371525
 30
0.0
 10
101.24894476996526
 20
136.51156412760415
 30
0.0
 10
101.70524766710068
 20
136.51156412760415
 30
0.0
 10
102.16155056423611
 20
136.51156412760415
 30
0.0
 10
102.53155381944444
 20
136.88087836371525
 30
0.0
 10
102.53155381944444
 20
137.33735351562498
 30
0.0
  0
SPLINE
  5
7E
100
AcDbEntity
  8
AM_0
 62
     7
100
AcDbSpline
210
0.0
220
0.0
230
1.0
 70
     8
 71
     3
 72
     8
 73
     4
 74
     0
 42
0.00000001
 43
0.00000001
 40
0.0
 40
0.0
 40
0.0
 40
0.0
 40
1.0
 40
1.0
 40
1.0
 40
1.0
 10
103.16476236979166
 20
143.85065104166665
 30
0.0
 10
102.74497748480901
 20
145.99453396267359
 30
0.0
 10
102.2328640407986
 20
148.12015787760416
 30
0.0
 10
101.62928331163194
 20
150.21994357638889
 30
0.0
  0
SPLINE
  5
7D
100
AcDbEntity
  8
AM_0
 62
     7
100
AcDbSpline
210
0.0
220
0.0
230
1.0
 70
     8
 71
     3
 72
     8
 73
     4
 74
     0
 42
0.00000001
 43
0.00000001
 40
0.0
 40
0.0
 40
0.0
 40
0.0
 40
1.0
 40
1.0
 40
1.0
 40
1.0
 10
102.53155381944444
 20
137.33735351562498
 30
0.0
 10
102.83248291015624
 20
141.65302463107636
 30
0.0
 10
102.52896999782985
 20
145.98902180989583
 30
0.0
 10
101.62928331163194
 20
150.21994357638889
 30
0.0
  0
SPLINE
  5
7C
100
AcDbEntity
  8
AM_0
 62
     7
100
AcDbSpline
210
0.0
220
0.0
230
1.0
 70
     8
 71
     3
 72
     8
 73
     4
 74
     0
 42
0.00000001
 43
0.00000001
 40
0.0
 40
0.0
 40
0.0
 40
0.0
 40
1.0
 40
1.0
 40
1.0
 40
1.0
 10
101.62928331163194
 20
150.21994357638889
 30
0.0
 10
100.74630533854166
 20
145.98626573350694
 30
0.0
 10
100.4934353298611
 20
141.64510091145831
 30
0.0
 10
100.87859700520832
 20
137.33735351562498
 30
0.0
  0
SPLINE
  5
7B
100
AcDbEntity
  8
AM_0
 62
     7
100
AcDbSpline
210
0.0
220
0.0
230
1.0
 70
     8
 71
     3
 72
     8
 73
     4
 74
     0
 42
0.00000001
 43
0.00000001
 40
0.0
 40
0.0
 40
0.0
 40
0.0
 40
1.0
 40
1.0
 40
1.0
 40
1.0
 10
103.62364908854165
 20
137.1454616970486
 30
0.0
 10
103.74767252604165
 20
139.53256835937498
 30
0.0
 10
103.56559922960068
 20
141.92587619357639
 30
0.0
 10
103.08208007812499
 20
144.26612955729166
 30
0.0
  0
SPLINE
  5
7A
100
AcDbEntity
  8
AM_0
 62
     7
100
AcDbSpline
210
0.0
220
0.0
230
1.0
 70
     8
 71
     3
 72
     8
 73
     4
 74
     0
 42
0.00000001
 43
0.00000001
 40
0.0
 40
0.0
 40
0.0
 40
0.0
 40
1.0
 40
1.0
 40
1.0
 40
1.0
 10
101.62928331163194
 20
150.21994357638889
 30
0.0
 10
100.17769232855902
 20
146.03449707031248
 30
0.0
 10
99.550512695312491
 20
141.60686035156249
 30
0.0
 10
99.783056640624991
 20
137.18232421874998
 30
0.0
  0
SPLINE
  5
79
100
AcDbEntity
  8
AM_0
 62
     7
100
AcDbSpline
210
0.0
220
0.0
230
1.0
 70
     8
 71
     3
 72
     8
 73
     4
 74
     0
 42
0.00000001
 43
0.00000001
 40
0.0
 40
0.0
 40
0.0
 40
0.0
 40
1.0
 40
1.0
 40
1.0
 40
1.0
 10
101.70524766710068
 20
159.65020345052082
 30
0.0
 10
101.30802815755207
 20
159.65020345052082
 30
0.0
 10
100.92045491536457
 20
159.52755805121527
 30
0.0
 10
100.59575466579861
 20
159.29880371093748
 30
0.0
  0
SPLINE
  5
78
100
AcDbEntity
  8
AM_0
 62
     7
100
AcDbSpline
210
0.0
220
0.0
230
1.0
 70
     8
 71
     3
 72
     8
 73
     4
 74
     0
 42
0.00000001
 43
0.00000001
 40
0.0
 40
0.0
 40
0.0
 40
0.0
 40
1.0
 40
1.0
 40
1.0
 40
1.0
 10
100.59575466579861
 20
159.29880371093748
 30
0.0
 10
100.0128445095486
 20
158.69866807725694
 30
0.0
 10
99.753428819444437
 20
157.85461968315971
 30
0.0
 10
99.898811848958317
 20
157.03055284288192
 30
0.0
  0
SPLINE
  5
77
100
AcDbEntity
  8
AM_0
 62
     7
100
AcDbSpline
210
0.0
220
0.0
230
1.0
 70
     8
 71
     3
 72
     8
 73
     4
 74
     0
 42
0.00000001
 43
0.00000001
 40
0.0
 40
0.0
 40
0.0
 40
0.0
 40
1.0
 40
1.0
 40
1.0
 40
1.0
 10
101.62928331163194
 20
150.21994357638889
 30
0.0
 10
101.11372477213541
 20
152.53849283854166
 30
0.0
 10
100.5275417751736
 20
154.84085015190971
 30
0.0
 10
99.871940104166654
 20
157.12374267578124
 30
0.0
  0
LINE
  5
76
100
AcDbEntity
  8
AM_0
 62
     7
100
AcDbLine
 10
125.315004
 20
173.507411
 30
0.0
 11
125.315004
 21
202.868237
 31
0.0
  0
LINE
  5
75
100
AcDbEntity
  8
AM_0
 62
     7
100
AcDbLine
 10
151.759557
 20
202.868237
 30
0.0
 11
151.759557
 21
173.110192
 31
0.0
  0
LINE
  5
74
100
AcDbEntity
  8
AM_0
 62
     7
100
AcDbLine
 10
107.685072
 20
169.566566
 30
0.0
 11
107.685072
 21
202.868237
 31
0.0
  0
LINE
  5
73
100
AcDbEntity
  8
AM_0
 62
     7
100
AcDbLine
 10
116.500038
 20
173.507411
 30
0.0
 11
116.500038
 21
202.868237
 31
0.0
  0
LINE
  5
72
100
AcDbEntity
  8
AM_0
 62
     7
100
AcDbLine
 10
160.573834
 20
202.868237
 30
0.0
 11
160.573834
 21
169.566566
 31
0.0
  0
SPLINE
  5
71
100
AcDbEntity
  8
AM_0
 62
     7
100
AcDbSpline
210
0.0
220
0.0
230
1.0
 70
     8
 71
     3
 72
     8
 73
     4
 74
     0
 42
0.00000001
 43
0.00000001
 40
0.0
 40
0.0
 40
0.0
 40
0.0
 40
1.0
 40
1.0
 40
1.0
 40
1.0
 10
165.30394965277776
 20
135.4091335720486
 30
0.0
 10
165.70116916232638
 20
135.4091335720486
 30
0.0
 10
166.08839789496525
 20
135.53246799045138
 30
0.0
 10
166.41327039930553
 20
135.76053331163195
 30
0.0
  0
SPLINE
  5
70
100
AcDbEntity
  8
AM_0
 62
     7
100
AcDbSpline
210
0.0
220
0.0
230
1.0
 70
     8
 71
     3
 72
     8
 73
     4
 74
     0
 42
0.00000001
 43
0.00000001
 40
0.0
 40
0.0
 40
0.0
 40
0.0
 40
1.0
 40
1.0
 40
1.0
 40
1.0
 10
166.41327039930553
 20
135.76053331163195
 30
0.0
 10
166.99618055555555
 20
136.36135796440971
 30
0.0
 10
167.25559624565972
 20
137.20506184895831
 30
0.0
 10
167.11055772569443
 20
138.02878417968748
 30
0.0
  0
SPLINE
  5
6F
100
AcDbEntity
  8
AM_0
 62
     7
100
AcDbSpline
210
0.0
220
0.0
230
1.0
 70
     8
 71
     3
 72
     8
 73
     4
 74
     0
 42
0.00000001
 43
0.00000001
 40
0.0
 40
0.0
 40
0.0
 40
0.0
 40
1.0
 40
1.0
 40
1.0
 40
1.0
 10
165.37974175347222
 20
144.83904893663194
 30
0.0
 10
165.89547254774305
 20
142.52118869357636
 30
0.0
 10
166.48148328993054
 20
140.21883138020831
 30
0.0
 10
167.13674045138887
 20
137.93576660156248
 30
0.0
  0
SPLINE
  5
6E
100
AcDbEntity
  8
AM_0
 62
     7
100
AcDbSpline
210
0.0
220
0.0
230
1.0
 70
     8
 71
     3
 72
    11
 73
     7
 74
     0
 42
0.00000001
 43
0.00000001
 40
0.0
 40
0.0
 40
0.0
 40
0.0
 40
1.0
 40
1.0
 40
1.0
 40
2.0
 40
2.0
 40
2.0
 40
2.0
 10
167.23182508680554
 20
157.76263563368053
 30
0.0
 10
167.20908745659722
 20
158.82751464843747
 30
0.0
 10
166.32748752170139
 20
159.67225206163192
 30
0.0
 10
165.26295301649304
 20
159.6496866861979
 30
0.0
 10
164.21185438368053
 20
159.62746582031249
 30
0.0
 10
163.37228461371527
 20
158.76722547743054
 30
0.0
 10
163.37572970920138
 20
157.71595458984373
 30
0.0
  0
SPLINE
  5
6D
100
AcDbEntity
  8
AM_0
 62
     7
100
AcDbSpline
210
0.0
220
0.0
230
1.0
 70
     8
 71
     3
 72
    11
 73
     7
 74
     0
 42
0.00000001
 43
0.00000001
 40
0.0
 40
0.0
 40
0.0
 40
0.0
 40
1.0
 40
1.0
 40
1.0
 40
2.0
 40
2.0
 40
2.0
 40
2.0
 10
166.13008355034719
 20
157.72198350694444
 30
0.0
 10
166.13008355034719
 20
158.17811414930554
 30
0.0
 10
165.76008029513886
 20
158.54811740451387
 30
0.0
 10
165.30394965277776
 20
158.54811740451387
 30
0.0
 10
164.84747450086803
 20
158.54811740451387
 30
0.0
 10
164.4774712456597
 20
158.17811414930554
 30
0.0
 10
164.4774712456597
 20
157.72198350694444
 30
0.0
  0
SPLINE
  5
6C
100
AcDbEntity
  8
AM_0
 62
     7
100
AcDbSpline
210
0.0
220
0.0
230
1.0
 70
     8
 71
     3
 72
     8
 73
     4
 74
     0
 42
0.00000001
 43
0.00000001
 40
0.0
 40
0.0
 40
0.0
 40
0.0
 40
1.0
 40
1.0
 40
1.0
 40
1.0
 10
164.4774712456597
 20
157.72198350694444
 30
0.0
 10
164.1763699001736
 20
153.40665690104166
 30
0.0
 10
164.48022732204859
 20
149.07048746744789
 30
0.0
 10
165.37974175347222
 20
144.83904893663194
 30
0.0
  0
SPLINE
  5
6B
100
AcDbEntity
  8
AM_0
 62
     7
100
AcDbSpline
210
0.0
220
0.0
230
1.0
 70
     8
 71
     3
 72
     8
 73
     4
 74
     0
 42
0.00000001
 43
0.00000001
 40
0.0
 40
0.0
 40
0.0
 40
0.0
 40
1.0
 40
1.0
 40
1.0
 40
1.0
 10
165.37974175347222
 20
144.83904893663194
 30
0.0
 10
166.26306423611109
 20
149.07307128906248
 30
0.0
 10
166.51558973524305
 20
153.41423611111111
 30
0.0
 10
166.13008355034719
 20
157.72198350694444
 30
0.0
  0
SPLINE
  5
6A
100
AcDbEntity
  8
AM_0
 62
     7
100
AcDbSpline
210
0.0
220
0.0
230
1.0
 70
     8
 71
     3
 72
     8
 73
     4
 74
     0
 42
0.00000001
 43
0.00000001
 40
0.0
 40
0.0
 40
0.0
 40
0.0
 40
1.0
 40
1.0
 40
1.0
 40
1.0
 10
163.38503146701387
 20
157.91387532552082
 30
0.0
 10
163.2616970486111
 20
155.52694091796874
 30
0.0
 10
163.44359809027776
 20
153.13380533854166
 30
0.0
 10
163.92660047743055
 20
150.79320746527776
 30
0.0
  0
SPLINE
  5
69
100
AcDbEntity
  8
AM_0
 62
     7
100
AcDbSpline
210
0.0
220
0.0
230
1.0
 70
     8
 71
     3
 72
     8
 73
     4
 74
     0
 42
0.00000001
 43
0.00000001
 40
0.0
 40
0.0
 40
0.0
 40
0.0
 40
1.0
 40
1.0
 40
1.0
 40
1.0
 10
163.84460720486109
 20
151.20903049045137
 30
0.0
 10
164.26421983506944
 20
149.06480305989581
 30
0.0
 10
164.77616102430554
 20
146.93917914496527
 30
0.0
 10
165.37974175347222
 20
144.83904893663194
 30
0.0
  0
SPLINE
  5
68
100
AcDbEntity
  8
AM_0
 62
     7
100
AcDbSpline
210
0.0
220
0.0
230
1.0
 70
     8
 71
     3
 72
     8
 73
     4
 74
     0
 42
0.00000001
 43
0.00000001
 40
0.0
 40
0.0
 40
0.0
 40
0.0
 40
1.0
 40
1.0
 40
1.0
 40
1.0
 10
165.37974175347222
 20
144.83904893663194
 30
0.0
 10
166.83150499131943
 20
149.02518446180554
 30
0.0
 10
167.45816786024304
 20
153.45264892578123
 30
0.0
 10
167.22562391493054
 20
157.87701280381944
 30
0.0
  0
LINE
  5
67
100
AcDbEntity
  8
AM_0
 62
     7
100
AcDbLine
 10
160.573834
 20
125.492771
 30
0.0
 11
107.685072
 21
125.492771
 31
0.0
  0
LINE
  5
66
100
AcDbEntity
  8
AM_0
 62
     7
100
AcDbLine
 10
160.573834
 20
125.490704
 30
0.0
 11
107.685072
 21
125.490704
 31
0.0
  0
LINE
  5
65
100
AcDbEntity
  8
AM_0
 62
     7
100
AcDbLine
 10
160.573834
 20
169.566566
 30
0.0
 11
107.685072
 21
169.566566
 31
0.0
  0
LINE
  5
64
100
AcDbEntity
  8
AM_0
 62
     7
100
AcDbLine
 10
165.30395
 20
135.409134
 30
0.0
 11
119.299867
 21
135.409134
 31
0.0
  0
LINE
  5
63
100
AcDbEntity
  8
AM_0
 62
     7
100
AcDbLine
 10
165.30395
 20
159.650203
 30
0.0
 11
119.299867
 21
159.650203
 31
0.0
  0
LINE
  5
62
100
AcDbEntity
  8
AM_0
 62
     7
100
AcDbLine
 10
160.573834
 20
125.495182
 30
0.0
 11
107.685072
 21
125.495182
 31
0.0
  0
LINE
  5
61
100
AcDbEntity
  8
AM_0
 62
     7
100
AcDbLine
 10
160.573834
 20
169.568978
 30
0.0
 11
107.685072
 21
169.568978
 31
0.0
  0
LINE
  5
60
100
AcDbEntity
  8
AM_0
 62
     7
100
AcDbLine
 10
110.337107
 20
169.125939
 30
0.0
 11
110.337107
 21
125.933398
 31
0.0
  0
LINE
  5
5F
100
AcDbEntity
  8
AM_0
 62
     7
100
AcDbLine
 10
119.299867
 20
169.125939
 30
0.0
 11
119.299867
 21
125.933398
 31
0.0
  0
LINE
  5
5E
100
AcDbEntity
  8
AM_0
 62
     7
100
AcDbLine
 10
117.536667
 20
125.933398
 30
0.0
 11
117.536667
 21
169.125939
 31
0.0
  0
LINE
  5
5D
100
AcDbEntity
  8
AM_0
 62
     7
100
AcDbLine
 10
108.573907
 20
125.933398
 30
0.0
 11
108.573907
 21
169.125939
 31
0.0
  0
LINE
  5
5C
100
AcDbEntity
  8
AM_0
 62
     7
100
AcDbLine
 10
110.337107
 20
169.566566
 30
0.0
 11
110.337107
 21
125.492771
 31
0.0
  0
LINE
  5
5B
100
AcDbEntity
  8
AM_0
 62
     7
100
AcDbLine
 10
107.685072
 20
135.409134
 30
0.0
 11
107.685072
 21
125.495182
 31
0.0
  0
LINE
  5
5A
100
AcDbEntity
  8
AM_0
 62
     7
100
AcDbLine
 10
125.315004
 20
91.830054
 30
0.0
 11
125.315004
 21
121.552271
 31
0.0
  0
LINE
  5
59
100
AcDbEntity
  8
AM_0
 62
     7
100
AcDbLine
 10
107.685072
 20
91.830054
 30
0.0
 11
107.685072
 21
125.492771
 31
0.0
  0
LINE
  5
58
100
AcDbEntity
  8
AM_0
 62
     7
100
AcDbLine
 10
116.500038
 20
91.830054
 30
0.0
 11
116.500038
 21
121.552271
 31
0.0
  0
LINE
  5
57
100
AcDbEntity
  8
AM_0
 62
     7
100
AcDbLine
 10
117.536667
 20
125.933398
 30
0.0
 11
119.299867
 21
125.933398
 31
0.0
  0
LINE
  5
56
100
AcDbEntity
  8
AM_0
 62
     7
100
AcDbLine
 10
119.299867
 20
125.933398
 30
0.0
 11
117.536667
 21
125.933398
 31
0.0
  0
LINE
  5
55
100
AcDbEntity
  8
AM_0
 62
     7
100
AcDbLine
 10
120.907693
 20
125.490704
 30
0.0
 11
112.092727
 21
125.490704
 31
0.0
  0
LINE
  5
54
100
AcDbEntity
  8
AM_0
 62
     7
100
AcDbLine
 10
112.092727
 20
125.495182
 30
0.0
 11
120.907693
 21
125.495182
 31
0.0
  0
LINE
  5
53
100
AcDbEntity
  8
AM_0
 62
     7
100
AcDbLine
 10
108.573907
 20
125.933398
 30
0.0
 11
110.337107
 21
125.933398
 31
0.0
  0
LINE
  5
52
100
AcDbEntity
  8
AM_0
 62
     7
100
AcDbLine
 10
110.337107
 20
125.933398
 30
0.0
 11
108.573907
 21
125.933398
 31
0.0
  0
LINE
  5
51
100
AcDbEntity
  8
AM_0
 62
     7
100
AcDbLine
 10
114.744073
 20
125.492771
 30
0.0
 11
110.337107
 21
125.492771
 31
0.0
  0
LINE
  5
50
100
AcDbEntity
  8
AM_0
 62
     7
100
AcDbLine
 10
110.337107
 20
125.492771
 30
0.0
 11
114.744073
 21
125.492771
 31
0.0
  0
LINE
  5
4F
100
AcDbEntity
  8
AM_0
 62
     7
100
AcDbLine
 10
114.744073
 20
125.492771
 30
0.0
 11
110.337107
 21
125.492771
 31
0.0
  0
LINE
  5
4E
100
AcDbEntity
  8
AM_0
 62
     7
100
AcDbLine
 10
119.064912
 20
130.383773
 30
0.0
 11
121.590856
 21
130.383773
 31
0.0
  0
LINE
  5
4D
100
AcDbEntity
  8
AM_0
 62
     7
100
AcDbLine
 10
117.536667
 20
169.125939
 30
0.0
 11
119.299867
 21
169.125939
 31
0.0
  0
LINE
  5
4C
100
AcDbEntity
  8
AM_0
 62
     7
100
AcDbLine
 10
108.573907
 20
169.125939
 30
0.0
 11
110.337107
 21
169.125939
 31
0.0
  0
LINE
  5
4B
100
AcDbEntity
  8
AM_0
 62
     7
100
AcDbLine
 10
107.685072
 20
169.568978
 30
0.0
 11
107.685072
 21
159.650203
 31
0.0
  0
LINE
  5
4A
100
AcDbEntity
  8
AM_0
 62
     7
100
AcDbLine
 10
114.744073
 20
169.566566
 30
0.0
 11
110.337107
 21
169.566566
 31
0.0
  0
LINE
  5
49
100
AcDbEntity
  8
AM_0
 62
     7
100
AcDbLine
 10
119.064912
 20
164.675909
 30
0.0
 11
121.590856
 21
164.675909
 31
0.0
  0
LINE
  5
48
100
AcDbEntity
  8
AM_0
 62
     7
100
AcDbLine
 10
160.573834
 20
135.409134
 30
0.0
 11
160.573834
 21
125.495182
 31
0.0
  0
LINE
  5
47
100
AcDbEntity
  8
AM_0
 62
     7
100
AcDbLine
 10
151.759557
 20
121.949835
 30
0.0
 11
151.759557
 21
91.830054
 31
0.0
  0
LINE
  5
46
100
AcDbEntity
  8
AM_0
 62
     7
100
AcDbLine
 10
160.573834
 20
125.492771
 30
0.0
 11
160.573834
 21
91.830054
 31
0.0
  0
LINE
  5
45
100
AcDbEntity
  8
AM_0
 62
     7
100
AcDbLine
 10
151.759557
 20
121.949835
 30
0.0
 11
151.759557
 21
92.320635
 31
0.0
  0
LINE
  5
44
100
AcDbEntity
  8
AM_0
 62
     7
100
AcDbLine
 10
160.573834
 20
169.568978
 30
0.0
 11
160.573834
 21
159.650203
 31
0.0
  0
LINE
  5
43
100
AcDbEntity
  8
AM_0
 62
     7
100
AcDbLine
 10
117.536667
 20
169.566566
 30
0.0
 11
117.536667
 21
125.492771
 31
0.0
  0
MTEXT
  5
41
100
AcDbEntity
  8
TEXT
 62
     7
100
AcDbMText
 10
39.387604
 20
110.989263
 30
0.0
 40
5.512152
 41
0.0
 71
     1
 72
     2
  1
\fArial|b0|i0;\H5.5122;\C7;\U+0046\U+0075\U+0074\U+0074\U+0065\U+0072\U+0072\U+006F\U+0068\U+0072
  7
STD
210
0.0
220
0.0
230
1.0
 73
     1
 44
1.0
  0
MTEXT
  5
40
100
AcDbEntity
  8
TEXT
 62
     7
100
AcDbMText
 10
39.360216
 20
176.851565
 30
0.0
 40
5.512152
 41
0.0
 71
     1
 72
     2
  1
\fArial|b0|i0;\H5.5122;\C7;\U+0045\U+006C\U+0065\U+006D\U+0065\U+006E\U+0074\U+0077\U+0061\U+006E\U+0064
  7
STD
210
0.0
220
0.0
230
1.0
 73
     1
 44
1.0
  0
MTEXT
  5
3F
100
AcDbEntity
  8
TEXT
 62
     7
100
AcDbMText
 10
39.360216
 20
184.259898
 30
0.0
 40
5.512152
 41
0.0
 71
     1
 72
     2
  1
\fArial|b0|i0;\H5.5122;\C7;\U+0044\U+006F\U+0070\U+0070\U+0065\U+006C\U+002D\U+0020\U+002F
  7
STD
210
0.0
220
0.0
230
1.0
 73
     1
 44
1.0
  0
MTEXT
  5
3E
100
AcDbEntity
  8
TEXT
 62
     7
100
AcDbMText
 10
40.225624
 20
202.678584
 30
0.0
 40
5.512152
 41
0.0
 71
     1
 72
     2
  1
\fArial|b0|i0;\H5.5122;\C7;\U+0057\U+00E4\U+0072\U+006D\U+0065\U+0064\U+00E4\U+006D\U+006D\U+0075\U+006E\U+0067
  7
STD
210
0.0
220
0.0
230
1.0
 73
     1
 44
1.0
  0
INSERT
  5
38
100
AcDbEntity
  8
TEXT
 62
     7
100
AcDbBlockReference
  2
AI9-BLK1
 10
54.025298
 20
146.440846
 30
0.0
  0
POLYLINE
  5
30
100
AcDbEntity
  8
RAHMEN
 62
     7
100
AcDb2dPolyline
 66
     1
 10
0.0
 20
0.0
 30
0.0
 70
     1
  0
VERTEX
  5
31
100
AcDbEntity
  8
RAHMEN
 62
     7
100
AcDbVertex
100
AcDb2dVertex
 10
24.520639
 20
221.677253
 30
0.0
  0
VERTEX
  5
32
100
AcDbEntity
  8
RAHMEN
 62
     7
100
AcDbVertex
100
AcDb2dVertex
 10
24.520639
 20
77.417497
 30
0.0
  0
VERTEX
  5
33
100
AcDbEntity
  8
RAHMEN
 62
     7
100
AcDbVertex
100
AcDb2dVertex
 10
186.188463
 20
77.417497
 30
0.0
  0
VERTEX
  5
34
100
AcDbEntity
  8
RAHMEN
 62
     7
100
AcDbVertex
100
AcDb2dVertex
 10
186.188463
 20
221.677253
 30
0.0
  0
SEQEND
  5
35
100
AcDbEntity
  8
RAHMEN
 62
     7
  0
POLYLINE
  5
2A
100
AcDbEntity
  8
RAHMEN
 62
     7
100
AcDb2dPolyline
 66
     1
 10
0.0
 20
0.0
 30
0.0
 70
     1
  0
VERTEX
  5
2B
100
AcDbEntity
  8
RAHMEN
 62
     7
100
AcDbVertex
100
AcDb2dVertex
 10
167.027875
 20
94.023201
 30
0.0
  0
VERTEX
  5
2C
100
AcDbEntity
  8
RAHMEN
 62
     7
100
AcDbVertex
100
AcDb2dVertex
 10
186.077875
 20
94.023201
 30
0.0
  0
VERTEX
  5
2D
100
AcDbEntity
  8
RAHMEN
 62
     7
100
AcDbVertex
100
AcDb2dVertex
 10
186.077875
 20
77.265568
 30
0.0
  0
VERTEX
  5
2E
100
AcDbEntity
  8
RAHMEN
 62
     7
100
AcDbVertex
100
AcDb2dVertex
 10
167.027875
 20
77.265568
 30
0.0
  0
SEQEND
  5
2F
100
AcDbEntity
  8
RAHMEN
 62
     7
  0
MTEXT
  5
29
100
AcDbEntity
  8
RAHMEN
 62
     7
100
AcDbMText
 10
168.174059
 20
91.5667
 30
0.0
 40
9.449404
 41
0.0
 71
     1
 72
     2
  1
\fMyriad Roman|b0|i0;\H9.4494;\C7;\U+0035\U+002E\U+0036
  7
STD
210
0.0
220
0.0
230
1.0
 73
     1
 44
1.0
  0
ENDSEC
  0
SECTION
  2
OBJECTS
  0
DICTIONARY
  5
19
100
AcDbDictionary
280
     0
281
     1
  3
ACAD_GROUP
350
1A
  3
ACAD_MLINESTYLE
350
1B
  3
ACAD_LAYOUT
350
1E
  3
ACAD_PLOTSETTINGS
350
22
  3
ACAD_PLOTSTYLENAME
350
1F
  3
ACAD_WIPEOUT_VARS
350
23
  0
DICTIONARY
  5
1A
102
{ACAD_REACTORS
330
19
102
}
100
AcDbDictionary
280
     0
281
     1
  0
DICTIONARY
  5
1B
102
{ACAD_REACTORS
330
19
102
}
100
AcDbDictionary
280
     0
281
     1
  3
Standard
350
1C
  0
MLINESTYLE
  5
1C
102
{ACAD_REACTORS
330
1B
102
}
100
AcDbMlineStyle
  2
Standard
 70
     0
  3

 62
     0
 51
90.0
 52
90.0
 71
     2
 49
0.5
 62
   256
  6
ByLayer
 49
-0.5
 62
   256
  6
ByLayer
  0
ACDBDICTIONARYWDFLT
  5
1F
102
{ACAD_REACTORS
330
19
102
}
100
AcDbDictionary
281
     1
  3
Normal
350
1D
100
AcDbDictionaryWithDefault
340
1D
  0
ACDBPLACEHOLDER
  5
1D
102
{ACAD_REACTORS
330
1F
102
}
  0
LAYOUT
  5
20
102
{ACAD_REACTORS
330
1E
102
}
100
AcDbPlotSettings
  1

  2

  4

  6

 40
0.0
 41
0.0
 42
0.0
 43
0.0
 44
0.0
 45
0.0
 46
0.0
 47
0.0
 48
0.0
 49
0.0
140
0.0
141
0.0
142
1.0
143
1.0
 70
  1024
 72
     0
 73
     0
 74
     0
  7

 75
     0
147
1.0
148
0.0
149
0.0
100
AcDbLayout
  1
Model
 70
     0
 71
     0
 10
0.0
 20
0.0
 11
0.0
 21
0.0
 12
0.0
 22
0.0
 32
0.0
 14
0.0
 24
0.0
 34
0.0
 15
0.0
 25
0.0
 35
0.0
146
0.0
 13
0.0
 23
0.0
 33
0.0
 16
0.0
 26
0.0
 36
0.0
 17
0.0
 27
0.0
 37
0.0
 76
     0
330
A
331
0
345
0
346
0
  0
LAYOUT
  5
21
102
{ACAD_REACTORS
330
1E
102
}
100
AcDbPlotSettings
  1

  2

  4

  6

 40
0.0
 41
0.0
 42
0.0
 43
0.0
 44
0.0
 45
0.0
 46
0.0
 47
0.0
 48
0.0
 49
0.0
140
0.0
141
0.0
142
1.0
143
1.0
 70
     0
 72
     0
 73
     0
 74
     0
  7

 75
     0
147
1.0
148
0.0
149
0.0
100
AcDbLayout
  1
Layout1
 70
     0
 71
     0
 10
0.0
 20
0.0
 11
0.0
 21
0.0
 12
0.0
 22
0.0
 32
0.0
 14
0.0
 24
0.0
 34
0.0
 15
0.0
 25
0.0
 35
0.0
146
0.0
 13
0.0
 23
0.0
 33
0.0
 16
0.0
 26
0.0
 36
0.0
 17
0.0
 27
0.0
 37
0.0
 76
     0
330
B
331
0
345
0
346
0
  0
DICTIONARY
  5
1E
102
{ACAD_REACTORS
330
19
102
}
100
AcDbDictionary
280
     0
281
     1
  3
Layout1
350
21
  3
Model
350
20
  0
DICTIONARY
  5
22
102
{ACAD_REACTORS
330
19
102
}
100
AcDbDictionary
280
     0
281
     1
  0
WIPEOUTVARIABLES
  5
23
100
AcDbWipeoutVariables
 70
     1
  0
ENDSEC
  0
EOF
