  0
SECTION
  2
HEADER
  9
$ACADVER
  1
AC1015
  9
$ACADMAINTVER
 70
     6
  9
$DWGCODEPAGE
  3
ANSI_932
  9
$INSBASE
 10
0.0
 20
0.0
 30
0.0
  9
$EXTMIN
 10
15.348417
 20
67.387101
 30
1.000000E+20
  9
$EXTMAX
 10
177.721796
 20
212.504514
 30
-1.000000E+20
  9
$LIMMIN
 10
15.348417
 20
67.387101
  9
$LIMMAX
 10
177.721796
 20
212.504514
  9
$ORTHOMODE
 70
     0
  9
$REGENMODE
 70
     1
  9
$FILLMODE
 70
     1
  9
$QTEXTMODE
 70
     0
  9
$MIRRTEXT
 70
     1
  9
$LTSCALE
 40
1.0
  9
$ATTMODE
 70
     1
  9
$TEXTSIZE
 40
0.2
  9
$TRACEWID
 40
0.05
  9
$TEXTSTYLE
  7
Standard
  9
$CLAYER
  8
0
  9
$CELTYPE
  6
Continuous
  9
$CECOLOR
 62
   256
  9
$CELTSCALE
 40
1.0
  9
$DISPSILH
 70
     0
  9
$DIMSCALE
 40
1.0
  9
$DIMASZ
 40
0.18
  9
$DIMEXO
 40
0.0625
  9
$DIMDLI
 40
0.38
  9
$DIMRND
 40
0.0
  9
$DIMDLE
 40
0.0
  9
$DIMEXE
 40
0.18
  9
$DIMTP
 40
0.0
  9
$DIMTM
 40
0.0
  9
$DIMTXT
 40
0.18
  9
$DIMCEN
 40
0.09
  9
$DIMTSZ
 40
0.0
  9
$DIMTOL
 70
     0
  9
$DIMLIM
 70
     0
  9
$DIMTIH
 70
     1
  9
$DIMTOH
 70
     1
  9
$DIMSE1
 70
     0
  9
$DIMSE2
 70
     0
  9
$DIMTAD
 70
     0
  9
$DIMZIN
 70
     0
  9
$DIMBLK
  1

  9
$DIMASO
 70
     1
  9
$DIMSHO
 70
     1
  9
$DIMPOST
  1

  9
$DIMAPOST
  1

  9
$DIMALT
 70
     0
  9
$DIMALTD
 70
     2
  9
$DIMALTF
 40
25.4
  9
$DIMLFAC
 40
1.0
  9
$DIMTOFL
 70
     0
  9
$DIMTVP
 40
0.0
  9
$DIMTIX
 70
     0
  9
$DIMSOXD
 70
     0
  9
$DIMSAH
 70
     0
  9
$DIMBLK1
  1

  9
$DIMBLK2
  1

  9
$DIMSTYLE
  2
Standard
  9
$DIMCLRD
 70
     0
  9
$DIMCLRE
 70
     0
  9
$DIMCLRT
 70
     0
  9
$DIMTFAC
 40
1.0
  9
$DIMGAP
 40
0.09
  9
$DIMJUST
 70
     0
  9
$DIMSD1
 70
     0
  9
$DIMSD2
 70
     0
  9
$DIMTOLJ
 70
     1
  9
$DIMTZIN
 70
     0
  9
$DIMALTZ
 70
     0
  9
$DIMALTTZ
 70
     0
  9
$DIMUPT
 70
     0
  9
$DIMDEC
 70
     4
  9
$DIMTDEC
 70
     4
  9
$DIMALTU
 70
     2
  9
$DIMALTTD
 70
     2
  9
$DIMTXSTY
  7
Standard
  9
$DIMAUNIT
 70
     0
  9
$DIMADEC
 70
     0
  9
$DIMALTRND
 40
0.0
  9
$DIMAZIN
 70
     0
  9
$DIMDSEP
 70
     0
  9
$DIMATFIT
 70
     3
  9
$DIMFRAC
 70
     0
  9
$DIMLDRBLK
  1

  9
$DIMLUNIT
 70
     2
  9
$DIMLWD
 70
     0
  9
$DIMLWE
 70
     0
  9
$DIMTMOVE
 70
     0
  9
$LUNITS
 70
     2
  9
$LUPREC
 70
     4
  9
$SKETCHINC
 40
0.1
  9
$FILLETRAD
 40
0.0
  9
$AUNITS
 70
     0
  9
$AUPREC
 70
     0
  9
$MENU
  1
acad
  9
$ELEVATION
 40
0.0
  9
$PELEVATION
 40
0.0
  9
$THICKNESS
 40
0.0
  9
$LIMCHECK
 70
     0
  9
$CHAMFERA
 40
0.0
  9
$CHAMFERB
 40
0.0
  9
$CHAMFERC
 40
0.0
  9
$CHAMFERD
 40
0.0
  9
$SKPOLY
 70
     0
  9
$TDCREATE
 40
0.000000000
  9
$TDUCREATE
 40
0.000000000
  9
$TDUPDATE
 40
0.000000000
  9
$TDUUPDATE
 40
0.000000000
  9
$TDINDWG
 40
0.0000000000
  9
$TDUSRTIMER
 40
0.0000000000
  9
$USRTIMER
 70
     1
  9
$ANGBASE
 50
0.0
  9
$ANGDIR
 70
     0
  9
$PDMODE
 70
     0
  9
$PDSIZE
 40
0.0
  9
$PLINEWID
 40
0.0
  9
$SPLFRAME
 70
     0
  9
$SPLINETYPE
 70
     6
  9
$SPLINESEGS
 70
     8
  9
$HANDSEED
  5
1A3
  9
$SURFTAB1
 70
     6
  9
$SURFTAB2
 70
     6
  9
$SURFTYPE
 70
     6
  9
$SURFU
 70
     6
  9
$SURFV
 70
     6
  9
$UCSBASE
  2

  9
$UCSNAME
  2

  9
$UCSORG
 10
0.0
 20
0.0
 30
0.0
  9
$UCSXDIR
 10
1.0
 20
0.0
 30
0.0
  9
$UCSYDIR
 10
0.0
 20
1.0
 30
0.0
  9
$UCSORTHOREF
  2

  9
$UCSORTHOVIEW
 70
     0
  9
$UCSORGTOP
 10
0.0
 20
0.0
 30
0.0
  9
$UCSORGBOTTOM
 10
0.0
 20
0.0
 30
0.0
  9
$UCSORGLEFT
 10
0.0
 20
0.0
 30
0.0
  9
$UCSORGRIGHT
 10
0.0
 20
0.0
 30
0.0
  9
$UCSORGFRONT
 10
0.0
 20
0.0
 30
0.0
  9
$UCSORGBACK
 10
0.0
 20
0.0
 30
0.0
  9
$PUCSBASE
  2

  9
$PUCSNAME
  2

  9
$PUCSORG
 10
0.0
 20
0.0
 30
0.0
  9
$PUCSXDIR
 10
1.0
 20
0.0
 30
0.0
  9
$PUCSYDIR
 10
0.0
 20
1.0
 30
0.0
  9
$PUCSORTHOREF
  2

  9
$PUCSORTHOVIEW
 70
     0
  9
$PUCSORGTOP
 10
0.0
 20
0.0
 30
0.0
  9
$PUCSORGBOTTOM
 10
0.0
 20
0.0
 30
0.0
  9
$PUCSORGLEFT
 10
0.0
 20
0.0
 30
0.0
  9
$PUCSORGRIGHT
 10
0.0
 20
0.0
 30
0.0
  9
$PUCSORGFRONT
 10
0.0
 20
0.0
 30
0.0
  9
$PUCSORGBACK
 10
0.0
 20
0.0
 30
0.0
  9
$USERI1
 70
     0
  9
$USERI2
 70
     0
  9
$USERI3
 70
     0
  9
$USERI4
 70
     0
  9
$USERI5
 70
     0
  9
$USERR1
 40
0.0
  9
$USERR2
 40
0.0
  9
$USERR3
 40
0.0
  9
$USERR4
 40
0.0
  9
$USERR5
 40
0.0
  9
$WORLDVIEW
 70
     1
  9
$SHADEDGE
 70
     3
  9
$SHADEDIF
 70
    70
  9
$TILEMODE
 70
     1
  9
$MAXACTVP
 70
    16
  9
$PINSBASE
 10
0.0
 20
0.0
 30
0.0
  9
$PLIMCHECK
 70
     0
  9
$PEXTMIN
 10
1.000000E+20
 20
1.000000E+20
 30
1.000000E+20
  9
$PEXTMAX
 10
-1.000000E+20
 20
-1.000000E+20
 30
-1.000000E+20
  9
$PLIMMIN
 10
0.0
 20
0.0
  9
$PLIMMAX
 10
12.0
 20
9.0
  9
$UNITMODE
 70
     0
  9
$VISRETAIN
 70
     0
  9
$PLINEGEN
 70
     1
  9
$PSLTSCALE
 70
     0
  9
$TREEDEPTH
 70
  3020
  9
$CMLSTYLE
  2
Standard
  9
$CMLJUST
 70
     0
  9
$CMLSCALE
 40
1.0
  9
$PROXYGRAPHICS
 70
     0
  9
$MEASUREMENT
 70
     1
  9
$CELWEIGHT
370
     0
  9
$ENDCAPS
280
     0
  9
$JOINSTYLE
280
     0
  9
$LWDISPLAY
290
     0
  9
$INSUNITS
 70
     0
  9
$HYPERLINKBASE
  1

  9
$STYLESHEET
  1

  9
$XEDIT
290
     1
  9
$CEPSNTYPE
380
     0
  9
$PSTYLEMODE
290
     1
  9
$FINGERPRINTGUID
  2

  9
$VERSIONGUID
  2

  9
$EXTNAMES
290
     1
  9
$PSVPSCALE
 40
0.0
  0
ENDSEC
  0
SECTION
  2
CLASSES
  0
CLASS
  1
LWPOLYLINE
  2
AcDbPolyline
  3
AutoCAD 2000
 90
    32768
280
     0
281
     1
  0
CLASS
  1
IMAGE
  2
AcDbRasterImage
  3
ISM
 90
    32895
280
     0
281
     1
  0
CLASS
  1
OLE2FRAME
  2
AcDbOle2Frame
  3
AutoCAD 2000
 90
    32768
280
     0
281
     1
  0
CLASS
  1
HATCH
  2
AcDbHatch
  3
AutoCAD 2000
 90
        0
280
     0
281
     1
  0
CLASS
  1
DICTIONARYVAR
  2
AcDbDictionaryVar
  3
AutoCAD 2000
 90
    32768
280
     0
281
     0
  0
CLASS
  1
RASTERVARIABLES
  2
AcDbRasterVariables
  3
ISM
 90
    32768
280
     0
281
     0
  0
CLASS
  1
IMAGEDEF
  2
AcDbRasterImageDef
  3
ISM
 90
    32768
280
     0
281
     0
  0
CLASS
  1
IMAGEDEF_REACTOR
  2
AcDbRasterImageDefReactor
  3
ISM
 90
    32769
280
     0
281
     0
  0
CLASS
  1
IDBUFFER
  2
AcDbIdBuffer
  3
AutoCAD 2000
 90
    32768
280
     0
281
     0
  0
CLASS
  1
SPATIAL_FILTER
  2
AcDbSpatialFilter
  3
AutoCAD 2000
 90
    32768
280
     0
281
     0
  0
CLASS
  1
XRECORD
  2
AcDbXrecord
  3
AutoCAD 2000
 90
    32768
280
     0
281
     0
  0
CLASS
  1
SORTENTSTABLE
  2
AcDbSortentsTable
  3
AutoCAD 2000
 90
    32768
280
     0
281
     0
  0
CLASS
  1
LAYER_INDEX
  2
AcDbLayerIndex
  3
AutoCAD 2000
 90
    32768
280
     0
281
     0
  0
CLASS
  1
SPATIAL_INDEX
  2
AcDbSpatialIndex
  3
AutoCAD 2000
 90
    32768
280
     0
281
     0
  0
CLASS
  1
OBJECT_PTR
  2
CAseDLPNTableRecord
  3
"ASE-LPNTableRecord"
 90
    32769
280
     0
281
     0
  0
CLASS
  1
LAYOUT
  2
AcDbLayout
  3
AutoCAD 2000
 90
        0
280
     0
281
     0
  0
CLASS
  1
PLOTSETTINGS
  2
AcDbPlotSettings
  3
AutoCAD 2000
 90
    32768
280
     0
281
     0
  0
CLASS
  1
ACDBDICTIONARYWDFLT
  2
AcDbDictionaryWithDefault
  3
AutoCAD 2000
 90
        0
280
     0
281
     0
  0
CLASS
  1
ACDBPLACEHOLDER
  2
AcDbPlaceHolder
  3
AutoCAD 2000
 90
        0
280
     0
281
     0
  0
CLASS
  1
VBA_PROJECT
  2
AcDbVbaProject
  3
acadvba
 90
    32768
280
     0
281
     0
  0
CLASS
  1
WIPEOUT
  2
AcDbWipeout
  3
WipeOut|AutoCAD Express Tool|expresstools@autodesk.com
 90
    32895
280
     0
281
     1
  0
CLASS
  1
WIPEOUTVARIABLES
  2
AcDbWipeoutVariables
  3
WipeOut|AutoCAD Express Tool|expresstools@autodesk.com
 90
        0
280
     0
281
     0
  0
CLASS
  1
RTEXT
  2
RText
  3
RText|AutoCAD Express Tool|expresstools@autodesk.com
 90
    32768
280
     0
281
     1
  0
CLASS
  1
ARCALIGNEDTEXT
  2
AcDbArcAlignedText
  3
ATEXT|AutoCAD Express Tool|expresstools@autodesk.com
 90
    32768
280
     0
281
     1
  0
ENDSEC
  0
SECTION
  2
TABLES
  0
TABLE
  2
VPORT
  5
7
100
AcDbSymbolTable
 70
     1
  0
VPORT
  5
15
100
AcDbSymbolTableRecord
100
AcDbViewportTableRecord
  2
*ACTIVE
 70
     0
 10
0.0
 20
0.0
 11
1.0
 21
1.0
 12
6.591288
 22
4.579184
 13
0.0
 23
0.0
 14
1.0
 24
1.0
 15
0.0
 25
0.0
 16
0.0
 26
0.0
 36
1.0
 17
0.0
 27
0.0
 37
0.0
 40
9.158369
 41
0.688564
 42
50.0
 43
0.0
 44
0.0
 50
0.0
 51
0.0
 71
     0
 72
   100
 73
     1
 74
     1
 75
     0
 76
     0
 77
     0
 78
     0
281
     0
 65
     0
110
0.0
120
0.0
130
0.0
111
1.0
121
0.0
131
0.0
112
0.0
122
1.0
132
0.0
345
0
346
0
 79
     0
146
0.0
  0
ENDTAB
  0
TABLE
  2
LTYPE
  5
4
100
AcDbSymbolTable
 70
     6
  0
LTYPE
  5
11
100
AcDbSymbolTableRecord
100
AcDbLinetypeTableRecord
  2
ByBlock
 70
    64
  3

 72
    65
 73
     0
 40
0.0
  0
LTYPE
  5
12
100
AcDbSymbolTableRecord
100
AcDbLinetypeTableRecord
  2
ByLayer
 70
    64
  3

 72
    65
 73
     0
 40
0.0
  0
LTYPE
  5
13
100
AcDbSymbolTableRecord
100
AcDbLinetypeTableRecord
  2
Continuous
 70
    64
  3
Solid line
 72
    65
 73
     0
 40
0.0
  0
LTYPE
  5
CA
100
AcDbSymbolTableRecord
100
AcDbLinetypeTableRecord
  2
AI9-LType1
 70
    64
  3
Illustrator Dash Style No.1
 72
    65
 73
     4
 40
9.525
 49
5.644444
 74
     0
 49
-1.763889
 74
     0
 49
0.352778
 74
     0
 49
-1.763889
 74
     0
  0
LTYPE
  5
CC
100
AcDbSymbolTableRecord
100
AcDbLinetypeTableRecord
  2
AI9-LType2
 70
    64
  3
Illustrator Dash Style No.2
 72
    65
 73
     4
 40
3.175
 49
1.411111
 74
     0
 49
-0.705556
 74
     0
 49
0.352778
 74
     0
 49
-0.705556
 74
     0
  0
LTYPE
  5
1A0
100
AcDbSymbolTableRecord
100
AcDbLinetypeTableRecord
  2
AI9-LType3
 70
    64
  3
Illustrator Dash Style No.3
 72
    65
 73
     6
 40
10.583333
 49
5.644444
 74
     0
 49
-1.411111
 74
     0
 49
0.352778
 74
     0
 49
-1.411111
 74
     0
 49
0.352778
 74
     0
 49
-1.411111
 74
     0
  0
ENDTAB
  0
TABLE
  2
LAYER
  5
2
100
AcDbSymbolTable
 70
     3
  0
LAYER
  5
14
100
AcDbSymbolTableRecord
100
AcDbLayerTableRecord
  2
0
 70
     0
 62
     7
  6
Continuous
290
     1
370
    -3
390
1D
  0
LAYER
  5
28
100
AcDbSymbolTableRecord
100
AcDbLayerTableRecord
  2
RAHMEN
 70
     0
 62
     1
  6
Continuous
290
     1
370
    -3
390
1D
  0
LAYER
  5
36
100
AcDbSymbolTableRecord
100
AcDbLayerTableRecord
  2
BODEN-4_8
 70
     0
 62
     1
  6
Continuous
290
     1
370
    -3
390
1D
  0
ENDTAB
  0
TABLE
  2
STYLE
  5
3
100
AcDbSymbolTable
 70
     5
  0
STYLE
  5
17
100
AcDbSymbolTableRecord
100
AcDbTextStyleTableRecord
  2
Standard
 70
     0
 40
0.0
 41
1.0
 50
0.0
 71
     0
 42
0.0
  3
txt
  4

  0
STYLE
  5
24
100
AcDbSymbolTableRecord
100
AcDbTextStyleTableRecord
  2
STD
 70
     0
 40
0.0
 41
1.0
 50
0.0
 71
     0
 42
0.0
  3
txt
  4

  0
STYLE
  5
25
100
AcDbSymbolTableRecord
100
AcDbTextStyleTableRecord
  2
TATESTD
 70
     4
 40
0.0
 41
1.0
 50
0.0
 71
     0
 42
0.0
  3
txt
  4

  0
STYLE
  5
26
100
AcDbSymbolTableRecord
100
AcDbTextStyleTableRecord
  2
KANJISTD
 70
     0
 40
0.0
 41
1.0
 50
0.0
 71
     0
 42
0.0
  3
txt
  4
extfont
  0
STYLE
  5
27
100
AcDbSymbolTableRecord
100
AcDbTextStyleTableRecord
  2
KANJITATE
 70
     4
 40
0.0
 41
1.0
 50
0.0
 71
     0
 42
0.0
  3
txt
  4
extfont
  0
ENDTAB
  0
TABLE
  2
VIEW
  5
5
100
AcDbSymbolTable
 70
     0
  0
ENDTAB
  0
TABLE
  2
UCS
  5
6
100
AcDbSymbolTable
 70
     0
  0
ENDTAB
  0
TABLE
  2
APPID
  5
8
100
AcDbSymbolTable
 70
     1
  0
APPID
  5
16
100
AcDbSymbolTableRecord
100
AcDbRegAppTableRecord
  2
ACAD
 70
     0
  0
ENDTAB
  0
TABLE
  2
DIMSTYLE
  5
9
100
AcDbSymbolTable
 70
     1
100
AcDbDimStyleTable
 71
     0
  0
DIMSTYLE
105
18
100
AcDbSymbolTableRecord
100
AcDbDimStyleTableRecord
  2
Standard
 70
     0
  3

  4

 40
1.0
 41
0.18
 42
0.0625
 43
0.38
 44
0.18
 45
0.0
 46
0.0
 47
0.0
 48
0.0
 71
     0
 72
     0
 73
     1
 74
     1
 75
     0
 76
     0
 77
     0
 78
     0
 79
     0
140
0.18
141
0.09
142
0.0
143
25.4
144
1.0
145
0.0
146
1.0
147
0.09
148
0.0
170
     0
171
     2
172
     0
173
     0
174
     0
175
     0
176
     0
177
     0
178
     0
179
     0
271
     4
272
     4
273
     2
274
     2
275
     0
276
     0
277
     2
278
    46
279
     0
280
     0
281
     0
282
     0
283
     1
284
     0
285
     0
286
     0
288
     0
340
17
341
0
342
0
343
0
344
0
371
    -2
372
    -2
  0
ENDTAB
  0
TABLE
  2
BLOCK_RECORD
  5
1
100
AcDbSymbolTable
 70
     2
  0
BLOCK_RECORD
  5
A
100
AcDbSymbolTableRecord
100
AcDbBlockTableRecord
  2
*MODEL_SPACE
340
20
  0
BLOCK_RECORD
  5
B
100
AcDbSymbolTableRecord
100
AcDbBlockTableRecord
  2
*PAPER_SPACE
340
21
  0
BLOCK_RECORD
  5
37
100
AcDbSymbolTableRecord
100
AcDbBlockTableRecord
  2
AI9-BLK1
340
0
102
{BLKREFS
331
38
102
}
  0
BLOCK_RECORD
  5
3E
100
AcDbSymbolTableRecord
100
AcDbBlockTableRecord
  2
AI9-BLK2
340
0
102
{BLKREFS
331
3F
102
}
  0
ENDTAB
  0
ENDSEC
  0
SECTION
  2
BLOCKS
  0
BLOCK
  5
D
100
AcDbEntity
  8
0
100
AcDbBlockBegin
  2
*MODEL_SPACE
 70
     0
 10
0.0
 20
0.0
 30
0.0
  3
*MODEL_SPACE
  1

  0
ENDBLK
  5
E
100
AcDbEntity
  8
0
100
AcDbBlockEnd
  0
BLOCK
  5
F
100
AcDbEntity
 67
     1
  8
0
100
AcDbBlockBegin
  2
*PAPER_SPACE
 70
     0
 10
0.0
 20
0.0
 30
0.0
  3
*PAPER_SPACE
  1

  0
ENDBLK
  5
10
100
AcDbEntity
 67
     1
  8
0
100
AcDbBlockEnd
  0
BLOCK
  5
39
100
AcDbEntity
  8
BODEN-4_8
 62
     7
100
AcDbBlockBegin
  2
AI9-BLK1
 70
     0
 10
0.0
 20
0.0
 30
0.0
  3
AI9-BLK1
  1

  0
MTEXT
  5
3C
100
AcDbEntity
  8
BODEN-4_8
 62
     7
100
AcDbMText
 10
-18.069354
 20
-2.558328
 30
0.0
 40
5.512152
 41
0.0
 71
     1
 72
     2
  1
\fArial|b0|i0;\H5.5122;\C7;\U+0033\U+0030
  7
STD
210
0.0
220
0.0
230
1.0
 73
     1
 44
1.0
  0
MTEXT
  5
3B
100
AcDbEntity
  8
BODEN-4_8
 62
     7
100
AcDbMText
 10
-18.069354
 20
4.850005
 30
0.0
 40
5.512152
 41
0.0
 71
     1
 72
     2
  1
\fArial|b0|i0;\H5.5122;\C7;\U+0053\U+0074\U+0061\U+006E\U+0064\U+0061\U+0072\U+0064
  7
STD
210
0.0
220
0.0
230
1.0
 73
     1
 44
1.0
  0
MTEXT
  5
3A
100
AcDbEntity
  8
BODEN-4_8
 62
     7
100
AcDbMText
 10
-18.069354
 20
12.258338
 30
0.0
 40
5.512152
 41
0.0
 71
     1
 72
     2
  1
\fArial|b0|i0;\H5.5122;\C7;\U+0046\U+0048\U+0052\U+004B\U+002D
  7
STD
210
0.0
220
0.0
230
1.0
 73
     1
 44
1.0
  0
ENDBLK
  5
3D
100
AcDbEntity
  8
BODEN-4_8
100
AcDbBlockEnd
  0
BLOCK
  5
40
100
AcDbEntity
  8
BODEN-4_8
 62
     7
100
AcDbBlockBegin
  2
AI9-BLK2
 70
     0
 10
0.0
 20
0.0
 30
0.0
  3
AI9-BLK2
  1

  0
MTEXT
  5
41
100
AcDbEntity
  8
BODEN-4_8
 62
     7
100
AcDbMText
 10
-22.882755
 20
4.35305
 30
0.0
 40
5.512152
 41
0.0
 71
     1
 72
     2
  1
\fArial|b0|i0;\H5.5122;\C7;\U+0046\U+0075\U+0074\U+0074\U+0065\U+0072\U+0072\U+006F\U+0068\U+0072
  7
STD
210
0.0
220
0.0
230
1.0
 73
     1
 44
1.0
  0
ENDBLK
  5
42
100
AcDbEntity
  8
BODEN-4_8
100
AcDbBlockEnd
  0
ENDSEC
  0
SECTION
  2
ENTITIES
  0
LINE
  5
1A2
100
AcDbEntity
  8
BODEN-4_8
  6
AI9-LType3
 62
     7
100
AcDbLine
 10
41.419866
 20
183.855444
 30
0.0
 11
41.419866
 21
127.911228
 31
0.0
  0
LINE
  5
1A1
100
AcDbEntity
  8
BODEN-4_8
  6
AI9-LType3
 62
     7
100
AcDbLine
 10
155.591536
 20
183.855444
 30
0.0
 11
155.591536
 21
127.911228
 31
0.0
  0
LINE
  5
19F
100
AcDbEntity
  8
BODEN-4_8
 62
     7
100
AcDbLine
 10
41.419866
 20
166.147654
 30
0.0
 11
59.127829
 21
183.855444
 31
0.0
  0
LINE
  5
19E
100
AcDbEntity
  8
BODEN-4_8
 62
     7
100
AcDbLine
 10
41.419866
 20
145.641756
 30
0.0
 11
71.588051
 21
175.809941
 31
0.0
  0
LINE
  5
19D
100
AcDbEntity
  8
BODEN-4_8
 62
     7
100
AcDbLine
 10
44.195235
 20
127.911228
 30
0.0
 11
72.193009
 21
155.909174
 31
0.0
  0
LINE
  5
19C
100
AcDbEntity
  8
BODEN-4_8
 62
     7
100
AcDbLine
 10
64.701133
 20
127.911228
 30
0.0
 11
71.588051
 21
134.798663
 31
0.0
  0
LINE
  5
19B
100
AcDbEntity
  8
BODEN-4_8
 62
     7
100
AcDbLine
 10
124.891602
 20
167.596488
 30
0.0
 11
141.151074
 21
183.855444
 31
0.0
  0
LINE
  5
19A
100
AcDbEntity
  8
BODEN-4_8
 62
     7
100
AcDbLine
 10
125.423524
 20
147.621997
 30
0.0
 11
155.591536
 21
177.790181
 31
0.0
  0
LINE
  5
199
100
AcDbEntity
  8
BODEN-4_8
 62
     7
100
AcDbLine
 10
126.218652
 20
127.911228
 30
0.0
 11
155.591536
 21
157.284456
 31
0.0
  0
LINE
  5
198
100
AcDbEntity
  8
BODEN-4_8
 62
     7
100
AcDbLine
 10
146.723861
 20
127.911228
 30
0.0
 11
155.591536
 21
136.778559
 31
0.0
  0
LINE
  5
197
100
AcDbEntity
  8
BODEN-4_8
 62
     7
100
AcDbLine
 10
41.419866
 20
176.400602
 30
0.0
 11
44.410381
 21
179.390945
 31
0.0
  0
LINE
  5
196
100
AcDbEntity
  8
BODEN-4_8
 62
     7
100
AcDbLine
 10
46.973532
 20
181.954096
 30
0.0
 11
48.874881
 21
183.855444
 31
0.0
  0
LINE
  5
195
100
AcDbEntity
  8
BODEN-4_8
 62
     7
100
AcDbLine
 10
41.847058
 20
156.321897
 30
0.0
 11
46.973532
 21
161.448371
 31
0.0
  0
LINE
  5
194
100
AcDbEntity
  8
BODEN-4_8
 62
     7
100
AcDbLine
 10
49.536683
 20
164.011522
 30
0.0
 11
54.663158
 21
169.137996
 31
0.0
  0
LINE
  5
193
100
AcDbEntity
  8
BODEN-4_8
 62
     7
100
AcDbLine
 10
57.226481
 20
171.70132
 30
0.0
 11
62.352783
 21
176.827622
 31
0.0
  0
LINE
  5
192
100
AcDbEntity
  8
BODEN-4_8
 62
     7
100
AcDbLine
 10
64.916106
 20
179.390945
 30
0.0
 11
69.380606
 21
183.855444
 31
0.0
  0
LINE
  5
191
100
AcDbEntity
  8
BODEN-4_8
 62
     7
100
AcDbLine
 10
41.419866
 20
135.389152
 30
0.0
 11
41.847058
 21
135.816344
 31
0.0
  0
LINE
  5
190
100
AcDbEntity
  8
BODEN-4_8
 62
     7
100
AcDbLine
 10
44.410381
 20
138.379495
 30
0.0
 11
49.536683
 21
143.505797
 31
0.0
  0
LINE
  5
18F
100
AcDbEntity
  8
BODEN-4_8
 62
     7
100
AcDbLine
 10
52.100007
 20
146.068948
 30
0.0
 11
57.226481
 21
151.195422
 31
0.0
  0
LINE
  5
18E
100
AcDbEntity
  8
BODEN-4_8
 62
     7
100
AcDbLine
 10
59.789632
 20
153.758746
 30
0.0
 11
64.916106
 21
158.885048
 31
0.0
  0
LINE
  5
18D
100
AcDbEntity
  8
BODEN-4_8
 62
     7
100
AcDbLine
 10
67.479258
 20
161.448371
 30
0.0
 11
71.588051
 21
165.557164
 31
0.0
  0
LINE
  5
18C
100
AcDbEntity
  8
BODEN-4_8
 62
     7
100
AcDbLine
 10
54.663158
 20
128.126202
 30
0.0
 11
59.789632
 21
133.252848
 31
0.0
  0
LINE
  5
18B
100
AcDbEntity
  8
BODEN-4_8
 62
     7
100
AcDbLine
 10
62.352783
 20
135.816344
 30
0.0
 11
67.479258
 21
140.942646
 31
0.0
  0
LINE
  5
18A
100
AcDbEntity
  8
BODEN-4_8
 62
     7
100
AcDbLine
 10
70.042581
 20
143.505797
 30
0.0
 11
71.945135
 21
145.408179
 31
0.0
  0
LINE
  5
189
100
AcDbEntity
  8
BODEN-4_8
 62
     7
100
AcDbLine
 10
126.433626
 20
179.390945
 30
0.0
 11
130.897781
 21
183.855444
 31
0.0
  0
LINE
  5
188
100
AcDbEntity
  8
BODEN-4_8
 62
     7
100
AcDbLine
 10
125.423524
 20
157.874946
 30
0.0
 11
126.433626
 21
158.885048
 31
0.0
  0
LINE
  5
187
100
AcDbEntity
  8
BODEN-4_8
 62
     7
100
AcDbLine
 10
128.996777
 20
161.448371
 30
0.0
 11
134.123079
 21
166.574845
 31
0.0
  0
LINE
  5
186
100
AcDbEntity
  8
BODEN-4_8
 62
     7
100
AcDbLine
 10
136.68623
 20
169.137996
 30
0.0
 11
141.812533
 21
174.264471
 31
0.0
  0
LINE
  5
185
100
AcDbEntity
  8
BODEN-4_8
 62
     7
100
AcDbLine
 10
144.375684
 20
176.827622
 30
0.0
 11
149.502675
 21
181.954096
 31
0.0
  0
LINE
  5
184
100
AcDbEntity
  8
BODEN-4_8
 62
     7
100
AcDbLine
 10
125.423524
 20
137.369393
 30
0.0
 11
128.996777
 21
140.942646
 31
0.0
  0
LINE
  5
183
100
AcDbEntity
  8
BODEN-4_8
 62
     7
100
AcDbLine
 10
131.559928
 20
143.505797
 30
0.0
 11
136.68623
 21
148.632271
 31
0.0
  0
LINE
  5
182
100
AcDbEntity
  8
BODEN-4_8
 62
     7
100
AcDbLine
 10
139.249382
 20
151.195422
 30
0.0
 11
144.375684
 21
156.321897
 31
0.0
  0
LINE
  5
181
100
AcDbEntity
  8
BODEN-4_8
 62
     7
100
AcDbLine
 10
146.938835
 20
158.885048
 30
0.0
 11
152.065826
 21
164.011522
 31
0.0
  0
LINE
  5
180
100
AcDbEntity
  8
BODEN-4_8
 62
     7
100
AcDbLine
 10
154.628977
 20
166.574845
 30
0.0
 11
155.591536
 21
167.537405
 31
0.0
  0
LINE
  5
17F
100
AcDbEntity
  8
BODEN-4_8
 62
     7
100
AcDbLine
 10
136.471257
 20
127.911228
 30
0.0
 11
139.249382
 21
130.689697
 31
0.0
  0
LINE
  5
17E
100
AcDbEntity
  8
BODEN-4_8
 62
     7
100
AcDbLine
 10
141.812533
 20
133.252848
 30
0.0
 11
146.938835
 21
138.379495
 31
0.0
  0
LINE
  5
17D
100
AcDbEntity
  8
BODEN-4_8
 62
     7
100
AcDbLine
 10
149.502675
 20
140.942646
 30
0.0
 11
154.628977
 21
146.068948
 31
0.0
  0
HATCH
  5
17C
100
AcDbEntity
  8
BODEN-4_8
 62
   154
100
AcDbHatch
 10
0.0
 20
0.0
 30
0.0
210
0.0
220
0.0
230
1.0
  2
SOLID
 70
     1
 71
     0
 91
        1
 92
        1
 93
        1
 72
     4
 94
        3
 73
     0
 74
     0
 95
       23
 96
       19
 40
0.0
 40
0.0
 40
0.0
 40
0.0
 40
1.0
 40
1.0
 40
1.0
 40
2.0
 40
2.0
 40
2.0
 40
3.0
 40
3.0
 40
3.0
 40
4.0
 40
4.0
 40
4.0
 40
5.0
 40
5.0
 40
5.0
 40
6.0
 40
6.0
 40
6.0
 40
6.0
 10
148.99348958333331
 20
113.09525010850693
 10
148.99348958333331
 20
113.09525010850693
 10
148.58903537326387
 20
113.34433051215277
 10
148.03919813368054
 20
113.60753580729165
 10
143.50407443576387
 20
115.7762234157986
 10
144.60995008680555
 20
111.38097059461805
 10
140.12099066840275
 20
114.14393717447916
 10
139.48847113715277
 20
114.53323296440971
 10
138.90349392361111
 20
113.58376464843749
 10
139.53670247395831
 20
113.19446885850694
 10
139.53670247395831
 20
113.19446885850694
 10
139.94115668402776
 20
112.94504394531249
 10
140.49099392361109
 20
112.6818386501736
 10
145.02060546874998
 20
110.51418457031249
 10
143.91955295138888
 20
114.90116916232638
 10
148.40920138888887
 20
112.14578179253471
 10
149.04240993923611
 20
111.75614149305555
 10
149.62600911458333
 20
112.70595431857637
 10
148.99348958333331
 20
113.09525010850693
 97
        0
 75
     2
 76
     1
 98
        1
 10
0.0
 20
0.0
  0
HATCH
  5
17B
100
AcDbEntity
  8
BODEN-4_8
 62
   154
100
AcDbHatch
 10
0.0
 20
0.0
 30
0.0
210
0.0
220
0.0
230
1.0
  2
SOLID
 70
     1
 71
     0
 91
        1
 92
        1
 93
        1
 72
     4
 94
        3
 73
     0
 74
     0
 95
       23
 96
       19
 40
0.0
 40
0.0
 40
0.0
 40
0.0
 40
1.0
 40
1.0
 40
1.0
 40
2.0
 40
2.0
 40
2.0
 40
3.0
 40
3.0
 40
3.0
 40
4.0
 40
4.0
 40
4.0
 40
5.0
 40
5.0
 40
5.0
 40
6.0
 40
6.0
 40
6.0
 40
6.0
 10
148.99348958333331
 20
110.47801106770832
 10
148.99348958333331
 20
110.47801106770832
 10
148.58903537326387
 20
110.72709147135416
 10
148.03919813368054
 20
110.99029676649305
 10
143.50407443576387
 20
113.1593288845486
 10
144.60995008680555
 20
108.76407606336805
 10
140.12099066840275
 20
111.52635362413193
 10
139.48847113715277
 20
111.91633843315971
 10
138.90349392361111
 20
110.96687011718748
 10
139.53670247395831
 20
110.57757432725694
 10
139.53670247395831
 20
110.57757432725694
 10
139.94115668402776
 20
110.32814941406249
 10
140.49099392361109
 20
110.06494411892361
 10
145.02060546874998
 20
107.8972900390625
 10
143.91955295138888
 20
112.28427463107639
 10
148.40920138888887
 20
109.52819824218749
 10
149.04240993923611
 20
109.13890245225693
 10
149.62600911458333
 20
110.08871527777777
 10
148.99348958333331
 20
110.47801106770832
 97
        0
 75
     2
 76
     1
 98
        1
 10
0.0
 20
0.0
  0
HATCH
  5
17A
100
AcDbEntity
  8
BODEN-4_8
 62
   154
100
AcDbHatch
 10
0.0
 20
0.0
 30
0.0
210
0.0
220
0.0
230
1.0
  2
SOLID
 70
     1
 71
     0
 91
        1
 92
        1
 93
        1
 72
     4
 94
        3
 73
     0
 74
     0
 95
       23
 96
       19
 40
0.0
 40
0.0
 40
0.0
 40
0.0
 40
1.0
 40
1.0
 40
1.0
 40
2.0
 40
2.0
 40
2.0
 40
3.0
 40
3.0
 40
3.0
 40
4.0
 40
4.0
 40
4.0
 40
5.0
 40
5.0
 40
5.0
 40
6.0
 40
6.0
 40
6.0
 40
6.0
 10
148.99348958333331
 20
107.85629340277777
 10
148.99348958333331
 20
107.85629340277777
 10
148.58903537326387
 20
108.10571831597221
 10
148.03919813368054
 20
108.36857910156249
 10
143.50407443576387
 20
110.53761121961804
 10
144.60995008680555
 20
106.14235839843749
 10
140.12099066840275
 20
108.90498046875
 10
139.48847113715277
 20
109.29462076822915
 10
138.90349392361111
 20
108.34515245225694
 10
139.53670247395831
 20
107.95585666232638
 10
139.53670247395831
 20
107.95585666232638
 10
139.94115668402776
 20
107.70643174913194
 10
140.49099392361109
 20
107.44322645399305
 10
145.02060546874998
 20
105.27557237413194
 10
143.91955295138888
 20
109.66255696614583
 10
148.40920138888887
 20
106.90648057725693
 10
149.04240993923611
 20
106.517529296875
 10
149.62600911458333
 20
107.46734212239582
 10
148.99348958333331
 20
107.85629340277777
 97
        0
 75
     2
 76
     1
 98
        1
 10
0.0
 20
0.0
  0
HATCH
  5
179
100
AcDbEntity
  8
BODEN-4_8
 62
   154
100
AcDbHatch
 10
0.0
 20
0.0
 30
0.0
210
0.0
220
0.0
230
1.0
  2
SOLID
 70
     1
 71
     0
 91
        1
 92
        1
 93
        1
 72
     4
 94
        3
 73
     0
 74
     0
 95
       23
 96
       19
 40
0.0
 40
0.0
 40
0.0
 40
0.0
 40
1.0
 40
1.0
 40
1.0
 40
2.0
 40
2.0
 40
2.0
 40
3.0
 40
3.0
 40
3.0
 40
4.0
 40
4.0
 40
4.0
 40
5.0
 40
5.0
 40
5.0
 40
6.0
 40
6.0
 40
6.0
 40
6.0
 10
148.99348958333331
 20
105.23492024739582
 10
148.99348958333331
 20
105.23492024739582
 10
148.58903537326387
 20
105.48400065104165
 10
148.03919813368054
 20
105.74686143663193
 10
143.50407443576387
 20
107.91589355468749
 10
144.60995008680555
 20
103.52064073350694
 10
140.12099066840275
 20
106.28326280381944
 10
139.48847113715277
 20
106.67290310329859
 10
138.90349392361111
 20
105.72343478732638
 10
139.53670247395831
 20
105.33413899739583
 10
139.53670247395831
 20
105.33413899739583
 10
139.94115668402776
 20
105.08471408420138
 10
140.49099392361109
 20
104.82150878906249
 10
145.02060546874998
 20
102.65385470920138
 10
143.91955295138888
 20
107.04083930121527
 10
148.40920138888887
 20
104.285107421875
 10
149.04240993923611
 20
103.89581163194444
 10
149.62600911458333
 20
104.84562445746526
 10
148.99348958333331
 20
105.23492024739582
 97
        0
 75
     2
 76
     1
 98
        1
 10
0.0
 20
0.0
  0
HATCH
  5
178
100
AcDbEntity
  8
BODEN-4_8
 62
     7
100
AcDbHatch
 10
0.0
 20
0.0
 30
0.0
210
0.0
220
0.0
230
1.0
  2
SOLID
 70
     1
 71
     0
 91
        4
 92
        1
 93
        1
 72
     4
 94
        3
 73
     0
 74
     0
 95
       17
 96
       13
 40
0.0
 40
0.0
 40
0.0
 40
0.0
 40
1.0
 40
1.0
 40
1.0
 40
2.0
 40
2.0
 40
2.0
 40
3.0
 40
3.0
 40
3.0
 40
4.0
 40
4.0
 40
4.0
 40
4.0
 10
116.27197265624999
 20
133.49710557725695
 10
116.27197265624999
 20
133.49710557725695
 10
116.27197265624999
 20
142.63074273003471
 10
116.27197265624999
 20
142.63074273003471
 10
116.27197265624999
 20
142.63074273003471
 10
121.33970811631943
 20
142.63074273003471
 10
121.33970811631943
 20
142.63074273003471
 10
121.33970811631943
 20
142.63074273003471
 10
121.33970811631943
 20
133.49710557725695
 10
121.33970811631943
 20
133.49710557725695
 10
121.33970811631943
 20
133.49710557725695
 10
116.27197265624999
 20
133.49710557725695
 10
116.27197265624999
 20
133.49710557725695
 97
        0
 92
        1
 93
        1
 72
     4
 94
        3
 73
     0
 74
     0
 95
       17
 96
       13
 40
0.0
 40
0.0
 40
0.0
 40
0.0
 40
1.0
 40
1.0
 40
1.0
 40
2.0
 40
2.0
 40
2.0
 40
3.0
 40
3.0
 40
3.0
 40
4.0
 40
4.0
 40
4.0
 40
4.0
 10
98.505615234374986
 20
133.49710557725695
 10
98.505615234374986
 20
133.49710557725695
 10
98.505615234374986
 20
142.63074273003471
 10
98.505615234374986
 20
142.63074273003471
 10
98.505615234374986
 20
142.63074273003471
 10
116.27197265624999
 20
142.63074273003471
 10
116.27197265624999
 20
142.63074273003471
 10
116.27197265624999
 20
142.63074273003471
 10
116.27197265624999
 20
133.49710557725695
 10
116.27197265624999
 20
133.49710557725695
 10
116.27197265624999
 20
133.49710557725695
 10
98.505615234374986
 20
133.49710557725695
 10
98.505615234374986
 20
133.49710557725695
 97
        0
 92
        1
 93
        1
 72
     4
 94
        3
 73
     0
 74
     0
 95
       17
 96
       13
 40
0.0
 40
0.0
 40
0.0
 40
0.0
 40
1.0
 40
1.0
 40
1.0
 40
2.0
 40
2.0
 40
2.0
 40
3.0
 40
3.0
 40
3.0
 40
4.0
 40
4.0
 40
4.0
 40
4.0
 10
80.739257812499986
 20
133.49710557725695
 10
80.739257812499986
 20
133.49710557725695
 10
80.739257812499986
 20
142.63074273003471
 10
80.739257812499986
 20
142.63074273003471
 10
80.739257812499986
 20
142.63074273003471
 10
98.505615234374986
 20
142.63074273003471
 10
98.505615234374986
 20
142.63074273003471
 10
98.505615234374986
 20
142.63074273003471
 10
98.505615234374986
 20
133.49710557725695
 10
98.505615234374986
 20
133.49710557725695
 10
98.505615234374986
 20
133.49710557725695
 10
80.739257812499986
 20
133.49710557725695
 10
80.739257812499986
 20
133.49710557725695
 97
        0
 92
        1
 93
        1
 72
     4
 94
        3
 73
     0
 74
     0
 95
       20
 96
       16
 40
0.0
 40
0.0
 40
0.0
 40
0.0
 40
1.0
 40
1.0
 40
1.0
 40
2.0
 40
2.0
 40
2.0
 40
3.0
 40
3.0
 40
3.0
 40
4.0
 40
4.0
 40
4.0
 40
5.0
 40
5.0
 40
5.0
 40
5.0
 10
76.127997504340271
 20
133.49710557725695
 10
76.127997504340271
 20
133.49710557725695
 10
75.671350097656244
 20
133.49710557725695
 10
75.671350097656244
 20
133.49710557725695
 10
75.671350097656244
 20
133.49710557725695
 10
75.671350097656244
 20
142.63074273003471
 10
75.671350097656244
 20
142.63074273003471
 10
75.671350097656244
 20
142.63074273003471
 10
80.739257812499986
 20
142.63074273003471
 10
80.739257812499986
 20
142.63074273003471
 10
80.739257812499986
 20
142.63074273003471
 10
80.739257812499986
 20
133.49710557725695
 10
80.739257812499986
 20
133.49710557725695
 10
80.739257812499986
 20
133.49710557725695
 10
76.127997504340271
 20
133.49710557725695
 10
76.127997504340271
 20
133.49710557725695
 97
        0
 75
     2
 76
     1
 98
        1
 10
0.0
 20
0.0
  0
LINE
  5
177
100
AcDbEntity
  8
BODEN-4_8
 62
     7
100
AcDbLine
 10
98.035532
 20
190.464688
 30
0.0
 11
97.511188
 21
190.989031
 31
0.0
  0
LINE
  5
176
100
AcDbEntity
  8
BODEN-4_8
 62
     7
100
AcDbLine
 10
100.761464
 20
189.757065
 30
0.0
 11
100.727357
 21
189.790999
 31
0.0
  0
LINE
  5
175
100
AcDbEntity
  8
BODEN-4_8
 62
     7
100
AcDbLine
 10
95.225195
 20
190.752181
 30
0.0
 11
94.430929
 21
191.546448
 31
0.0
  0
LINE
  5
174
100
AcDbEntity
  8
BODEN-4_8
 62
     7
100
AcDbLine
 10
95.070855
 20
188.391602
 30
0.0
 11
94.498969
 21
188.963315
 31
0.0
  0
LINE
  5
173
100
AcDbEntity
  8
BODEN-4_8
 62
     7
100
AcDbLine
 10
91.055252
 20
187.858129
 30
0.0
 11
90.040843
 21
188.872537
 31
0.0
  0
LINE
  5
172
100
AcDbEntity
  8
BODEN-4_8
 62
     7
100
AcDbLine
 10
90.576383
 20
187.83229
 30
0.0
 11
89.519773
 21
188.888901
 31
0.0
  0
LINE
  5
171
100
AcDbEntity
  8
BODEN-4_8
 62
     7
100
AcDbLine
 10
91.083502
 20
190.857256
 30
0.0
 11
90.073744
 21
191.867014
 31
0.0
  0
LINE
  5
170
100
AcDbEntity
  8
BODEN-4_8
 62
     7
100
AcDbLine
 10
90.591542
 20
190.844682
 30
0.0
 11
89.566626
 21
191.869425
 31
0.0
  0
LINE
  5
16F
100
AcDbEntity
  8
BODEN-4_8
 62
     7
100
AcDbLine
 10
90.089936
 20
187.814204
 30
0.0
 11
88.993018
 21
188.911294
 31
0.0
  0
LINE
  5
16E
100
AcDbEntity
  8
BODEN-4_8
 62
     7
100
AcDbLine
 10
89.595565
 20
187.804041
 30
0.0
 11
88.459889
 21
188.939716
 31
0.0
  0
LINE
  5
16D
100
AcDbEntity
  8
BODEN-4_8
 62
     7
100
AcDbLine
 10
89.092581
 20
187.80249
 30
0.0
 11
87.921937
 21
188.973134
 31
0.0
  0
LINE
  5
16C
100
AcDbEntity
  8
BODEN-4_8
 62
     7
100
AcDbLine
 10
88.58064
 20
187.809725
 30
0.0
 11
86.021278
 21
190.369259
 31
0.0
  0
LINE
  5
16B
100
AcDbEntity
  8
BODEN-4_8
 62
     7
100
AcDbLine
 10
88.059397
 20
187.826434
 30
0.0
 11
85.94962
 21
189.93621
 31
0.0
  0
LINE
  5
16A
100
AcDbEntity
  8
BODEN-4_8
 62
     7
100
AcDbLine
 10
87.500085
 20
187.881211
 30
0.0
 11
85.99699
 21
189.384478
 31
0.0
  0
LINE
  5
169
100
AcDbEntity
  8
BODEN-4_8
 62
     7
100
AcDbLine
 10
90.104578
 20
190.82694
 30
0.0
 11
89.066743
 21
191.864947
 31
0.0
  0
LINE
  5
168
100
AcDbEntity
  8
BODEN-4_8
 62
     7
100
AcDbLine
 10
89.622781
 20
190.804374
 30
0.0
 11
88.573749
 21
191.853234
 31
0.0
  0
LINE
  5
167
100
AcDbEntity
  8
BODEN-4_8
 62
     7
100
AcDbLine
 10
89.145635
 20
190.776813
 30
0.0
 11
88.087302
 21
191.835319
 31
0.0
  0
LINE
  5
166
100
AcDbEntity
  8
BODEN-4_8
 62
     7
100
AcDbLine
 10
88.673313
 20
190.744774
 30
0.0
 11
87.617735
 21
191.800179
 31
0.0
  0
LINE
  5
165
100
AcDbEntity
  8
BODEN-4_8
 62
     7
100
AcDbLine
 10
88.205469
 20
190.707912
 30
0.0
 11
87.221722
 21
191.691659
 31
0.0
  0
LINE
  5
164
100
AcDbEntity
  8
BODEN-4_8
 62
     7
100
AcDbLine
 10
87.746582
 20
190.662092
 30
0.0
 11
86.885653
 21
191.523193
 31
0.0
  0
LINE
  5
163
100
AcDbEntity
  8
BODEN-4_8
 62
     7
100
AcDbLine
 10
87.407929
 20
190.49621
 30
0.0
 11
86.598676
 21
191.305636
 31
0.0
  0
LINE
  5
162
100
AcDbEntity
  8
BODEN-4_8
 62
     7
100
AcDbLine
 10
87.181931
 20
190.217847
 30
0.0
 11
86.357347
 21
191.042258
 31
0.0
  0
LINE
  5
161
100
AcDbEntity
  8
BODEN-4_8
 62
     7
100
AcDbLine
 10
87.088913
 20
189.806158
 30
0.0
 11
86.162699
 21
190.732372
 31
0.0
  0
LINE
  5
160
100
AcDbEntity
  8
BODEN-4_8
 62
     7
100
AcDbLine
 10
94.642802
 20
188.307197
 30
0.0
 11
94.016311
 21
188.933515
 31
0.0
  0
LINE
  5
15F
100
AcDbEntity
  8
BODEN-4_8
 62
     7
100
AcDbLine
 10
94.21561
 20
188.229682
 30
0.0
 11
93.536754
 21
188.90871
 31
0.0
  0
LINE
  5
15E
100
AcDbEntity
  8
BODEN-4_8
 62
     7
100
AcDbLine
 10
93.782906
 20
188.158024
 30
0.0
 11
93.052374
 21
188.888557
 31
0.0
  0
LINE
  5
15D
100
AcDbEntity
  8
BODEN-4_8
 62
     7
100
AcDbLine
 10
93.344173
 20
188.092051
 30
0.0
 11
92.56317
 21
188.873054
 31
0.0
  0
LINE
  5
15C
100
AcDbEntity
  8
BODEN-4_8
 62
     7
100
AcDbLine
 10
92.899411
 20
188.032278
 30
0.0
 11
92.069143
 21
188.862546
 31
0.0
  0
LINE
  5
15B
100
AcDbEntity
  8
BODEN-4_8
 62
     7
100
AcDbLine
 10
92.448448
 20
187.978707
 30
0.0
 11
91.569949
 21
188.857034
 31
0.0
  0
LINE
  5
15A
100
AcDbEntity
  8
BODEN-4_8
 62
     7
100
AcDbLine
 10
91.99094
 20
187.931681
 30
0.0
 11
91.065759
 21
188.856862
 31
0.0
  0
LINE
  5
159
100
AcDbEntity
  8
BODEN-4_8
 62
     7
100
AcDbLine
 10
91.526541
 20
187.891374
 30
0.0
 11
90.556057
 21
188.861857
 31
0.0
  0
LINE
  5
158
100
AcDbEntity
  8
BODEN-4_8
 62
     7
100
AcDbLine
 10
93.105945
 20
190.853122
 30
0.0
 11
92.179731
 21
191.779508
 31
0.0
  0
LINE
  5
157
100
AcDbEntity
  8
BODEN-4_8
 62
     7
100
AcDbLine
 10
93.626154
 20
190.837447
 30
0.0
 11
92.727501
 21
191.7361
 31
0.0
  0
LINE
  5
156
100
AcDbEntity
  8
BODEN-4_8
 62
     7
100
AcDbLine
 10
94.152565
 20
190.815571
 30
0.0
 11
93.28509
 21
191.683218
 31
0.0
  0
LINE
  5
155
100
AcDbEntity
  8
BODEN-4_8
 62
     7
100
AcDbLine
 10
94.685521
 20
190.787321
 30
0.0
 11
93.852669
 21
191.620173
 31
0.0
  0
LINE
  5
154
100
AcDbEntity
  8
BODEN-4_8
 62
     7
100
AcDbLine
 10
92.591764
 20
190.862769
 30
0.0
 11
91.640746
 21
191.813787
 31
0.0
  0
LINE
  5
153
100
AcDbEntity
  8
BODEN-4_8
 62
     7
100
AcDbLine
 10
92.08344
 20
190.866386
 30
0.0
 11
91.110373
 21
191.839453
 31
0.0
  0
LINE
  5
152
100
AcDbEntity
  8
BODEN-4_8
 62
     7
100
AcDbLine
 10
91.580801
 20
190.864663
 30
0.0
 11
90.588097
 21
191.857195
 31
0.0
  0
LINE
  5
151
100
AcDbEntity
  8
BODEN-4_8
 62
     7
100
AcDbLine
 10
99.570839
 20
189.433915
 30
0.0
 11
99.451294
 21
189.553632
 31
0.0
  0
LINE
  5
150
100
AcDbEntity
  8
BODEN-4_8
 62
     7
100
AcDbLine
 10
99.824742
 20
190.188908
 30
0.0
 11
99.551891
 21
190.462104
 31
0.0
  0
LINE
  5
14F
100
AcDbEntity
  8
BODEN-4_8
 62
     7
100
AcDbLine
 10
95.483577
 20
188.475662
 30
0.0
 11
94.962507
 21
188.99656
 31
0.0
  0
LINE
  5
14E
100
AcDbEntity
  8
BODEN-4_8
 62
     7
100
AcDbLine
 10
95.900779
 20
188.562995
 30
0.0
 11
95.429145
 21
189.034629
 31
0.0
  0
LINE
  5
14D
100
AcDbEntity
  8
BODEN-4_8
 62
     7
100
AcDbLine
 10
96.316085
 20
188.652223
 30
0.0
 11
95.891477
 21
189.076831
 31
0.0
  0
LINE
  5
14C
100
AcDbEntity
  8
BODEN-4_8
 62
     7
100
AcDbLine
 10
96.729324
 20
188.743346
 30
0.0
 11
96.349674
 21
189.122995
 31
0.0
  0
LINE
  5
14B
100
AcDbEntity
  8
BODEN-4_8
 62
     7
100
AcDbLine
 10
97.140841
 20
188.836536
 30
0.0
 11
96.804083
 21
189.173294
 31
0.0
  0
LINE
  5
14A
100
AcDbEntity
  8
BODEN-4_8
 62
     7
100
AcDbLine
 10
97.550463
 20
188.931448
 30
0.0
 11
97.254529
 21
189.227382
 31
0.0
  0
LINE
  5
149
100
AcDbEntity
  8
BODEN-4_8
 62
     7
100
AcDbLine
 10
97.95819
 20
189.028255
 30
0.0
 11
97.701185
 21
189.285259
 31
0.0
  0
LINE
  5
148
100
AcDbEntity
  8
BODEN-4_8
 62
     7
100
AcDbLine
 10
98.364022
 20
189.126957
 30
0.0
 11
98.144225
 21
189.346927
 31
0.0
  0
LINE
  5
147
100
AcDbEntity
  8
BODEN-4_8
 62
     7
100
AcDbLine
 10
98.768132
 20
189.227554
 30
0.0
 11
98.58313
 21
189.412211
 31
0.0
  0
LINE
  5
146
100
AcDbEntity
  8
BODEN-4_8
 62
     7
100
AcDbLine
 10
99.170174
 20
189.329873
 30
0.0
 11
99.019279
 21
189.481113
 31
0.0
  0
LINE
  5
145
100
AcDbEntity
  8
BODEN-4_8
 62
     7
100
AcDbLine
 10
99.21875
 20
190.290538
 30
0.0
 11
98.851847
 21
190.657441
 31
0.0
  0
LINE
  5
144
100
AcDbEntity
  8
BODEN-4_8
 62
     7
100
AcDbLine
 10
95.771932
 20
190.709979
 30
0.0
 11
95.020557
 21
191.461354
 31
0.0
  0
LINE
  5
143
100
AcDbEntity
  8
BODEN-4_8
 62
     7
100
AcDbLine
 10
96.325903
 20
190.660541
 30
0.0
 11
95.622415
 21
191.36403
 31
0.0
  0
LINE
  5
142
100
AcDbEntity
  8
BODEN-4_8
 62
     7
100
AcDbLine
 10
96.887626
 20
190.603353
 30
0.0
 11
96.237537
 21
191.253615
 31
0.0
  0
LINE
  5
141
100
AcDbEntity
  8
BODEN-4_8
 62
     7
100
AcDbLine
 10
97.457273
 20
190.538241
 30
0.0
 11
96.866611
 21
191.129074
 31
0.0
  0
LINE
  5
140
100
AcDbEntity
  8
BODEN-4_8
 62
     7
100
AcDbLine
 10
98.622404
 20
190.38235
 30
0.0
 11
98.172475
 21
190.832452
 31
0.0
  0
LINE
  5
13F
100
AcDbEntity
  8
BODEN-4_8
 62
     7
100
AcDbLine
 10
99.969436
 20
189.539852
 30
0.0
 11
99.879864
 21
189.629424
 31
0.0
  0
LINE
  5
13E
100
AcDbEntity
  8
BODEN-4_8
 62
     7
100
AcDbLine
 10
100.441414
 20
190.076942
 30
0.0
 11
100.274672
 21
190.244029
 31
0.0
  0
LINE
  5
13D
100
AcDbEntity
  8
BODEN-4_8
 62
     7
100
AcDbLine
 10
100.366311
 20
189.647511
 30
0.0
 11
100.305333
 21
189.708489
 31
0.0
  0
LINE
  5
13C
100
AcDbEntity
  8
BODEN-4_8
 62
     7
100
AcDbLine
 10
101.154894
 20
189.868169
 30
0.0
 11
101.146281
 21
189.876782
 31
0.0
  0
LINE
  5
13B
100
AcDbEntity
  8
BODEN-4_8
 62
     7
100
AcDbLine
 10
101.069111
 20
189.953952
 30
0.0
 11
101.022602
 21
190.000461
 31
0.0
  0
LINE
  5
13A
100
AcDbEntity
  8
BODEN-4_8
 62
     7
100
AcDbLine
 10
103.905802
 20
115.778635
 30
0.0
 11
104.8315
 21
114.852249
 31
0.0
  0
LINE
  5
139
100
AcDbEntity
  8
BODEN-4_8
 62
     7
100
AcDbLine
 10
103.385593
 20
115.794138
 30
0.0
 11
104.284074
 21
114.895657
 31
0.0
  0
LINE
  5
138
100
AcDbEntity
  8
BODEN-4_8
 62
     7
100
AcDbLine
 10
104.111819
 20
118.599479
 30
0.0
 11
104.942432
 21
117.769211
 31
0.0
  0
LINE
  5
137
100
AcDbEntity
  8
BODEN-4_8
 62
     7
100
AcDbLine
 10
98.647209
 20
117.504628
 30
0.0
 11
98.86735
 21
117.284486
 31
0.0
  0
LINE
  5
136
100
AcDbEntity
  8
BODEN-4_8
 62
     7
100
AcDbLine
 10
103.667402
 20
118.539879
 30
0.0
 11
104.448405
 21
117.758531
 31
0.0
  0
LINE
  5
135
100
AcDbEntity
  8
BODEN-4_8
 62
     7
100
AcDbLine
 10
97.041966
 20
117.091561
 30
0.0
 11
97.131367
 21
117.002333
 31
0.0
  0
LINE
  5
134
100
AcDbEntity
  8
BODEN-4_8
 62
     7
100
AcDbLine
 10
99.46094
 20
117.700309
 30
0.0
 11
99.756874
 21
117.404376
 31
0.0
  0
LINE
  5
133
100
AcDbEntity
  8
BODEN-4_8
 62
     7
100
AcDbLine
 10
99.053041
 20
117.603502
 30
0.0
 11
99.310045
 21
117.346498
 31
0.0
  0
LINE
  5
132
100
AcDbEntity
  8
BODEN-4_8
 62
     7
100
AcDbLine
 10
97.841056
 20
117.301712
 30
0.0
 11
97.992296
 21
117.150472
 31
0.0
  0
LINE
  5
131
100
AcDbEntity
  8
BODEN-4_8
 62
     7
100
AcDbLine
 10
98.243443
 20
117.404376
 30
0.0
 11
98.428101
 21
117.219374
 31
0.0
  0
LINE
  5
130
100
AcDbEntity
  8
BODEN-4_8
 62
     7
100
AcDbLine
 10
97.186488
 20
116.442505
 30
0.0
 11
97.459512
 21
116.169653
 31
0.0
  0
LINE
  5
12F
100
AcDbEntity
  8
BODEN-4_8
 62
     7
100
AcDbLine
 10
97.440564
 20
117.19767
 30
0.0
 11
97.560109
 21
117.078125
 31
0.0
  0
LINE
  5
12E
100
AcDbEntity
  8
BODEN-4_8
 62
     7
100
AcDbLine
 10
96.645091
 20
116.984074
 30
0.0
 11
96.70607
 21
116.923096
 31
0.0
  0
LINE
  5
12D
100
AcDbEntity
  8
BODEN-4_8
 62
     7
100
AcDbLine
 10
97.792653
 20
116.341219
 30
0.0
 11
98.159383
 21
115.974316
 31
0.0
  0
LINE
  5
12C
100
AcDbEntity
  8
BODEN-4_8
 62
     7
100
AcDbLine
 10
96.249939
 20
116.87452
 30
0.0
 11
96.283873
 21
116.840758
 31
0.0
  0
LINE
  5
12B
100
AcDbEntity
  8
BODEN-4_8
 62
     7
100
AcDbLine
 10
107.388449
 20
115.827211
 30
0.0
 11
108.437826
 21
114.778524
 31
0.0
  0
LINE
  5
12A
100
AcDbEntity
  8
BODEN-4_8
 62
     7
100
AcDbLine
 10
95.856509
 20
116.763588
 30
0.0
 11
95.865122
 21
116.754975
 31
0.0
  0
LINE
  5
129
100
AcDbEntity
  8
BODEN-4_8
 62
     7
100
AcDbLine
 10
96.569816
 20
116.554815
 30
0.0
 11
96.736903
 21
116.387728
 31
0.0
  0
LINE
  5
128
100
AcDbEntity
  8
BODEN-4_8
 62
     7
100
AcDbLine
 10
98.975871
 20
116.166897
 30
0.0
 11
99.500214
 21
115.642554
 31
0.0
  0
LINE
  5
127
100
AcDbEntity
  8
BODEN-4_8
 62
     7
100
AcDbLine
 10
95.942292
 20
116.67746
 30
0.0
 11
95.988801
 21
116.631296
 31
0.0
  0
LINE
  5
126
100
AcDbEntity
  8
BODEN-4_8
 62
     7
100
AcDbLine
 10
101.527998
 20
118.156095
 30
0.0
 11
102.048896
 21
117.635197
 31
0.0
  0
LINE
  5
125
100
AcDbEntity
  8
BODEN-4_8
 62
     7
100
AcDbLine
 10
102.859182
 20
115.816187
 30
0.0
 11
103.726657
 21
114.948711
 31
0.0
  0
LINE
  5
124
100
AcDbEntity
  8
BODEN-4_8
 62
     7
100
AcDbLine
 10
98.388826
 20
116.24958
 30
0.0
 11
98.8391
 21
115.799306
 31
0.0
  0
LINE
  5
123
100
AcDbEntity
  8
BODEN-4_8
 62
     7
100
AcDbLine
 10
101.110452
 20
118.06859
 30
0.0
 11
101.58243
 21
117.597301
 31
0.0
  0
LINE
  5
122
100
AcDbEntity
  8
BODEN-4_8
 62
     7
100
AcDbLine
 10
100.281906
 20
117.888411
 30
0.0
 11
100.661556
 21
117.508762
 31
0.0
  0
LINE
  5
121
100
AcDbEntity
  8
BODEN-4_8
 62
     7
100
AcDbLine
 10
100.695318
 20
117.979706
 30
0.0
 11
101.120098
 21
117.554926
 31
0.0
  0
LINE
  5
120
100
AcDbEntity
  8
BODEN-4_8
 62
     7
100
AcDbLine
 10
105.020291
 20
118.700076
 30
0.0
 11
105.945643
 21
117.775068
 31
0.0
  0
LINE
  5
11F
100
AcDbEntity
  8
BODEN-4_8
 62
     7
100
AcDbLine
 10
99.870562
 20
117.795049
 30
0.0
 11
100.207148
 21
117.458464
 31
0.0
  0
LINE
  5
11E
100
AcDbEntity
  8
BODEN-4_8
 62
     7
100
AcDbLine
 10
102.368601
 20
118.324561
 30
0.0
 11
102.994919
 21
117.698242
 31
0.0
  0
LINE
  5
11D
100
AcDbEntity
  8
BODEN-4_8
 62
     7
100
AcDbLine
 10
102.795793
 20
118.402075
 30
0.0
 11
103.475165
 21
117.723047
 31
0.0
  0
LINE
  5
11C
100
AcDbEntity
  8
BODEN-4_8
 62
     7
100
AcDbLine
 10
103.228497
 20
118.473733
 30
0.0
 11
103.959546
 21
117.743373
 31
0.0
  0
LINE
  5
11B
100
AcDbEntity
  8
BODEN-4_8
 62
     7
100
AcDbLine
 10
101.94072
 20
118.240156
 30
0.0
 11
102.512606
 21
117.66827
 31
0.0
  0
LINE
  5
11A
100
AcDbEntity
  8
BODEN-4_8
 62
     7
100
AcDbLine
 10
102.325882
 20
115.844436
 30
0.0
 11
103.158906
 21
115.011412
 31
0.0
  0
LINE
  5
119
100
AcDbEntity
  8
BODEN-4_8
 62
     7
100
AcDbLine
 10
101.78638
 20
115.879576
 30
0.0
 11
102.580819
 21
115.085137
 31
0.0
  0
LINE
  5
118
100
AcDbEntity
  8
BODEN-4_8
 62
     7
100
AcDbLine
 10
101.239299
 20
115.921606
 30
0.0
 11
101.991018
 21
115.170576
 31
0.0
  0
LINE
  5
117
100
AcDbEntity
  8
BODEN-4_8
 62
     7
100
AcDbLine
 10
100.685327
 20
115.971216
 30
0.0
 11
101.388816
 21
115.267727
 31
0.0
  0
LINE
  5
116
100
AcDbEntity
  8
BODEN-4_8
 62
     7
100
AcDbLine
 10
100.123777
 20
116.028404
 30
0.0
 11
100.773866
 21
115.37797
 31
0.0
  0
LINE
  5
115
100
AcDbEntity
  8
BODEN-4_8
 62
     7
100
AcDbLine
 10
99.553958
 20
116.093517
 30
0.0
 11
100.144792
 21
115.502683
 31
0.0
  0
LINE
  5
114
100
AcDbEntity
  8
BODEN-4_8
 62
     7
100
AcDbLine
 10
107.918994
 20
118.829267
 30
0.0
 11
109.089638
 21
117.658624
 31
0.0
  0
LINE
  5
113
100
AcDbEntity
  8
BODEN-4_8
 62
     7
100
AcDbLine
 10
108.430246
 20
118.821688
 30
0.0
 11
110.989952
 21
116.262671
 31
0.0
  0
LINE
  5
112
100
AcDbEntity
  8
BODEN-4_8
 62
     7
100
AcDbLine
 10
108.337918
 20
115.887155
 30
0.0
 11
109.393495
 21
114.831578
 31
0.0
  0
LINE
  5
111
100
AcDbEntity
  8
BODEN-4_8
 62
     7
100
AcDbLine
 10
108.805762
 20
115.923674
 30
0.0
 11
109.789681
 21
114.940099
 31
0.0
  0
LINE
  5
110
100
AcDbEntity
  8
BODEN-4_8
 62
     7
100
AcDbLine
 10
104.419811
 20
115.768989
 30
0.0
 11
105.370313
 21
114.817798
 31
0.0
  0
LINE
  5
10F
100
AcDbEntity
  8
BODEN-4_8
 62
     7
100
AcDbLine
 10
104.927962
 20
115.765199
 30
0.0
 11
105.900857
 21
114.792304
 31
0.0
  0
LINE
  5
10E
100
AcDbEntity
  8
BODEN-4_8
 62
     7
100
AcDbLine
 10
105.430257
 20
115.767266
 30
0.0
 11
106.423134
 21
114.77439
 31
0.0
  0
LINE
  5
10D
100
AcDbEntity
  8
BODEN-4_8
 62
     7
100
AcDbLine
 10
105.927729
 20
115.774501
 30
0.0
 11
106.937831
 21
114.764743
 31
0.0
  0
LINE
  5
10C
100
AcDbEntity
  8
BODEN-4_8
 62
     7
100
AcDbLine
 10
106.419689
 20
115.787248
 30
0.0
 11
107.444949
 21
114.761987
 31
0.0
  0
LINE
  5
10B
100
AcDbEntity
  8
BODEN-4_8
 62
     7
100
AcDbLine
 10
106.906825
 20
115.804473
 30
0.0
 11
107.944488
 21
114.76681
 31
0.0
  0
LINE
  5
10A
100
AcDbEntity
  8
BODEN-4_8
 62
     7
100
AcDbLine
 10
105.48469
 20
118.740384
 30
0.0
 11
106.455518
 21
117.769556
 31
0.0
  0
LINE
  5
109
100
AcDbEntity
  8
BODEN-4_8
 62
     7
100
AcDbLine
 10
104.562782
 20
118.652878
 30
0.0
 11
105.441281
 21
117.774379
 31
0.0
  0
LINE
  5
108
100
AcDbEntity
  8
BODEN-4_8
 62
     7
100
AcDbLine
 10
105.955979
 20
118.773456
 30
0.0
 11
106.970215
 21
117.75922
 31
0.0
  0
LINE
  5
107
100
AcDbEntity
  8
BODEN-4_8
 62
     7
100
AcDbLine
 10
107.41601
 20
118.827544
 30
0.0
 11
108.551514
 21
117.692041
 31
0.0
  0
LINE
  5
106
100
AcDbEntity
  8
BODEN-4_8
 62
     7
100
AcDbLine
 10
106.434847
 20
118.799295
 30
0.0
 11
107.491113
 21
117.742684
 31
0.0
  0
LINE
  5
105
100
AcDbEntity
  8
BODEN-4_8
 62
     7
100
AcDbLine
 10
109.264648
 20
115.969493
 30
0.0
 11
110.125922
 21
115.108564
 31
0.0
  0
LINE
  5
104
100
AcDbEntity
  8
BODEN-4_8
 62
     7
100
AcDbLine
 10
107.86594
 20
115.854772
 30
0.0
 11
108.924273
 21
114.796438
 31
0.0
  0
LINE
  5
103
100
AcDbEntity
  8
BODEN-4_8
 62
     7
100
AcDbLine
 10
106.921294
 20
118.817554
 30
0.0
 11
108.018213
 21
117.720635
 31
0.0
  0
LINE
  5
102
100
AcDbEntity
  8
BODEN-4_8
 62
     7
100
AcDbLine
 10
109.922662
 20
116.8256
 30
0.0
 11
110.848703
 21
115.899213
 31
0.0
  0
LINE
  5
101
100
AcDbEntity
  8
BODEN-4_8
 62
     7
100
AcDbLine
 10
108.951834
 20
118.805151
 30
0.0
 11
111.06161
 21
116.695375
 31
0.0
  0
LINE
  5
100
100
AcDbEntity
  8
BODEN-4_8
 62
     7
100
AcDbLine
 10
109.511317
 20
118.750374
 30
0.0
 11
111.014068
 21
117.247279
 31
0.0
  0
LINE
  5
FF
100
AcDbEntity
  8
BODEN-4_8
 62
     7
100
AcDbLine
 10
109.829644
 20
116.413911
 30
0.0
 11
110.653711
 21
115.589499
 31
0.0
  0
LINE
  5
FE
100
AcDbEntity
  8
BODEN-4_8
 62
     7
100
AcDbLine
 10
109.603646
 20
116.135547
 30
0.0
 11
110.412554
 21
115.326294
 31
0.0
  0
LINE
  5
FD
100
AcDbEntity
  8
BODEN-4_8
 62
     7
100
AcDbLine
 10
121.521609
 20
127.911228
 30
0.0
 11
121.339708
 21
128.093473
 31
0.0
  0
LINE
  5
FC
100
AcDbEntity
  8
BODEN-4_8
 62
     7
100
AcDbLine
 10
124.085449
 20
127.911228
 30
0.0
 11
121.339708
 21
130.656624
 31
0.0
  0
LINE
  5
FB
100
AcDbEntity
  8
BODEN-4_8
 62
     7
100
AcDbLine
 10
125.423524
 20
129.136304
 30
0.0
 11
121.339708
 21
133.22012
 31
0.0
  0
LINE
  5
FA
100
AcDbEntity
  8
BODEN-4_8
 62
     7
100
AcDbLine
 10
125.423524
 20
131.699799
 30
0.0
 11
121.339708
 21
135.783271
 31
0.0
  0
LINE
  5
F9
100
AcDbEntity
  8
BODEN-4_8
 62
     7
100
AcDbLine
 10
125.143783
 20
134.542692
 30
0.0
 11
121.339708
 21
138.346422
 31
0.0
  0
LINE
  5
F8
100
AcDbEntity
  8
BODEN-4_8
 62
     7
100
AcDbLine
 10
125.423524
 20
136.826446
 30
0.0
 11
121.339708
 21
140.909573
 31
0.0
  0
LINE
  5
F7
100
AcDbEntity
  8
BODEN-4_8
 62
     7
100
AcDbLine
 10
125.114155
 20
139.698966
 30
0.0
 11
121.339708
 21
143.472724
 31
0.0
  0
LINE
  5
F6
100
AcDbEntity
  8
BODEN-4_8
 62
     7
100
AcDbLine
 10
125.423524
 20
141.952748
 30
0.0
 11
121.339708
 21
146.035875
 31
0.0
  0
LINE
  5
F5
100
AcDbEntity
  8
BODEN-4_8
 62
     7
100
AcDbLine
 10
124.880577
 20
145.058157
 30
0.0
 11
121.339708
 21
148.599198
 31
0.0
  0
LINE
  5
F4
100
AcDbEntity
  8
BODEN-4_8
 62
     7
100
AcDbLine
 10
125.423524
 20
147.07905
 30
0.0
 11
121.339708
 21
151.162522
 31
0.0
  0
LINE
  5
F3
100
AcDbEntity
  8
BODEN-4_8
 62
     7
100
AcDbLine
 10
124.866108
 20
150.19979
 30
0.0
 11
121.339708
 21
153.725673
 31
0.0
  0
LINE
  5
F2
100
AcDbEntity
  8
BODEN-4_8
 62
     7
100
AcDbLine
 10
125.423524
 20
152.205524
 30
0.0
 11
121.339708
 21
156.288824
 31
0.0
  0
LINE
  5
F1
100
AcDbEntity
  8
BODEN-4_8
 62
     7
100
AcDbLine
 10
125.423524
 20
154.768848
 30
0.0
 11
121.339708
 21
158.852147
 31
0.0
  0
LINE
  5
F0
100
AcDbEntity
  8
BODEN-4_8
 62
     7
100
AcDbLine
 10
125.423524
 20
157.331999
 30
0.0
 11
121.339708
 21
161.415298
 31
0.0
  0
LINE
  5
EF
100
AcDbEntity
  8
BODEN-4_8
 62
     7
100
AcDbLine
 10
125.423524
 20
159.895322
 30
0.0
 11
121.339708
 21
163.978621
 31
0.0
  0
LINE
  5
EE
100
AcDbEntity
  8
BODEN-4_8
 62
     7
100
AcDbLine
 10
125.119667
 20
162.761814
 30
0.0
 11
121.339708
 21
166.541772
 31
0.0
  0
LINE
  5
ED
100
AcDbEntity
  8
BODEN-4_8
 62
     7
100
AcDbLine
 10
125.423524
 20
165.021624
 30
0.0
 11
121.339708
 21
169.105096
 31
0.0
  0
LINE
  5
EC
100
AcDbEntity
  8
BODEN-4_8
 62
     7
100
AcDbLine
 10
124.82959
 20
168.178365
 30
0.0
 11
121.339708
 21
171.668247
 31
0.0
  0
LINE
  5
EB
100
AcDbEntity
  8
BODEN-4_8
 62
     7
100
AcDbLine
 10
125.423524
 20
170.148098
 30
0.0
 11
121.339708
 21
174.231398
 31
0.0
  0
LINE
  5
EA
100
AcDbEntity
  8
BODEN-4_8
 62
     7
100
AcDbLine
 10
125.423524
 20
172.711422
 30
0.0
 11
121.339708
 21
176.794721
 31
0.0
  0
LINE
  5
E9
100
AcDbEntity
  8
BODEN-4_8
 62
     7
100
AcDbLine
 10
125.423524
 20
175.274573
 30
0.0
 11
121.339708
 21
179.357872
 31
0.0
  0
LINE
  5
E8
100
AcDbEntity
  8
BODEN-4_8
 62
     7
100
AcDbLine
 10
125.423524
 20
177.837896
 30
0.0
 11
121.339708
 21
181.921195
 31
0.0
  0
LINE
  5
E7
100
AcDbEntity
  8
BODEN-4_8
 62
     7
100
AcDbLine
 10
125.423524
 20
180.401047
 30
0.0
 11
121.968783
 21
183.855444
 31
0.0
  0
LINE
  5
E6
100
AcDbEntity
  8
BODEN-4_8
 62
     7
100
AcDbLine
 10
125.252648
 20
183.134903
 30
0.0
 11
124.531934
 21
183.855444
 31
0.0
  0
LINE
  5
E5
100
AcDbEntity
  8
BODEN-4_8
 62
     7
100
AcDbLine
 10
72.820706
 20
127.911228
 30
0.0
 11
71.588051
 21
129.143883
 31
0.0
  0
LINE
  5
E4
100
AcDbEntity
  8
BODEN-4_8
 62
     7
100
AcDbLine
 10
75.384029
 20
127.911228
 30
0.0
 11
71.588051
 21
131.707378
 31
0.0
  0
LINE
  5
E3
100
AcDbEntity
  8
BODEN-4_8
 62
     7
100
AcDbLine
 10
75.67135
 20
130.187058
 30
0.0
 11
72.191976
 21
133.666604
 31
0.0
  0
LINE
  5
E2
100
AcDbEntity
  8
BODEN-4_8
 62
     7
100
AcDbLine
 10
75.67135
 20
132.750209
 30
0.0
 11
71.588051
 21
136.834025
 31
0.0
  0
LINE
  5
E1
100
AcDbEntity
  8
BODEN-4_8
 62
     7
100
AcDbLine
 10
75.67135
 20
135.313704
 30
0.0
 11
72.188014
 21
138.79704
 31
0.0
  0
LINE
  5
E0
100
AcDbEntity
  8
BODEN-4_8
 62
     7
100
AcDbLine
 10
75.67135
 20
137.876855
 30
0.0
 11
71.588051
 21
141.960327
 31
0.0
  0
LINE
  5
DF
100
AcDbEntity
  8
BODEN-4_8
 62
     7
100
AcDbLine
 10
75.67135
 20
140.440351
 30
0.0
 11
72.03488
 21
144.076649
 31
0.0
  0
LINE
  5
DE
100
AcDbEntity
  8
BODEN-4_8
 62
     7
100
AcDbLine
 10
75.67135
 20
143.003502
 30
0.0
 11
71.588051
 21
147.086629
 31
0.0
  0
LINE
  5
DD
100
AcDbEntity
  8
BODEN-4_8
 62
     7
100
AcDbLine
 10
75.67135
 20
145.566653
 30
0.0
 11
72.011453
 21
149.226378
 31
0.0
  0
LINE
  5
DC
100
AcDbEntity
  8
BODEN-4_8
 62
     7
100
AcDbLine
 10
75.67135
 20
148.129804
 30
0.0
 11
71.588051
 21
152.213104
 31
0.0
  0
LINE
  5
DB
100
AcDbEntity
  8
BODEN-4_8
 62
     7
100
AcDbLine
 10
75.67135
 20
150.692955
 30
0.0
 11
71.588051
 21
154.776427
 31
0.0
  0
LINE
  5
DA
100
AcDbEntity
  8
BODEN-4_8
 62
     7
100
AcDbLine
 10
75.67135
 20
153.256278
 30
0.0
 11
71.588051
 21
157.339578
 31
0.0
  0
LINE
  5
D9
100
AcDbEntity
  8
BODEN-4_8
 62
     7
100
AcDbLine
 10
75.67135
 20
155.81943
 30
0.0
 11
71.588051
 21
159.902729
 31
0.0
  0
LINE
  5
D8
100
AcDbEntity
  8
BODEN-4_8
 62
     7
100
AcDbLine
 10
75.67135
 20
158.382753
 30
0.0
 11
72.189048
 21
161.865055
 31
0.0
  0
LINE
  5
D7
100
AcDbEntity
  8
BODEN-4_8
 62
     7
100
AcDbLine
 10
75.67135
 20
160.945904
 30
0.0
 11
71.588051
 21
165.029203
 31
0.0
  0
LINE
  5
D6
100
AcDbEntity
  8
BODEN-4_8
 62
     7
100
AcDbLine
 10
75.67135
 20
163.509227
 30
0.0
 11
71.926359
 21
167.254218
 31
0.0
  0
LINE
  5
D5
100
AcDbEntity
  8
BODEN-4_8
 62
     7
100
AcDbLine
 10
75.67135
 20
166.072378
 30
0.0
 11
71.588051
 21
170.155678
 31
0.0
  0
LINE
  5
D4
100
AcDbEntity
  8
BODEN-4_8
 62
     7
100
AcDbLine
 10
75.67135
 20
168.635529
 30
0.0
 11
71.588051
 21
172.719001
 31
0.0
  0
LINE
  5
D3
100
AcDbEntity
  8
BODEN-4_8
 62
     7
100
AcDbLine
 10
75.67135
 20
171.198853
 30
0.0
 11
71.588051
 21
175.282152
 31
0.0
  0
LINE
  5
D2
100
AcDbEntity
  8
BODEN-4_8
 62
     7
100
AcDbLine
 10
75.67135
 20
173.762004
 30
0.0
 11
71.588051
 21
177.845303
 31
0.0
  0
LINE
  5
D1
100
AcDbEntity
  8
BODEN-4_8
 62
     7
100
AcDbLine
 10
75.67135
 20
176.325327
 30
0.0
 11
71.588051
 21
180.408626
 31
0.0
  0
LINE
  5
D0
100
AcDbEntity
  8
BODEN-4_8
 62
     7
100
AcDbLine
 10
75.67135
 20
178.888478
 30
0.0
 11
72.180607
 21
182.379393
 31
0.0
  0
LINE
  5
CF
100
AcDbEntity
  8
BODEN-4_8
 62
     7
100
AcDbLine
 10
75.67135
 20
181.451801
 30
0.0
 11
73.267535
 21
183.855444
 31
0.0
  0
LINE
  5
CE
100
AcDbEntity
  8
BODEN-4_8
  6
AI9-LType2
 62
     7
100
AcDbLine
 10
80.739258
 20
129.344732
 30
0.0
 11
80.739258
 21
146.831348
 31
0.0
  0
LINE
  5
CD
100
AcDbEntity
  8
BODEN-4_8
  6
AI9-LType2
 62
     7
100
AcDbLine
 10
116.271973
 20
129.529389
 30
0.0
 11
116.271973
 21
146.831348
 31
0.0
  0
LINE
  5
CB
100
AcDbEntity
  8
BODEN-4_8
  6
AI9-LType1
 62
     7
100
AcDbLine
 10
98.505615
 20
193.635037
 30
0.0
 11
98.505615
 21
112.42449
 31
0.0
  0
SPLINE
  5
C9
100
AcDbEntity
  8
BODEN-4_8
 62
     7
100
AcDbSpline
210
0.0
220
0.0
230
1.0
 70
     8
 71
     3
 72
    11
 73
     7
 74
     0
 42
0.00000001
 43
0.00000001
 40
0.0
 40
0.0
 40
0.0
 40
0.0
 40
1.0
 40
1.0
 40
1.0
 40
2.0
 40
2.0
 40
2.0
 40
2.0
 10
125.42352430555555
 20
169.0596204969618
 30
0.0
 10
124.84474826388887
 20
168.72561848958333
 30
0.0
 10
124.64631076388888
 20
167.98561197916666
 30
0.0
 10
124.98048502604165
 20
167.4070081922743
 30
0.0
 10
125.08659396701388
 20
167.22304009331594
 30
0.0
 10
125.23955620659721
 20
167.07025010850694
 30
0.0
 10
125.42352430555555
 20
166.96414116753471
 30
0.0
  0
LINE
  5
C8
100
AcDbEntity
  8
BODEN-4_8
 62
     7
100
AcDbLine
 10
125.423524
 20
160.914726
 30
0.0
 11
125.423524
 21
156.960962
 31
0.0
  0
SPLINE
  5
C7
100
AcDbEntity
  8
BODEN-4_8
 62
     7
100
AcDbSpline
210
0.0
220
0.0
230
1.0
 70
     8
 71
     3
 72
    11
 73
     7
 74
     0
 42
0.00000001
 43
0.00000001
 40
0.0
 40
0.0
 40
0.0
 40
0.0
 40
1.0
 40
1.0
 40
1.0
 40
2.0
 40
2.0
 40
2.0
 40
2.0
 10
125.42352430555555
 20
163.01037733289928
 30
0.0
 10
124.84474826388887
 20
162.67620307074651
 30
0.0
 10
124.64631076388888
 20
161.93619656032985
 30
0.0
 10
124.98048502604165
 20
161.35759277343749
 30
0.0
 10
125.08659396701388
 20
161.17362467447916
 30
0.0
 10
125.23955620659721
 20
161.02100694444442
 30
0.0
 10
125.42352430555555
 20
160.91472574869789
 30
0.0
  0
SPLINE
  5
C6
100
AcDbEntity
  8
BODEN-4_8
 62
     7
100
AcDbSpline
210
0.0
220
0.0
230
1.0
 70
     8
 71
     3
 72
    11
 73
     7
 74
     0
 42
0.00000001
 43
0.00000001
 40
0.0
 40
0.0
 40
0.0
 40
0.0
 40
1.0
 40
1.0
 40
1.0
 40
2.0
 40
2.0
 40
2.0
 40
2.0
 10
125.42352430555555
 20
150.91154649522568
 30
0.0
 10
124.84474826388887
 20
150.57754448784721
 30
0.0
 10
124.64631076388888
 20
149.83753797743054
 30
0.0
 10
124.98048502604165
 20
149.25893419053818
 30
0.0
 10
125.08659396701388
 20
149.07496609157985
 30
0.0
 10
125.23955620659721
 20
148.92217610677082
 30
0.0
 10
125.42352430555555
 20
148.81606716579859
 30
0.0
  0
LINE
  5
C5
100
AcDbEntity
  8
BODEN-4_8
 62
     7
100
AcDbLine
 10
125.423524
 20
166.964141
 30
0.0
 11
125.423524
 21
163.010377
 31
0.0
  0
SPLINE
  5
C4
100
AcDbEntity
  8
BODEN-4_8
 62
     7
100
AcDbSpline
210
0.0
220
0.0
230
1.0
 70
     8
 71
     3
 72
    11
 73
     7
 74
     0
 42
0.00000001
 43
0.00000001
 40
0.0
 40
0.0
 40
0.0
 40
0.0
 40
1.0
 40
1.0
 40
1.0
 40
2.0
 40
2.0
 40
2.0
 40
2.0
 10
125.42352430555555
 20
175.10903591579859
 30
0.0
 10
124.84474826388887
 20
174.77486165364581
 30
0.0
 10
124.64631076388888
 20
174.03502739800345
 30
0.0
 10
124.98048502604165
 20
173.45625135633679
 30
0.0
 10
125.08659396701388
 20
173.27245551215276
 30
0.0
 10
125.23955620659721
 20
173.11966552734373
 30
0.0
 10
125.42352430555555
 20
173.01355658637152
 30
0.0
  0
LINE
  5
C3
100
AcDbEntity
  8
BODEN-4_8
 62
     7
100
AcDbLine
 10
125.423524
 20
183.855444
 30
0.0
 11
125.423524
 21
183.253931
 31
0.0
  0
LINE
  5
C2
100
AcDbEntity
  8
BODEN-4_8
 62
     7
100
AcDbLine
 10
125.423524
 20
181.158451
 30
0.0
 11
125.423524
 21
175.109036
 31
0.0
  0
LINE
  5
C1
100
AcDbEntity
  8
BODEN-4_8
 62
     7
100
AcDbLine
 10
125.423524
 20
173.013557
 30
0.0
 11
125.423524
 21
169.05962
 31
0.0
  0
SPLINE
  5
C0
100
AcDbEntity
  8
BODEN-4_8
 62
     7
100
AcDbSpline
210
0.0
220
0.0
230
1.0
 70
     8
 71
     3
 72
    11
 73
     7
 74
     0
 42
0.00000001
 43
0.00000001
 40
0.0
 40
0.0
 40
0.0
 40
0.0
 40
1.0
 40
1.0
 40
1.0
 40
2.0
 40
2.0
 40
2.0
 40
2.0
 10
125.42352430555555
 20
156.96096191406249
 30
0.0
 10
124.84474826388887
 20
156.62678765190969
 30
0.0
 10
124.64631076388888
 20
155.88695339626736
 30
0.0
 10
124.98048502604165
 20
155.30817735460067
 30
0.0
 10
125.08659396701388
 20
155.12438151041664
 30
0.0
 10
125.23955620659721
 20
154.97159152560764
 30
0.0
 10
125.42352430555555
 20
154.8653103298611
 30
0.0
  0
LINE
  5
BF
100
AcDbEntity
  8
BODEN-4_8
 62
     7
100
AcDbLine
 10
125.423524
 20
154.86531
 30
0.0
 11
125.423524
 21
150.911546
 31
0.0
  0
LINE
  5
BE
100
AcDbEntity
  8
BODEN-4_8
 62
     7
100
AcDbLine
 10
125.423524
 20
143.627064
 30
0.0
 11
125.423524
 21
139.954248
 31
0.0
  0
LINE
  5
BD
100
AcDbEntity
  8
BODEN-4_8
 62
     7
100
AcDbLine
 10
125.423524
 20
148.816067
 30
0.0
 11
125.423524
 21
145.722371
 31
0.0
  0
SPLINE
  5
BC
100
AcDbEntity
  8
BODEN-4_8
 62
     7
100
AcDbSpline
210
0.0
220
0.0
230
1.0
 70
     8
 71
     3
 72
    11
 73
     7
 74
     0
 42
0.00000001
 43
0.00000001
 40
0.0
 40
0.0
 40
0.0
 40
0.0
 40
1.0
 40
1.0
 40
1.0
 40
2.0
 40
2.0
 40
2.0
 40
2.0
 10
125.42352430555555
 20
139.95424804687499
 30
0.0
 10
124.84474826388887
 20
139.62041829427082
 30
0.0
 10
124.64631076388888
 20
138.88041178385416
 30
0.0
 10
124.98048502604165
 20
138.3016357421875
 30
0.0
 10
125.08659396701388
 20
138.11766764322914
 30
0.0
 10
125.23955620659721
 20
137.96470540364581
 30
0.0
 10
125.42352430555555
 20
137.8585964626736
 30
0.0
  0
SPLINE
  5
BB
100
AcDbEntity
  8
BODEN-4_8
 62
     7
100
AcDbSpline
210
0.0
220
0.0
230
1.0
 70
     8
 71
     3
 72
    11
 73
     7
 74
     0
 42
0.00000001
 43
0.00000001
 40
0.0
 40
0.0
 40
0.0
 40
0.0
 40
1.0
 40
1.0
 40
1.0
 40
2.0
 40
2.0
 40
2.0
 40
2.0
 10
125.42352430555555
 20
145.72237141927081
 30
0.0
 10
124.84474826388887
 20
145.38819715711804
 30
0.0
 10
124.64631076388888
 20
144.64819064670138
 30
0.0
 10
124.98048502604165
 20
144.06975911458332
 30
0.0
 10
125.08659396701388
 20
143.88579101562499
 30
0.0
 10
125.23955620659721
 20
143.73317328559025
 30
0.0
 10
125.42352430555555
 20
143.62706434461805
 30
0.0
  0
SPLINE
  5
BA
100
AcDbEntity
  8
BODEN-4_8
 62
     7
100
AcDbSpline
210
0.0
220
0.0
230
1.0
 70
     8
 71
     3
 72
    11
 73
     7
 74
     0
 42
0.00000001
 43
0.00000001
 40
0.0
 40
0.0
 40
0.0
 40
0.0
 40
1.0
 40
1.0
 40
1.0
 40
2.0
 40
2.0
 40
2.0
 40
2.0
 10
125.42352430555555
 20
134.76490071614583
 30
0.0
 10
124.84474826388887
 20
134.43107096354166
 30
0.0
 10
124.64631076388888
 20
133.69106445312499
 30
0.0
 10
124.98048502604165
 20
133.11263292100693
 30
0.0
 10
125.08659396701388
 20
132.9286648220486
 30
0.0
 10
125.23955620659721
 20
132.77570258246527
 30
0.0
 10
125.42352430555555
 20
132.66959364149304
 30
0.0
  0
LINE
  5
B9
100
AcDbEntity
  8
BODEN-4_8
 62
     7
100
AcDbLine
 10
125.423524
 20
127.911228
 30
0.0
 11
125.423524
 21
132.669594
 31
0.0
  0
LINE
  5
B8
100
AcDbEntity
  8
BODEN-4_8
 62
     7
100
AcDbLine
 10
125.423524
 20
137.858596
 30
0.0
 11
125.423524
 21
134.764901
 31
0.0
  0
SPLINE
  5
B7
100
AcDbEntity
  8
BODEN-4_8
 62
     7
100
AcDbSpline
210
0.0
220
0.0
230
1.0
 70
     8
 71
     3
 72
    11
 73
     7
 74
     0
 42
0.00000001
 43
0.00000001
 40
0.0
 40
0.0
 40
0.0
 40
0.0
 40
1.0
 40
1.0
 40
1.0
 40
2.0
 40
2.0
 40
2.0
 40
2.0
 10
125.42352430555555
 20
183.25393066406249
 30
0.0
 10
124.84474826388887
 20
182.91992865668402
 30
0.0
 10
124.64631076388888
 20
182.17992214626736
 30
0.0
 10
124.98048502604165
 20
181.60131835937497
 30
0.0
 10
125.08659396701388
 20
181.41735026041664
 30
0.0
 10
125.23955620659721
 20
181.26456027560764
 30
0.0
 10
125.42352430555555
 20
181.1584513346354
 30
0.0
  0
SPLINE
  5
B6
100
AcDbEntity
  8
BODEN-4_8
 62
     7
100
AcDbSpline
210
0.0
220
0.0
230
1.0
 70
     8
 71
     3
 72
    11
 73
     7
 74
     0
 42
0.00000001
 43
0.00000001
 40
0.0
 40
0.0
 40
0.0
 40
0.0
 40
1.0
 40
1.0
 40
1.0
 40
2.0
 40
2.0
 40
2.0
 40
2.0
 10
71.588050672743051
 20
166.96414116753471
 30
0.0
 10
72.166826714409709
 20
167.29814317491318
 30
0.0
 10
72.364919704861109
 20
168.03814968532984
 30
0.0
 10
72.030917697482636
 20
168.6167534722222
 30
0.0
 10
71.924636501736103
 20
168.80072157118053
 30
0.0
 10
71.772018771701383
 20
168.95351155598956
 30
0.0
 10
71.588050672743051
 20
169.0596204969618
 30
0.0
  0
LINE
  5
B5
100
AcDbEntity
  8
BODEN-4_8
 62
     7
100
AcDbLine
 10
71.588051
 20
160.914726
 30
0.0
 11
71.588051
 21
156.960962
 31
0.0
  0
SPLINE
  5
B4
100
AcDbEntity
  8
BODEN-4_8
 62
     7
100
AcDbSpline
210
0.0
220
0.0
230
1.0
 70
     8
 71
     3
 72
    11
 73
     7
 74
     0
 42
0.00000001
 43
0.00000001
 40
0.0
 40
0.0
 40
0.0
 40
0.0
 40
1.0
 40
1.0
 40
1.0
 40
2.0
 40
2.0
 40
2.0
 40
2.0
 10
71.588050672743051
 20
160.91472574869789
 30
0.0
 10
72.166826714409709
 20
161.24890001085069
 30
0.0
 10
72.364919704861109
 20
161.98873426649305
 30
0.0
 10
72.030917697482636
 20
162.56751030815971
 30
0.0
 10
71.924636501736103
 20
162.75147840711804
 30
0.0
 10
71.772018771701383
 20
162.90409613715278
 30
0.0
 10
71.588050672743051
 20
163.01037733289928
 30
0.0
  0
SPLINE
  5
B3
100
AcDbEntity
  8
BODEN-4_8
 62
     7
100
AcDbSpline
210
0.0
220
0.0
230
1.0
 70
     8
 71
     3
 72
    11
 73
     7
 74
     0
 42
0.00000001
 43
0.00000001
 40
0.0
 40
0.0
 40
0.0
 40
0.0
 40
1.0
 40
1.0
 40
1.0
 40
2.0
 40
2.0
 40
2.0
 40
2.0
 10
71.588050672743051
 20
148.81606716579859
 30
0.0
 10
72.166826714409709
 20
149.15006917317706
 30
0.0
 10
72.364919704861109
 20
149.89007568359375
 30
0.0
 10
72.030917697482636
 20
150.46867947048611
 30
0.0
 10
71.924636501736103
 20
150.65264756944444
 30
0.0
 10
71.772018771701383
 20
150.80543755425344
 30
0.0
 10
71.588050672743051
 20
150.91154649522568
 30
0.0
  0
SPLINE
  5
B2
100
AcDbEntity
  8
BODEN-4_8
 62
     7
100
AcDbSpline
210
0.0
220
0.0
230
1.0
 70
     8
 71
     3
 72
    11
 73
     7
 74
     0
 42
0.00000001
 43
0.00000001
 40
0.0
 40
0.0
 40
0.0
 40
0.0
 40
1.0
 40
1.0
 40
1.0
 40
2.0
 40
2.0
 40
2.0
 40
2.0
 10
71.588050672743051
 20
173.01355658637152
 30
0.0
 10
72.166826714409709
 20
173.34755859374999
 30
0.0
 10
72.364919704861109
 20
174.08756510416666
 30
0.0
 10
72.030917697482636
 20
174.66616889105902
 30
0.0
 10
71.924636501736103
 20
174.85013699001735
 30
0.0
 10
71.772018771701383
 20
175.00292697482638
 30
0.0
 10
71.588050672743051
 20
175.10903591579859
 30
0.0
  0
LINE
  5
B1
100
AcDbEntity
  8
BODEN-4_8
 62
     7
100
AcDbLine
 10
71.588051
 20
166.964141
 30
0.0
 11
71.588051
 21
163.010377
 31
0.0
  0
LINE
  5
B0
100
AcDbEntity
  8
BODEN-4_8
 62
     7
100
AcDbLine
 10
71.588051
 20
183.855444
 30
0.0
 11
71.588051
 21
183.253931
 31
0.0
  0
LINE
  5
AF
100
AcDbEntity
  8
BODEN-4_8
 62
     7
100
AcDbLine
 10
71.588051
 20
181.158451
 30
0.0
 11
71.588051
 21
175.109036
 31
0.0
  0
SPLINE
  5
AE
100
AcDbEntity
  8
BODEN-4_8
 62
     7
100
AcDbSpline
210
0.0
220
0.0
230
1.0
 70
     8
 71
     3
 72
    11
 73
     7
 74
     0
 42
0.00000001
 43
0.00000001
 40
0.0
 40
0.0
 40
0.0
 40
0.0
 40
1.0
 40
1.0
 40
1.0
 40
2.0
 40
2.0
 40
2.0
 40
2.0
 10
71.588050672743051
 20
154.8653103298611
 30
0.0
 10
72.166826714409709
 20
155.19948459201387
 30
0.0
 10
72.364919704861109
 20
155.93949110243054
 30
0.0
 10
72.030917697482636
 20
156.5180948893229
 30
0.0
 10
71.924636501736103
 20
156.70206298828123
 30
0.0
 10
71.772018771701383
 20
156.85485297309026
 30
0.0
 10
71.588050672743051
 20
156.96096191406249
 30
0.0
  0
LINE
  5
AD
100
AcDbEntity
  8
BODEN-4_8
 62
     7
100
AcDbLine
 10
71.588051
 20
148.816067
 30
0.0
 11
71.588051
 21
145.722371
 31
0.0
  0
LINE
  5
AC
100
AcDbEntity
  8
BODEN-4_8
 62
     7
100
AcDbLine
 10
71.588051
 20
173.013557
 30
0.0
 11
71.588051
 21
169.05962
 31
0.0
  0
LINE
  5
AB
100
AcDbEntity
  8
BODEN-4_8
 62
     7
100
AcDbLine
 10
71.588051
 20
154.86531
 30
0.0
 11
71.588051
 21
150.911546
 31
0.0
  0
LINE
  5
AA
100
AcDbEntity
  8
BODEN-4_8
 62
     7
100
AcDbLine
 10
71.588051
 20
143.627064
 30
0.0
 11
71.588051
 21
139.954248
 31
0.0
  0
SPLINE
  5
A9
100
AcDbEntity
  8
BODEN-4_8
 62
     7
100
AcDbSpline
210
0.0
220
0.0
230
1.0
 70
     8
 71
     3
 72
    11
 73
     7
 74
     0
 42
0.00000001
 43
0.00000001
 40
0.0
 40
0.0
 40
0.0
 40
0.0
 40
1.0
 40
1.0
 40
1.0
 40
2.0
 40
2.0
 40
2.0
 40
2.0
 10
71.588050672743051
 20
137.8585964626736
 30
0.0
 10
72.166826714409709
 20
138.19277072482637
 30
0.0
 10
72.364919704861109
 20
138.93277723524304
 30
0.0
 10
72.030917697482636
 20
139.51155327690972
 30
0.0
 10
71.924636501736103
 20
139.69552137586805
 30
0.0
 10
71.772018771701383
 20
139.84813910590276
 30
0.0
 10
71.588050672743051
 20
139.95424804687499
 30
0.0
  0
SPLINE
  5
A8
100
AcDbEntity
  8
BODEN-4_8
 62
     7
100
AcDbSpline
210
0.0
220
0.0
230
1.0
 70
     8
 71
     3
 72
    11
 73
     7
 74
     0
 42
0.00000001
 43
0.00000001
 40
0.0
 40
0.0
 40
0.0
 40
0.0
 40
1.0
 40
1.0
 40
1.0
 40
2.0
 40
2.0
 40
2.0
 40
2.0
 10
71.588050672743051
 20
132.66959364149304
 30
0.0
 10
72.166826714409709
 20
133.00376790364581
 30
0.0
 10
72.364919704861109
 20
133.7437744140625
 30
0.0
 10
72.030917697482636
 20
134.32220594618053
 30
0.0
 10
71.924636501736103
 20
134.50617404513886
 30
0.0
 10
71.772018771701383
 20
134.6587917751736
 30
0.0
 10
71.588050672743051
 20
134.76490071614583
 30
0.0
  0
SPLINE
  5
A7
100
AcDbEntity
  8
BODEN-4_8
 62
     7
100
AcDbSpline
210
0.0
220
0.0
230
1.0
 70
     8
 71
     3
 72
    11
 73
     7
 74
     0
 42
0.00000001
 43
0.00000001
 40
0.0
 40
0.0
 40
0.0
 40
0.0
 40
1.0
 40
1.0
 40
1.0
 40
2.0
 40
2.0
 40
2.0
 40
2.0
 10
71.588050672743051
 20
143.62706434461805
 30
0.0
 10
72.166826714409709
 20
143.96123860677082
 30
0.0
 10
72.364919704861109
 20
144.70090060763889
 30
0.0
 10
72.030917697482636
 20
145.27967664930554
 30
0.0
 10
71.924636501736103
 20
145.46330023871528
 30
0.0
 10
71.772018771701383
 20
145.61626247829861
 30
0.0
 10
71.588050672743051
 20
145.72237141927081
 30
0.0
  0
LINE
  5
A6
100
AcDbEntity
  8
BODEN-4_8
 62
     7
100
AcDbLine
 10
71.588051
 20
127.911228
 30
0.0
 11
71.588051
 21
132.669594
 31
0.0
  0
LINE
  5
A5
100
AcDbEntity
  8
BODEN-4_8
 62
     7
100
AcDbLine
 10
71.588051
 20
137.858596
 30
0.0
 11
71.588051
 21
134.764901
 31
0.0
  0
SPLINE
  5
A4
100
AcDbEntity
  8
BODEN-4_8
 62
     7
100
AcDbSpline
210
0.0
220
0.0
230
1.0
 70
     8
 71
     3
 72
    11
 73
     7
 74
     0
 42
0.00000001
 43
0.00000001
 40
0.0
 40
0.0
 40
0.0
 40
0.0
 40
1.0
 40
1.0
 40
1.0
 40
2.0
 40
2.0
 40
2.0
 40
2.0
 10
71.588050672743051
 20
181.1584513346354
 30
0.0
 10
72.166826714409709
 20
181.49245334201387
 30
0.0
 10
72.364919704861109
 20
182.23245985243054
 30
0.0
 10
72.030917697482636
 20
182.8110636393229
 30
0.0
 10
71.924636501736103
 20
182.99503173828123
 30
0.0
 10
71.772018771701383
 20
183.14782172309026
 30
0.0
 10
71.588050672743051
 20
183.25393066406249
 30
0.0
  0
LINE
  5
A3
100
AcDbEntity
  8
BODEN-4_8
 62
     7
100
AcDbLine
 10
73.203284
 20
133.333808
 30
0.0
 11
67.453936
 21
90.815129
 31
0.0
  0
LINE
  5
A2
100
AcDbEntity
  8
BODEN-4_8
 62
     7
100
AcDbLine
 10
116.271973
 20
133.399265
 30
0.0
 11
131.1727
 21
94.83211
 31
0.0
  0
LINE
  5
A1
100
AcDbEntity
  8
BODEN-4_8
 62
     7
100
AcDbLine
 10
76.127998
 20
142.630743
 30
0.0
 11
76.127998
 21
144.457332
 31
0.0
  0
LINE
  5
A0
100
AcDbEntity
  8
BODEN-4_8
 62
     7
100
AcDbLine
 10
120.882888
 20
144.457332
 30
0.0
 11
120.882888
 21
142.630743
 31
0.0
  0
LINE
  5
9F
100
AcDbEntity
  8
BODEN-4_8
 62
     7
100
AcDbLine
 10
76.127998
 20
144.457332
 30
0.0
 11
120.882888
 21
144.457332
 31
0.0
  0
LINE
  5
9E
100
AcDbEntity
  8
BODEN-4_8
 62
     7
100
AcDbLine
 10
121.339708
 20
142.630743
 30
0.0
 11
75.67135
 21
142.630743
 31
0.0
  0
LINE
  5
9D
100
AcDbEntity
  8
BODEN-4_8
 62
     7
100
AcDbLine
 10
120.882888
 20
142.630743
 30
0.0
 11
76.127998
 21
142.630743
 31
0.0
  0
LINE
  5
9C
100
AcDbEntity
  8
BODEN-4_8
 62
     7
100
AcDbLine
 10
121.339708
 20
133.497106
 30
0.0
 11
121.339708
 21
142.630743
 31
0.0
  0
LINE
  5
9B
100
AcDbEntity
  8
BODEN-4_8
 62
     7
100
AcDbLine
 10
75.67135
 20
133.497106
 30
0.0
 11
121.339708
 21
133.497106
 31
0.0
  0
LINE
  5
9A
100
AcDbEntity
  8
BODEN-4_8
 62
     7
100
AcDbLine
 10
75.67135
 20
142.630743
 30
0.0
 11
75.67135
 21
133.497106
 31
0.0
  0
LINE
  5
99
100
AcDbEntity
  8
BODEN-4_8
 62
     7
100
AcDbLine
 10
76.127998
 20
133.497106
 30
0.0
 11
120.882888
 21
133.497106
 31
0.0
  0
LINE
  5
98
100
AcDbEntity
  8
BODEN-4_8
 62
     7
100
AcDbLine
 10
120.882888
 20
133.497106
 30
0.0
 11
120.882888
 21
131.670171
 31
0.0
  0
LINE
  5
97
100
AcDbEntity
  8
BODEN-4_8
 62
     7
100
AcDbLine
 10
76.127998
 20
131.670171
 30
0.0
 11
76.127998
 21
133.497106
 31
0.0
  0
POLYLINE
  5
91
100
AcDbEntity
  8
BODEN-4_8
 62
     7
100
AcDb2dPolyline
 66
     1
 10
0.0
 20
0.0
 30
0.0
 70
     1
  0
VERTEX
  5
92
100
AcDbEntity
  8
BODEN-4_8
 62
     7
100
AcDbVertex
100
AcDb2dVertex
 10
78.547144
 20
144.457332
 30
0.0
  0
VERTEX
  5
93
100
AcDbEntity
  8
BODEN-4_8
 62
     7
100
AcDbVertex
100
AcDb2dVertex
 10
82.9312
 20
144.457332
 30
0.0
  0
VERTEX
  5
94
100
AcDbEntity
  8
BODEN-4_8
 62
     7
100
AcDbVertex
100
AcDb2dVertex
 10
82.9312
 20
144.914152
 30
0.0
  0
VERTEX
  5
95
100
AcDbEntity
  8
BODEN-4_8
 62
     7
100
AcDbVertex
100
AcDb2dVertex
 10
78.547144
 20
144.914152
 30
0.0
  0
SEQEND
  5
96
100
AcDbEntity
  8
BODEN-4_8
 62
     7
  0
POLYLINE
  5
8B
100
AcDbEntity
  8
BODEN-4_8
 62
     7
100
AcDb2dPolyline
 66
     1
 10
0.0
 20
0.0
 30
0.0
 70
     1
  0
VERTEX
  5
8C
100
AcDbEntity
  8
BODEN-4_8
 62
     7
100
AcDbVertex
100
AcDb2dVertex
 10
118.464431
 20
144.457332
 30
0.0
  0
VERTEX
  5
8D
100
AcDbEntity
  8
BODEN-4_8
 62
     7
100
AcDbVertex
100
AcDb2dVertex
 10
114.080203
 20
144.457332
 30
0.0
  0
VERTEX
  5
8E
100
AcDbEntity
  8
BODEN-4_8
 62
     7
100
AcDbVertex
100
AcDb2dVertex
 10
114.080203
 20
144.914152
 30
0.0
  0
VERTEX
  5
8F
100
AcDbEntity
  8
BODEN-4_8
 62
     7
100
AcDbVertex
100
AcDb2dVertex
 10
118.464431
 20
144.914152
 30
0.0
  0
SEQEND
  5
90
100
AcDbEntity
  8
BODEN-4_8
 62
     7
  0
LINE
  5
8A
100
AcDbEntity
  8
BODEN-4_8
 62
     7
100
AcDbLine
 10
81.689587
 20
144.914152
 30
0.0
 11
79.788756
 21
144.914152
 31
0.0
  0
LINE
  5
89
100
AcDbEntity
  8
BODEN-4_8
 62
     7
100
AcDbLine
 10
81.689587
 20
146.055857
 30
0.0
 11
79.788756
 21
146.055857
 31
0.0
  0
SPLINE
  5
88
100
AcDbEntity
  8
BODEN-4_8
 62
     7
100
AcDbSpline
210
0.0
220
0.0
230
1.0
 70
     8
 71
     3
 72
     8
 73
     4
 74
     0
 42
0.00000001
 43
0.00000001
 40
0.0
 40
0.0
 40
0.0
 40
0.0
 40
1.0
 40
1.0
 40
1.0
 40
1.0
 10
80.105532497829856
 20
145.94699164496527
 30
0.0
 10
80.51549886067707
 20
146.09203016493055
 30
0.0
 10
80.962844509548603
 20
146.09203016493055
 30
0.0
 10
81.372810872395831
 20
145.94699164496527
 30
0.0
  0
SPLINE
  5
87
100
AcDbEntity
  8
BODEN-4_8
 62
     7
100
AcDbSpline
210
0.0
220
0.0
230
1.0
 70
     8
 71
     3
 72
     8
 73
     4
 74
     0
 42
0.00000001
 43
0.00000001
 40
0.0
 40
0.0
 40
0.0
 40
0.0
 40
1.0
 40
1.0
 40
1.0
 40
1.0
 10
81.372810872395831
 20
145.02301703559027
 30
0.0
 10
80.962844509548603
 20
144.87763400607636
 30
0.0
 10
80.51549886067707
 20
144.87763400607636
 30
0.0
 10
80.105532497829856
 20
145.02301703559027
 30
0.0
  0
LINE
  5
86
100
AcDbEntity
  8
BODEN-4_8
 62
     7
100
AcDbLine
 10
82.006364
 20
145.946992
 30
0.0
 11
82.006364
 21
145.023017
 31
0.0
  0
SPLINE
  5
85
100
AcDbEntity
  8
BODEN-4_8
 62
     7
100
AcDbSpline
210
0.0
220
0.0
230
1.0
 70
     8
 71
     3
 72
     8
 73
     4
 74
     0
 42
0.00000001
 43
0.00000001
 40
0.0
 40
0.0
 40
0.0
 40
0.0
 40
1.0
 40
1.0
 40
1.0
 40
1.0
 10
81.372810872395831
 20
145.94699164496527
 30
0.0
 10
81.559190538194443
 20
146.09203016493055
 30
0.0
 10
81.82015652126735
 20
146.09203016493055
 30
0.0
 10
82.006363932291663
 20
145.94699164496527
 30
0.0
  0
LINE
  5
84
100
AcDbEntity
  8
BODEN-4_8
 62
     7
100
AcDbLine
 10
81.372811
 20
145.946992
 30
0.0
 11
81.372811
 21
145.023017
 31
0.0
  0
SPLINE
  5
83
100
AcDbEntity
  8
BODEN-4_8
 62
     7
100
AcDbSpline
210
0.0
220
0.0
230
1.0
 70
     8
 71
     3
 72
     8
 73
     4
 74
     0
 42
0.00000001
 43
0.00000001
 40
0.0
 40
0.0
 40
0.0
 40
0.0
 40
1.0
 40
1.0
 40
1.0
 40
1.0
 10
82.006363932291663
 20
145.02301703559027
 30
0.0
 10
81.82015652126735
 20
144.87763400607636
 30
0.0
 10
81.559190538194443
 20
144.87763400607636
 30
0.0
 10
81.372810872395831
 20
145.02301703559027
 30
0.0
  0
LINE
  5
82
100
AcDbEntity
  8
BODEN-4_8
 62
     7
100
AcDbLine
 10
80.105532
 20
145.946992
 30
0.0
 11
80.105532
 21
145.023017
 31
0.0
  0
SPLINE
  5
81
100
AcDbEntity
  8
BODEN-4_8
 62
     7
100
AcDbSpline
210
0.0
220
0.0
230
1.0
 70
     8
 71
     3
 72
     8
 73
     4
 74
     0
 42
0.00000001
 43
0.00000001
 40
0.0
 40
0.0
 40
0.0
 40
0.0
 40
1.0
 40
1.0
 40
1.0
 40
1.0
 10
79.471807183159711
 20
145.94699164496527
 30
0.0
 10
79.658186848958323
 20
146.09203016493055
 30
0.0
 10
79.919152832031244
 20
146.09203016493055
 30
0.0
 10
80.105532497829856
 20
145.94699164496527
 30
0.0
  0
SPLINE
  5
80
100
AcDbEntity
  8
BODEN-4_8
 62
     7
100
AcDbSpline
210
0.0
220
0.0
230
1.0
 70
     8
 71
     3
 72
     8
 73
     4
 74
     0
 42
0.00000001
 43
0.00000001
 40
0.0
 40
0.0
 40
0.0
 40
0.0
 40
1.0
 40
1.0
 40
1.0
 40
1.0
 10
80.105532497829856
 20
145.02301703559027
 30
0.0
 10
79.919152832031244
 20
144.87763400607636
 30
0.0
 10
79.658186848958323
 20
144.87763400607636
 30
0.0
 10
79.471807183159711
 20
145.02301703559027
 30
0.0
  0
LINE
  5
7F
100
AcDbEntity
  8
BODEN-4_8
 62
     7
100
AcDbLine
 10
79.471807
 20
145.946992
 30
0.0
 11
79.471807
 21
145.023017
 31
0.0
  0
LINE
  5
7E
100
AcDbEntity
  8
BODEN-4_8
 62
     7
100
AcDbLine
 10
117.222819
 20
144.914152
 30
0.0
 11
115.321815
 21
144.914152
 31
0.0
  0
LINE
  5
7D
100
AcDbEntity
  8
BODEN-4_8
 62
     7
100
AcDbLine
 10
117.222819
 20
146.055857
 30
0.0
 11
115.321815
 21
146.055857
 31
0.0
  0
SPLINE
  5
7C
100
AcDbEntity
  8
BODEN-4_8
 62
     7
100
AcDbSpline
210
0.0
220
0.0
230
1.0
 70
     8
 71
     3
 72
     8
 73
     4
 74
     0
 42
0.00000001
 43
0.00000001
 40
0.0
 40
0.0
 40
0.0
 40
0.0
 40
1.0
 40
1.0
 40
1.0
 40
1.0
 10
115.63876410590277
 20
145.94699164496527
 30
0.0
 10
116.04873046874999
 20
146.09203016493055
 30
0.0
 10
116.49590386284721
 20
146.09203016493055
 30
0.0
 10
116.90587022569443
 20
145.94699164496527
 30
0.0
  0
SPLINE
  5
7B
100
AcDbEntity
  8
BODEN-4_8
 62
     7
100
AcDbSpline
210
0.0
220
0.0
230
1.0
 70
     8
 71
     3
 72
     8
 73
     4
 74
     0
 42
0.00000001
 43
0.00000001
 40
0.0
 40
0.0
 40
0.0
 40
0.0
 40
1.0
 40
1.0
 40
1.0
 40
1.0
 10
116.90587022569443
 20
145.02301703559027
 30
0.0
 10
116.49590386284721
 20
144.87763400607636
 30
0.0
 10
116.04873046874999
 20
144.87763400607636
 30
0.0
 10
115.63876410590277
 20
145.02301703559027
 30
0.0
  0
LINE
  5
7A
100
AcDbEntity
  8
BODEN-4_8
 62
     7
100
AcDbLine
 10
117.539768
 20
145.946992
 30
0.0
 11
117.539768
 21
145.023017
 31
0.0
  0
SPLINE
  5
79
100
AcDbEntity
  8
BODEN-4_8
 62
     7
100
AcDbSpline
210
0.0
220
0.0
230
1.0
 70
     8
 71
     3
 72
     8
 73
     4
 74
     0
 42
0.00000001
 43
0.00000001
 40
0.0
 40
0.0
 40
0.0
 40
0.0
 40
1.0
 40
1.0
 40
1.0
 40
1.0
 10
116.90587022569443
 20
145.94699164496527
 30
0.0
 10
117.09190538194443
 20
146.09203016493055
 30
0.0
 10
117.35304361979166
 20
146.09203016493055
 30
0.0
 10
117.53976779513887
 20
145.94699164496527
 30
0.0
  0
LINE
  5
78
100
AcDbEntity
  8
BODEN-4_8
 62
     7
100
AcDbLine
 10
116.90587
 20
145.946992
 30
0.0
 11
116.90587
 21
145.023017
 31
0.0
  0
SPLINE
  5
77
100
AcDbEntity
  8
BODEN-4_8
 62
     7
100
AcDbSpline
210
0.0
220
0.0
230
1.0
 70
     8
 71
     3
 72
     8
 73
     4
 74
     0
 42
0.00000001
 43
0.00000001
 40
0.0
 40
0.0
 40
0.0
 40
0.0
 40
1.0
 40
1.0
 40
1.0
 40
1.0
 10
117.53976779513887
 20
145.02301703559027
 30
0.0
 10
117.35304361979166
 20
144.87763400607636
 30
0.0
 10
117.09190538194443
 20
144.87763400607636
 30
0.0
 10
116.90587022569443
 20
145.02301703559027
 30
0.0
  0
LINE
  5
76
100
AcDbEntity
  8
BODEN-4_8
 62
     7
100
AcDbLine
 10
115.638764
 20
145.946992
 30
0.0
 11
115.638764
 21
145.023017
 31
0.0
  0
SPLINE
  5
75
100
AcDbEntity
  8
BODEN-4_8
 62
     7
100
AcDbSpline
210
0.0
220
0.0
230
1.0
 70
     8
 71
     3
 72
     8
 73
     4
 74
     0
 42
0.00000001
 43
0.00000001
 40
0.0
 40
0.0
 40
0.0
 40
0.0
 40
1.0
 40
1.0
 40
1.0
 40
1.0
 10
115.00486653645832
 20
145.94699164496527
 30
0.0
 10
115.19090169270832
 20
146.09203016493055
 30
0.0
 10
115.45203993055554
 20
146.09203016493055
 30
0.0
 10
115.63876410590277
 20
145.94699164496527
 30
0.0
  0
SPLINE
  5
74
100
AcDbEntity
  8
BODEN-4_8
 62
     7
100
AcDbSpline
210
0.0
220
0.0
230
1.0
 70
     8
 71
     3
 72
     8
 73
     4
 74
     0
 42
0.00000001
 43
0.00000001
 40
0.0
 40
0.0
 40
0.0
 40
0.0
 40
1.0
 40
1.0
 40
1.0
 40
1.0
 10
115.63876410590277
 20
145.02301703559027
 30
0.0
 10
115.45203993055554
 20
144.87763400607636
 30
0.0
 10
115.19090169270832
 20
144.87763400607636
 30
0.0
 10
115.00486653645832
 20
145.02301703559027
 30
0.0
  0
LINE
  5
73
100
AcDbEntity
  8
BODEN-4_8
 62
     7
100
AcDbLine
 10
115.004867
 20
145.946992
 30
0.0
 11
115.004867
 21
145.023017
 31
0.0
  0
LINE
  5
72
100
AcDbEntity
  8
BODEN-4_8
 62
     7
100
AcDbLine
 10
75.67135
 20
138.063924
 30
0.0
 11
75.67135
 21
133.497106
 31
0.0
  0
LINE
  5
71
100
AcDbEntity
  8
BODEN-4_8
 62
     7
100
AcDbLine
 10
120.882888
 20
142.630743
 30
0.0
 11
120.882888
 21
144.457332
 31
0.0
  0
LINE
  5
70
100
AcDbEntity
  8
BODEN-4_8
 62
     7
100
AcDbLine
 10
121.339708
 20
142.630743
 30
0.0
 11
121.339708
 21
133.497106
 31
0.0
  0
LINE
  5
6F
100
AcDbEntity
  8
BODEN-4_8
 62
     7
100
AcDbLine
 10
120.882888
 20
131.670171
 30
0.0
 11
120.882888
 21
133.497106
 31
0.0
  0
LINE
  5
6E
100
AcDbEntity
  8
BODEN-4_8
 62
     7
100
AcDbLine
 10
121.339708
 20
138.063924
 30
0.0
 11
121.339708
 21
133.497106
 31
0.0
  0
LINE
  5
6D
100
AcDbEntity
  8
BODEN-4_8
 62
     7
100
AcDbLine
 10
76.127998
 20
131.670171
 30
0.0
 11
120.882888
 21
131.670171
 31
0.0
  0
LINE
  5
6C
100
AcDbEntity
  8
BODEN-4_8
 62
     7
100
AcDbLine
 10
41.419866
 20
183.855444
 30
0.0
 11
85.946864
 21
183.855444
 31
0.0
  0
LINE
  5
6B
100
AcDbEntity
  8
BODEN-4_8
 62
     7
100
AcDbLine
 10
111.064366
 20
183.855444
 30
0.0
 11
155.591536
 21
183.855444
 31
0.0
  0
LINE
  5
6A
100
AcDbEntity
  8
BODEN-4_8
 62
     7
100
AcDbLine
 10
155.591536
 20
127.911228
 30
0.0
 11
111.064366
 21
127.911228
 31
0.0
  0
LINE
  5
69
100
AcDbEntity
  8
BODEN-4_8
 62
     7
100
AcDbLine
 10
85.946864
 20
127.911228
 30
0.0
 11
41.419866
 21
127.911228
 31
0.0
  0
LINE
  5
68
100
AcDbEntity
  8
BODEN-4_8
 62
     7
100
AcDbLine
 10
121.339708
 20
178.722424
 30
0.0
 11
121.339708
 21
127.911228
 31
0.0
  0
LINE
  5
67
100
AcDbEntity
  8
BODEN-4_8
 62
     7
100
AcDbLine
 10
85.946864
 20
131.670171
 30
0.0
 11
85.946864
 21
116.802517
 31
0.0
  0
LINE
  5
66
100
AcDbEntity
  8
BODEN-4_8
 62
     7
100
AcDbLine
 10
85.946864
 20
189.829068
 30
0.0
 11
85.946864
 21
144.457332
 31
0.0
  0
LINE
  5
65
100
AcDbEntity
  8
BODEN-4_8
 62
     7
100
AcDbLine
 10
111.064366
 20
189.829068
 30
0.0
 11
111.064366
 21
144.457332
 31
0.0
  0
LINE
  5
64
100
AcDbEntity
  8
BODEN-4_8
 62
     7
100
AcDbLine
 10
111.064366
 20
131.670171
 30
0.0
 11
111.064366
 21
116.802517
 31
0.0
  0
SPLINE
  5
63
100
AcDbEntity
  8
BODEN-4_8
 62
     7
100
AcDbSpline
210
0.0
220
0.0
230
1.0
 70
     8
 71
     3
 72
     8
 73
     4
 74
     0
 42
0.00000001
 43
0.00000001
 40
0.0
 40
0.0
 40
0.0
 40
0.0
 40
1.0
 40
1.0
 40
1.0
 40
1.0
 10
101.29338650173611
 20
189.90778808593748
 30
0.0
 10
96.956011284722209
 20
191.41208902994791
 30
0.0
 10
92.368522135416654
 20
192.06166178385416
 30
0.0
 10
87.784133572048603
 20
191.82050509982636
 30
0.0
  0
SPLINE
  5
62
100
AcDbEntity
  8
BODEN-4_8
 62
     7
100
AcDbSpline
210
0.0
220
0.0
230
1.0
 70
     8
 71
     3
 72
     8
 73
     4
 74
     0
 42
0.00000001
 43
0.00000001
 40
0.0
 40
0.0
 40
0.0
 40
0.0
 40
1.0
 40
1.0
 40
1.0
 40
1.0
 10
94.693272569444431
 20
188.31667073567706
 30
0.0
 10
96.915359157986103
 20
188.75161404079859
 30
0.0
 10
99.117119683159714
 20
189.28250325520833
 30
0.0
 10
101.29338650173611
 20
189.90778808593748
 30
0.0
  0
SPLINE
  5
61
100
AcDbEntity
  8
BODEN-4_8
 62
     7
100
AcDbSpline
210
0.0
220
0.0
230
1.0
 70
     8
 71
     3
 72
     8
 73
     4
 74
     0
 42
0.00000001
 43
0.00000001
 40
0.0
 40
0.0
 40
0.0
 40
0.0
 40
1.0
 40
1.0
 40
1.0
 40
1.0
 10
87.745893012152763
 20
187.84107530381942
 30
0.0
 10
90.219299316406236
 20
187.71274549696179
 30
0.0
 10
92.698734537760402
 20
187.90136447482638
 30
0.0
 10
95.124254014756943
 20
188.40228135850694
 30
0.0
  0
SPLINE
  5
60
100
AcDbEntity
  8
BODEN-4_8
 62
     7
100
AcDbSpline
210
0.0
220
0.0
230
1.0
 70
     8
 71
     3
 72
     8
 73
     4
 74
     0
 42
0.00000001
 43
0.00000001
 40
0.0
 40
0.0
 40
0.0
 40
0.0
 40
1.0
 40
1.0
 40
1.0
 40
1.0
 10
101.29338650173611
 20
189.90778808593748
 30
0.0
 10
96.90640190972222
 20
190.82280544704858
 30
0.0
 10
92.408312988281239
 20
191.08480495876734
 30
0.0
 10
87.944847276475684
 20
190.68534613715275
 30
0.0
  0
SPLINE
  5
5F
100
AcDbEntity
  8
BODEN-4_8
 62
     7
100
AcDbSpline
210
0.0
220
0.0
230
1.0
 70
     8
 71
     3
 72
     8
 73
     4
 74
     0
 42
0.00000001
 43
0.00000001
 40
0.0
 40
0.0
 40
0.0
 40
0.0
 40
1.0
 40
1.0
 40
1.0
 40
1.0
 10
87.944847276475684
 20
188.97278917100692
 30
0.0
 10
92.416064453124989
 20
188.66100802951388
 30
0.0
 10
96.909157986111097
 20
188.97571750217011
 30
0.0
 10
101.29338650173611
 20
189.90778808593748
 30
0.0
  0
SPLINE
  5
5E
100
AcDbEntity
  8
BODEN-4_8
 62
     7
100
AcDbSpline
210
0.0
220
0.0
230
1.0
 70
     8
 71
     3
 72
    11
 73
     7
 74
     0
 42
0.00000001
 43
0.00000001
 40
0.0
 40
0.0
 40
0.0
 40
0.0
 40
1.0
 40
1.0
 40
1.0
 40
2.0
 40
2.0
 40
2.0
 40
2.0
 10
87.944847276475684
 20
190.68534613715275
 30
0.0
 10
87.472007921006934
 20
190.68534613715275
 30
0.0
 10
87.088568793402771
 20
190.30207926432291
 30
0.0
 10
87.088568793402771
 20
189.82906765407984
 30
0.0
 10
87.088568793402771
 20
189.35622829861109
 30
0.0
 10
87.472007921006934
 20
188.97278917100692
 30
0.0
 10
87.944847276475684
 20
188.97278917100692
 30
0.0
  0
SPLINE
  5
5D
100
AcDbEntity
  8
BODEN-4_8
 62
     7
100
AcDbSpline
210
0.0
220
0.0
230
1.0
 70
     8
 71
     3
 72
    11
 73
     7
 74
     0
 42
0.00000001
 43
0.00000001
 40
0.0
 40
0.0
 40
0.0
 40
0.0
 40
1.0
 40
1.0
 40
1.0
 40
2.0
 40
2.0
 40
2.0
 40
2.0
 10
87.90264485677082
 20
191.82670627170137
 30
0.0
 10
86.799353027343741
 20
191.80327962239582
 30
0.0
 10
85.923954264322916
 20
190.89015706380206
 30
0.0
 10
85.947208658854166
 20
189.78686523437497
 30
0.0
 10
85.970290798611103
 20
188.69769829644096
 30
0.0
 10
86.861537000868054
 20
187.82781168619789
 30
0.0
 10
87.95104844835069
 20
187.83108452690971
 30
0.0
  0
SPLINE
  5
5C
100
AcDbEntity
  8
BODEN-4_8
 62
     7
100
AcDbSpline
210
0.0
220
0.0
230
1.0
 70
     8
 71
     3
 72
     8
 73
     4
 74
     0
 42
0.00000001
 43
0.00000001
 40
0.0
 40
0.0
 40
0.0
 40
0.0
 40
1.0
 40
1.0
 40
1.0
 40
1.0
 10
101.29338650173611
 20
189.90778808593748
 30
0.0
 10
103.69565158420139
 20
190.44195014105901
 30
0.0
 10
106.08138020833333
 20
191.0491482204861
 30
0.0
 10
108.44678276909721
 20
191.72869330512151
 30
0.0
  0
LINE
  5
5B
100
AcDbEntity
  8
BODEN-4_8
 62
     7
100
AcDbLine
 10
75.67135
 20
133.497106
 30
0.0
 11
121.339708
 21
133.497106
 31
0.0
  0
SPLINE
  5
5A
100
AcDbEntity
  8
BODEN-4_8
 62
     7
100
AcDbSpline
210
0.0
220
0.0
230
1.0
 70
     8
 71
     3
 72
     8
 73
     4
 74
     0
 42
0.00000001
 43
0.00000001
 40
0.0
 40
0.0
 40
0.0
 40
0.0
 40
1.0
 40
1.0
 40
1.0
 40
1.0
 10
95.71801622178819
 20
116.72396918402777
 30
0.0
 10
100.05521918402776
 20
115.21949598524304
 30
0.0
 10
104.64270833333332
 20
114.5700954861111
 30
0.0
 10
109.22744140624999
 20
114.81090766059027
 30
0.0
  0
SPLINE
  5
59
100
AcDbEntity
  8
BODEN-4_8
 62
     7
100
AcDbSpline
210
0.0
220
0.0
230
1.0
 70
     8
 71
     3
 72
     8
 73
     4
 74
     0
 42
0.00000001
 43
0.00000001
 40
0.0
 40
0.0
 40
0.0
 40
0.0
 40
1.0
 40
1.0
 40
1.0
 40
1.0
 10
95.71801622178819
 20
116.72396918402777
 30
0.0
 10
93.3155788845486
 20
116.18963487413194
 30
0.0
 10
90.93002251519097
 20
115.58260904947916
 30
0.0
 10
88.564447699652774
 20
114.90323621961805
 30
0.0
  0
SPLINE
  5
58
100
AcDbEntity
  8
BODEN-4_8
 62
     7
100
AcDbSpline
210
0.0
220
0.0
230
1.0
 70
     8
 71
     3
 72
     8
 73
     4
 74
     0
 42
0.00000001
 43
0.00000001
 40
0.0
 40
0.0
 40
0.0
 40
0.0
 40
1.0
 40
1.0
 40
1.0
 40
1.0
 10
110.70056423611111
 20
190.97869601779513
 30
0.0
 10
110.07837999131944
 20
191.58279351128471
 30
0.0
 10
109.20401475694443
 20
191.85133870442706
 30
0.0
 10
108.3503200954861
 20
191.70096028645833
 30
0.0
  0
LINE
  5
57
100
AcDbEntity
  8
BODEN-4_8
 62
     7
100
AcDbLine
 10
120.882888
 20
131.670171
 30
0.0
 11
76.127998
 21
131.670171
 31
0.0
  0
SPLINE
  5
56
100
AcDbEntity
  8
BODEN-4_8
 62
     7
100
AcDbSpline
210
0.0
220
0.0
230
1.0
 70
     8
 71
     3
 72
     8
 73
     4
 74
     0
 42
0.00000001
 43
0.00000001
 40
0.0
 40
0.0
 40
0.0
 40
0.0
 40
1.0
 40
1.0
 40
1.0
 40
1.0
 10
111.06436631944443
 20
189.82906765407984
 30
0.0
 10
111.06436631944443
 20
190.24058430989581
 30
0.0
 10
110.93758680555554
 20
190.64211018880206
 30
0.0
 10
110.70056423611111
 20
190.97869601779513
 30
0.0
  0
SPLINE
  5
55
100
AcDbEntity
  8
BODEN-4_8
 62
     7
100
AcDbSpline
210
0.0
220
0.0
230
1.0
 70
     8
 71
     3
 72
     8
 73
     4
 74
     0
 42
0.00000001
 43
0.00000001
 40
0.0
 40
0.0
 40
0.0
 40
0.0
 40
1.0
 40
1.0
 40
1.0
 40
1.0
 10
85.946864149305554
 20
116.8025173611111
 30
0.0
 10
85.946864149305554
 20
116.39082845052083
 30
0.0
 10
86.073988172743043
 20
115.98981933593748
 30
0.0
 10
86.31066623263888
 20
115.65288899739582
 30
0.0
  0
SPLINE
  5
54
100
AcDbEntity
  8
BODEN-4_8
 62
     7
100
AcDbSpline
210
0.0
220
0.0
230
1.0
 70
     8
 71
     3
 72
     8
 73
     4
 74
     0
 42
0.00000001
 43
0.00000001
 40
0.0
 40
0.0
 40
0.0
 40
0.0
 40
1.0
 40
1.0
 40
1.0
 40
1.0
 10
86.31066623263888
 20
115.65288899739582
 30
0.0
 10
86.932850477430549
 20
115.04896375868054
 30
0.0
 10
87.807215711805554
 20
114.78024631076387
 30
0.0
 10
88.661254882812486
 20
114.93079698350694
 30
0.0
  0
SPLINE
  5
53
100
AcDbEntity
  8
BODEN-4_8
 62
     7
100
AcDbSpline
210
0.0
220
0.0
230
1.0
 70
     8
 71
     3
 72
     8
 73
     4
 74
     0
 42
0.00000001
 43
0.00000001
 40
0.0
 40
0.0
 40
0.0
 40
0.0
 40
1.0
 40
1.0
 40
1.0
 40
1.0
 10
109.06621093749999
 20
117.65862358940971
 30
0.0
 10
104.595166015625
 20
117.97074924045138
 30
0.0
 10
100.10241699218749
 20
117.65586751302082
 30
0.0
 10
95.71801622178819
 20
116.72396918402777
 30
0.0
  0
SPLINE
  5
52
100
AcDbEntity
  8
BODEN-4_8
 62
     7
100
AcDbSpline
210
0.0
220
0.0
230
1.0
 70
     8
 71
     3
 72
     8
 73
     4
 74
     0
 42
0.00000001
 43
0.00000001
 40
0.0
 40
0.0
 40
0.0
 40
0.0
 40
1.0
 40
1.0
 40
1.0
 40
1.0
 10
109.26533745659721
 20
118.79068196614583
 30
0.0
 10
106.79175889756944
 20
118.91883951822916
 30
0.0
 10
104.31301269531249
 20
118.73039279513888
 30
0.0
 10
101.88732096354165
 20
118.22947591145832
 30
0.0
  0
SPLINE
  5
51
100
AcDbEntity
  8
BODEN-4_8
 62
     7
100
AcDbSpline
210
0.0
220
0.0
230
1.0
 70
     8
 71
     3
 72
     8
 73
     4
 74
     0
 42
0.00000001
 43
0.00000001
 40
0.0
 40
0.0
 40
0.0
 40
0.0
 40
1.0
 40
1.0
 40
1.0
 40
1.0
 10
95.71801622178819
 20
116.72396918402777
 30
0.0
 10
100.10517306857638
 20
115.80895182291665
 30
0.0
 10
104.60274522569443
 20
115.5467800564236
 30
0.0
 10
109.06621093749999
 20
115.94641113281249
 30
0.0
  0
SPLINE
  5
50
100
AcDbEntity
  8
BODEN-4_8
 62
     7
100
AcDbSpline
210
0.0
220
0.0
230
1.0
 70
     8
 71
     3
 72
     8
 73
     4
 74
     0
 42
0.00000001
 43
0.00000001
 40
0.0
 40
0.0
 40
0.0
 40
0.0
 40
1.0
 40
1.0
 40
1.0
 40
1.0
 10
102.31830240885415
 20
118.31491427951387
 30
0.0
 10
100.09621582031249
 20
117.87979871961805
 30
0.0
 10
97.894110785590271
 20
117.34925401475694
 30
0.0
 10
95.71801622178819
 20
116.72396918402777
 30
0.0
  0
SPLINE
  5
4F
100
AcDbEntity
  8
BODEN-4_8
 62
     7
100
AcDbSpline
210
0.0
220
0.0
230
1.0
 70
     8
 71
     3
 72
    11
 73
     7
 74
     0
 42
0.00000001
 43
0.00000001
 40
0.0
 40
0.0
 40
0.0
 40
0.0
 40
1.0
 40
1.0
 40
1.0
 40
2.0
 40
2.0
 40
2.0
 40
2.0
 10
109.06621093749999
 20
115.94641113281249
 30
0.0
 10
109.53956705729166
 20
115.94641113281249
 30
0.0
 10
109.92266167534721
 20
116.32950575086805
 30
0.0
 10
109.92266167534721
 20
116.8025173611111
 30
0.0
 10
109.92266167534721
 20
117.27552897135416
 30
0.0
 10
109.53956705729166
 20
117.65862358940971
 30
0.0
 10
109.06621093749999
 20
117.65862358940971
 30
0.0
  0
SPLINE
  5
4E
100
AcDbEntity
  8
BODEN-4_8
 62
     7
100
AcDbSpline
210
0.0
220
0.0
230
1.0
 70
     8
 71
     3
 72
    11
 73
     7
 74
     0
 42
0.00000001
 43
0.00000001
 40
0.0
 40
0.0
 40
0.0
 40
0.0
 40
1.0
 40
1.0
 40
1.0
 40
2.0
 40
2.0
 40
2.0
 40
2.0
 10
109.10893012152776
 20
114.80505099826388
 30
0.0
 10
110.21204969618054
 20
114.82813313802082
 30
0.0
 10
111.08710394965277
 20
115.74177246093748
 30
0.0
 10
111.06367730034721
 20
116.84489203559026
 30
0.0
 10
111.04093967013888
 20
117.9342312282986
 30
0.0
 10
110.14934895833332
 20
118.80377332899305
 30
0.0
 10
109.060009765625
 20
118.80032823350693
 30
0.0
  0
LINE
  5
4D
100
AcDbEntity
  8
BODEN-4_8
 62
     7
100
AcDbLine
 10
75.67135
 20
138.063924
 30
0.0
 11
75.67135
 21
133.497106
 31
0.0
  0
LINE
  5
4C
100
AcDbEntity
  8
BODEN-4_8
 62
     7
100
AcDbLine
 10
121.339708
 20
133.497106
 30
0.0
 11
121.339708
 21
138.063924
 31
0.0
  0
LINE
  5
4B
100
AcDbEntity
  8
BODEN-4_8
 62
     7
100
AcDbLine
 10
76.127998
 20
133.497106
 30
0.0
 11
120.882888
 21
133.497106
 31
0.0
  0
LINE
  5
4A
100
AcDbEntity
  8
BODEN-4_8
 62
     7
100
AcDbLine
 10
120.882888
 20
133.497106
 30
0.0
 11
120.882888
 21
131.670171
 31
0.0
  0
LINE
  5
49
100
AcDbEntity
  8
BODEN-4_8
 62
     7
100
AcDbLine
 10
121.339708
 20
183.855444
 30
0.0
 11
121.339708
 21
127.911228
 31
0.0
  0
LINE
  5
48
100
AcDbEntity
  8
BODEN-4_8
 62
     7
100
AcDbLine
 10
121.339708
 20
138.063924
 30
0.0
 11
121.339708
 21
133.497106
 31
0.0
  0
LINE
  5
47
100
AcDbEntity
  8
BODEN-4_8
 62
     7
100
AcDbLine
 10
120.882888
 20
131.670171
 30
0.0
 11
120.882888
 21
133.497106
 31
0.0
  0
LINE
  5
46
100
AcDbEntity
  8
BODEN-4_8
 62
     7
100
AcDbLine
 10
75.67135
 20
178.722424
 30
0.0
 11
75.67135
 21
127.911228
 31
0.0
  0
LINE
  5
45
100
AcDbEntity
  8
BODEN-4_8
 62
     7
100
AcDbLine
 10
75.67135
 20
133.497106
 30
0.0
 11
75.67135
 21
138.063924
 31
0.0
  0
LINE
  5
44
100
AcDbEntity
  8
BODEN-4_8
 62
     7
100
AcDbLine
 10
75.67135
 20
183.855444
 30
0.0
 11
75.67135
 21
127.911228
 31
0.0
  0
LINE
  5
43
100
AcDbEntity
  8
BODEN-4_8
 62
     7
100
AcDbLine
 10
75.67135
 20
138.063924
 30
0.0
 11
75.67135
 21
133.497106
 31
0.0
  0
INSERT
  5
3F
100
AcDbEntity
  8
BODEN-4_8
 62
     7
100
AcDbBlockReference
  2
AI9-BLK2
 10
64.606306
 20
87.357458
 30
0.0
  0
INSERT
  5
38
100
AcDbEntity
  8
BODEN-4_8
 62
     7
100
AcDbBlockReference
  2
AI9-BLK1
 10
135.542287
 20
81.690793
 30
0.0
  0
POLYLINE
  5
30
100
AcDbEntity
  8
RAHMEN
 62
     7
100
AcDb2dPolyline
 66
     1
 10
0.0
 20
0.0
 30
0.0
 70
     1
  0
VERTEX
  5
31
100
AcDbEntity
  8
RAHMEN
 62
     7
100
AcDbVertex
100
AcDb2dVertex
 10
15.701195
 20
212.151736
 30
0.0
  0
VERTEX
  5
32
100
AcDbEntity
  8
RAHMEN
 62
     7
100
AcDbVertex
100
AcDb2dVertex
 10
15.701195
 20
67.892152
 30
0.0
  0
VERTEX
  5
33
100
AcDbEntity
  8
RAHMEN
 62
     7
100
AcDbVertex
100
AcDb2dVertex
 10
177.369019
 20
67.892152
 30
0.0
  0
VERTEX
  5
34
100
AcDbEntity
  8
RAHMEN
 62
     7
100
AcDbVertex
100
AcDb2dVertex
 10
177.369019
 20
212.151736
 30
0.0
  0
SEQEND
  5
35
100
AcDbEntity
  8
RAHMEN
 62
     7
  0
POLYLINE
  5
2A
100
AcDbEntity
  8
RAHMEN
 62
     7
100
AcDb2dPolyline
 66
     1
 10
0.0
 20
0.0
 30
0.0
 70
     1
  0
VERTEX
  5
2B
100
AcDbEntity
  8
RAHMEN
 62
     7
100
AcDbVertex
100
AcDb2dVertex
 10
158.208431
 20
84.497512
 30
0.0
  0
VERTEX
  5
2C
100
AcDbEntity
  8
RAHMEN
 62
     7
100
AcDbVertex
100
AcDb2dVertex
 10
177.258431
 20
84.497512
 30
0.0
  0
VERTEX
  5
2D
100
AcDbEntity
  8
RAHMEN
 62
     7
100
AcDbVertex
100
AcDb2dVertex
 10
177.258431
 20
67.739879
 30
0.0
  0
VERTEX
  5
2E
100
AcDbEntity
  8
RAHMEN
 62
     7
100
AcDbVertex
100
AcDb2dVertex
 10
158.208431
 20
67.739879
 30
0.0
  0
SEQEND
  5
2F
100
AcDbEntity
  8
RAHMEN
 62
     7
  0
MTEXT
  5
29
100
AcDbEntity
  8
RAHMEN
 62
     7
100
AcDbMText
 10
159.82487
 20
81.5711
 30
0.0
 40
9.449404
 41
0.0
 71
     1
 72
     2
  1
\fMyriad Roman|b0|i0;\H9.4494;\C7;\U+0035\U+002E\U+0038
  7
STD
210
0.0
220
0.0
230
1.0
 73
     1
 44
1.0
  0
ENDSEC
  0
SECTION
  2
OBJECTS
  0
DICTIONARY
  5
19
100
AcDbDictionary
280
     0
281
     1
  3
ACAD_GROUP
350
1A
  3
ACAD_MLINESTYLE
350
1B
  3
ACAD_LAYOUT
350
1E
  3
ACAD_PLOTSETTINGS
350
22
  3
ACAD_PLOTSTYLENAME
350
1F
  3
ACAD_WIPEOUT_VARS
350
23
  0
DICTIONARY
  5
1A
102
{ACAD_REACTORS
330
19
102
}
100
AcDbDictionary
280
     0
281
     1
  0
DICTIONARY
  5
1B
102
{ACAD_REACTORS
330
19
102
}
100
AcDbDictionary
280
     0
281
     1
  3
Standard
350
1C
  0
MLINESTYLE
  5
1C
102
{ACAD_REACTORS
330
1B
102
}
100
AcDbMlineStyle
  2
Standard
 70
     0
  3

 62
     0
 51
90.0
 52
90.0
 71
     2
 49
0.5
 62
   256
  6
ByLayer
 49
-0.5
 62
   256
  6
ByLayer
  0
ACDBDICTIONARYWDFLT
  5
1F
102
{ACAD_REACTORS
330
19
102
}
100
AcDbDictionary
281
     1
  3
Normal
350
1D
100
AcDbDictionaryWithDefault
340
1D
  0
ACDBPLACEHOLDER
  5
1D
102
{ACAD_REACTORS
330
1F
102
}
  0
LAYOUT
  5
20
102
{ACAD_REACTORS
330
1E
102
}
100
AcDbPlotSettings
  1

  2

  4

  6

 40
0.0
 41
0.0
 42
0.0
 43
0.0
 44
0.0
 45
0.0
 46
0.0
 47
0.0
 48
0.0
 49
0.0
140
0.0
141
0.0
142
1.0
143
1.0
 70
  1024
 72
     0
 73
     0
 74
     0
  7

 75
     0
147
1.0
148
0.0
149
0.0
100
AcDbLayout
  1
Model
 70
     0
 71
     0
 10
0.0
 20
0.0
 11
0.0
 21
0.0
 12
0.0
 22
0.0
 32
0.0
 14
0.0
 24
0.0
 34
0.0
 15
0.0
 25
0.0
 35
0.0
146
0.0
 13
0.0
 23
0.0
 33
0.0
 16
0.0
 26
0.0
 36
0.0
 17
0.0
 27
0.0
 37
0.0
 76
     0
330
A
331
0
345
0
346
0
  0
LAYOUT
  5
21
102
{ACAD_REACTORS
330
1E
102
}
100
AcDbPlotSettings
  1

  2

  4

  6

 40
0.0
 41
0.0
 42
0.0
 43
0.0
 44
0.0
 45
0.0
 46
0.0
 47
0.0
 48
0.0
 49
0.0
140
0.0
141
0.0
142
1.0
143
1.0
 70
     0
 72
     0
 73
     0
 74
     0
  7

 75
     0
147
1.0
148
0.0
149
0.0
100
AcDbLayout
  1
Layout1
 70
     0
 71
     0
 10
0.0
 20
0.0
 11
0.0
 21
0.0
 12
0.0
 22
0.0
 32
0.0
 14
0.0
 24
0.0
 34
0.0
 15
0.0
 25
0.0
 35
0.0
146
0.0
 13
0.0
 23
0.0
 33
0.0
 16
0.0
 26
0.0
 36
0.0
 17
0.0
 27
0.0
 37
0.0
 76
     0
330
B
331
0
345
0
346
0
  0
DICTIONARY
  5
1E
102
{ACAD_REACTORS
330
19
102
}
100
AcDbDictionary
280
     0
281
     1
  3
Layout1
350
21
  3
Model
350
20
  0
DICTIONARY
  5
22
102
{ACAD_REACTORS
330
19
102
}
100
AcDbDictionary
280
     0
281
     1
  0
WIPEOUTVARIABLES
  5
23
100
AcDbWipeoutVariables
 70
     1
  0
ENDSEC
  0
EOF
