  0
SECTION
  2
HEADER
  9
$ACADVER
  1
AC1015
  9
$ACADMAINTVER
 70
     6
  9
$DWGCODEPAGE
  3
ANSI_932
  9
$INSBASE
 10
0.0
 20
0.0
 30
0.0
  9
$EXTMIN
 10
72.851195
 20
36.142497
 30
1.000000E+20
  9
$EXTMAX
 10
235.224574
 20
181.107808
 30
-1.000000E+20
  9
$LIMMIN
 10
72.851195
 20
36.142497
  9
$LIMMAX
 10
235.224574
 20
181.107808
  9
$ORTHOMODE
 70
     0
  9
$REGENMODE
 70
     1
  9
$FILLMODE
 70
     1
  9
$QTEXTMODE
 70
     0
  9
$MIRRTEXT
 70
     1
  9
$LTSCALE
 40
1.0
  9
$ATTMODE
 70
     1
  9
$TEXTSIZE
 40
0.2
  9
$TRACEWID
 40
0.05
  9
$TEXTSTYLE
  7
Standard
  9
$CLAYER
  8
0
  9
$CELTYPE
  6
Continuous
  9
$CECOLOR
 62
   256
  9
$CELTSCALE
 40
1.0
  9
$DISPSILH
 70
     0
  9
$DIMSCALE
 40
1.0
  9
$DIMASZ
 40
0.18
  9
$DIMEXO
 40
0.0625
  9
$DIMDLI
 40
0.38
  9
$DIMRND
 40
0.0
  9
$DIMDLE
 40
0.0
  9
$DIMEXE
 40
0.18
  9
$DIMTP
 40
0.0
  9
$DIMTM
 40
0.0
  9
$DIMTXT
 40
0.18
  9
$DIMCEN
 40
0.09
  9
$DIMTSZ
 40
0.0
  9
$DIMTOL
 70
     0
  9
$DIMLIM
 70
     0
  9
$DIMTIH
 70
     1
  9
$DIMTOH
 70
     1
  9
$DIMSE1
 70
     0
  9
$DIMSE2
 70
     0
  9
$DIMTAD
 70
     0
  9
$DIMZIN
 70
     0
  9
$DIMBLK
  1

  9
$DIMASO
 70
     1
  9
$DIMSHO
 70
     1
  9
$DIMPOST
  1

  9
$DIMAPOST
  1

  9
$DIMALT
 70
     0
  9
$DIMALTD
 70
     2
  9
$DIMALTF
 40
25.4
  9
$DIMLFAC
 40
1.0
  9
$DIMTOFL
 70
     0
  9
$DIMTVP
 40
0.0
  9
$DIMTIX
 70
     0
  9
$DIMSOXD
 70
     0
  9
$DIMSAH
 70
     0
  9
$DIMBLK1
  1

  9
$DIMBLK2
  1

  9
$DIMSTYLE
  2
Standard
  9
$DIMCLRD
 70
     0
  9
$DIMCLRE
 70
     0
  9
$DIMCLRT
 70
     0
  9
$DIMTFAC
 40
1.0
  9
$DIMGAP
 40
0.09
  9
$DIMJUST
 70
     0
  9
$DIMSD1
 70
     0
  9
$DIMSD2
 70
     0
  9
$DIMTOLJ
 70
     1
  9
$DIMTZIN
 70
     0
  9
$DIMALTZ
 70
     0
  9
$DIMALTTZ
 70
     0
  9
$DIMUPT
 70
     0
  9
$DIMDEC
 70
     4
  9
$DIMTDEC
 70
     4
  9
$DIMALTU
 70
     2
  9
$DIMALTTD
 70
     2
  9
$DIMTXSTY
  7
Standard
  9
$DIMAUNIT
 70
     0
  9
$DIMADEC
 70
     0
  9
$DIMALTRND
 40
0.0
  9
$DIMAZIN
 70
     0
  9
$DIMDSEP
 70
     0
  9
$DIMATFIT
 70
     3
  9
$DIMFRAC
 70
     0
  9
$DIMLDRBLK
  1

  9
$DIMLUNIT
 70
     2
  9
$DIMLWD
 70
     0
  9
$DIMLWE
 70
     0
  9
$DIMTMOVE
 70
     0
  9
$LUNITS
 70
     2
  9
$LUPREC
 70
     4
  9
$SKETCHINC
 40
0.1
  9
$FILLETRAD
 40
0.0
  9
$AUNITS
 70
     0
  9
$AUPREC
 70
     0
  9
$MENU
  1
acad
  9
$ELEVATION
 40
0.0
  9
$PELEVATION
 40
0.0
  9
$THICKNESS
 40
0.0
  9
$LIMCHECK
 70
     0
  9
$CHAMFERA
 40
0.0
  9
$CHAMFERB
 40
0.0
  9
$CHAMFERC
 40
0.0
  9
$CHAMFERD
 40
0.0
  9
$SKPOLY
 70
     0
  9
$TDCREATE
 40
0.000000000
  9
$TDUCREATE
 40
0.000000000
  9
$TDUPDATE
 40
0.000000000
  9
$TDUUPDATE
 40
0.000000000
  9
$TDINDWG
 40
0.0000000000
  9
$TDUSRTIMER
 40
0.0000000000
  9
$USRTIMER
 70
     1
  9
$ANGBASE
 50
0.0
  9
$ANGDIR
 70
     0
  9
$PDMODE
 70
     0
  9
$PDSIZE
 40
0.0
  9
$PLINEWID
 40
0.0
  9
$SPLFRAME
 70
     0
  9
$SPLINETYPE
 70
     6
  9
$SPLINESEGS
 70
     8
  9
$HANDSEED
  5
141
  9
$SURFTAB1
 70
     6
  9
$SURFTAB2
 70
     6
  9
$SURFTYPE
 70
     6
  9
$SURFU
 70
     6
  9
$SURFV
 70
     6
  9
$UCSBASE
  2

  9
$UCSNAME
  2

  9
$UCSORG
 10
0.0
 20
0.0
 30
0.0
  9
$UCSXDIR
 10
1.0
 20
0.0
 30
0.0
  9
$UCSYDIR
 10
0.0
 20
1.0
 30
0.0
  9
$UCSORTHOREF
  2

  9
$UCSORTHOVIEW
 70
     0
  9
$UCSORGTOP
 10
0.0
 20
0.0
 30
0.0
  9
$UCSORGBOTTOM
 10
0.0
 20
0.0
 30
0.0
  9
$UCSORGLEFT
 10
0.0
 20
0.0
 30
0.0
  9
$UCSORGRIGHT
 10
0.0
 20
0.0
 30
0.0
  9
$UCSORGFRONT
 10
0.0
 20
0.0
 30
0.0
  9
$UCSORGBACK
 10
0.0
 20
0.0
 30
0.0
  9
$PUCSBASE
  2

  9
$PUCSNAME
  2

  9
$PUCSORG
 10
0.0
 20
0.0
 30
0.0
  9
$PUCSXDIR
 10
1.0
 20
0.0
 30
0.0
  9
$PUCSYDIR
 10
0.0
 20
1.0
 30
0.0
  9
$PUCSORTHOREF
  2

  9
$PUCSORTHOVIEW
 70
     0
  9
$PUCSORGTOP
 10
0.0
 20
0.0
 30
0.0
  9
$PUCSORGBOTTOM
 10
0.0
 20
0.0
 30
0.0
  9
$PUCSORGLEFT
 10
0.0
 20
0.0
 30
0.0
  9
$PUCSORGRIGHT
 10
0.0
 20
0.0
 30
0.0
  9
$PUCSORGFRONT
 10
0.0
 20
0.0
 30
0.0
  9
$PUCSORGBACK
 10
0.0
 20
0.0
 30
0.0
  9
$USERI1
 70
     0
  9
$USERI2
 70
     0
  9
$USERI3
 70
     0
  9
$USERI4
 70
     0
  9
$USERI5
 70
     0
  9
$USERR1
 40
0.0
  9
$USERR2
 40
0.0
  9
$USERR3
 40
0.0
  9
$USERR4
 40
0.0
  9
$USERR5
 40
0.0
  9
$WORLDVIEW
 70
     1
  9
$SHADEDGE
 70
     3
  9
$SHADEDIF
 70
    70
  9
$TILEMODE
 70
     1
  9
$MAXACTVP
 70
    16
  9
$PINSBASE
 10
0.0
 20
0.0
 30
0.0
  9
$PLIMCHECK
 70
     0
  9
$PEXTMIN
 10
1.000000E+20
 20
1.000000E+20
 30
1.000000E+20
  9
$PEXTMAX
 10
-1.000000E+20
 20
-1.000000E+20
 30
-1.000000E+20
  9
$PLIMMIN
 10
0.0
 20
0.0
  9
$PLIMMAX
 10
12.0
 20
9.0
  9
$UNITMODE
 70
     0
  9
$VISRETAIN
 70
     0
  9
$PLINEGEN
 70
     1
  9
$PSLTSCALE
 70
     0
  9
$TREEDEPTH
 70
  3020
  9
$CMLSTYLE
  2
Standard
  9
$CMLJUST
 70
     0
  9
$CMLSCALE
 40
1.0
  9
$PROXYGRAPHICS
 70
     0
  9
$MEASUREMENT
 70
     1
  9
$CELWEIGHT
370
     0
  9
$ENDCAPS
280
     0
  9
$JOINSTYLE
280
     0
  9
$LWDISPLAY
290
     0
  9
$INSUNITS
 70
     0
  9
$HYPERLINKBASE
  1

  9
$STYLESHEET
  1

  9
$XEDIT
290
     1
  9
$CEPSNTYPE
380
     0
  9
$PSTYLEMODE
290
     1
  9
$FINGERPRINTGUID
  2

  9
$VERSIONGUID
  2

  9
$EXTNAMES
290
     1
  9
$PSVPSCALE
 40
0.0
  0
ENDSEC
  0
SECTION
  2
CLASSES
  0
CLASS
  1
LWPOLYLINE
  2
AcDbPolyline
  3
AutoCAD 2000
 90
    32768
280
     0
281
     1
  0
CLASS
  1
IMAGE
  2
AcDbRasterImage
  3
ISM
 90
    32895
280
     0
281
     1
  0
CLASS
  1
OLE2FRAME
  2
AcDbOle2Frame
  3
AutoCAD 2000
 90
    32768
280
     0
281
     1
  0
CLASS
  1
HATCH
  2
AcDbHatch
  3
AutoCAD 2000
 90
        0
280
     0
281
     1
  0
CLASS
  1
DICTIONARYVAR
  2
AcDbDictionaryVar
  3
AutoCAD 2000
 90
    32768
280
     0
281
     0
  0
CLASS
  1
RASTERVARIABLES
  2
AcDbRasterVariables
  3
ISM
 90
    32768
280
     0
281
     0
  0
CLASS
  1
IMAGEDEF
  2
AcDbRasterImageDef
  3
ISM
 90
    32768
280
     0
281
     0
  0
CLASS
  1
IMAGEDEF_REACTOR
  2
AcDbRasterImageDefReactor
  3
ISM
 90
    32769
280
     0
281
     0
  0
CLASS
  1
IDBUFFER
  2
AcDbIdBuffer
  3
AutoCAD 2000
 90
    32768
280
     0
281
     0
  0
CLASS
  1
SPATIAL_FILTER
  2
AcDbSpatialFilter
  3
AutoCAD 2000
 90
    32768
280
     0
281
     0
  0
CLASS
  1
XRECORD
  2
AcDbXrecord
  3
AutoCAD 2000
 90
    32768
280
     0
281
     0
  0
CLASS
  1
SORTENTSTABLE
  2
AcDbSortentsTable
  3
AutoCAD 2000
 90
    32768
280
     0
281
     0
  0
CLASS
  1
LAYER_INDEX
  2
AcDbLayerIndex
  3
AutoCAD 2000
 90
    32768
280
     0
281
     0
  0
CLASS
  1
SPATIAL_INDEX
  2
AcDbSpatialIndex
  3
AutoCAD 2000
 90
    32768
280
     0
281
     0
  0
CLASS
  1
OBJECT_PTR
  2
CAseDLPNTableRecord
  3
"ASE-LPNTableRecord"
 90
    32769
280
     0
281
     0
  0
CLASS
  1
LAYOUT
  2
AcDbLayout
  3
AutoCAD 2000
 90
        0
280
     0
281
     0
  0
CLASS
  1
PLOTSETTINGS
  2
AcDbPlotSettings
  3
AutoCAD 2000
 90
    32768
280
     0
281
     0
  0
CLASS
  1
ACDBDICTIONARYWDFLT
  2
AcDbDictionaryWithDefault
  3
AutoCAD 2000
 90
        0
280
     0
281
     0
  0
CLASS
  1
ACDBPLACEHOLDER
  2
AcDbPlaceHolder
  3
AutoCAD 2000
 90
        0
280
     0
281
     0
  0
CLASS
  1
VBA_PROJECT
  2
AcDbVbaProject
  3
acadvba
 90
    32768
280
     0
281
     0
  0
CLASS
  1
WIPEOUT
  2
AcDbWipeout
  3
WipeOut|AutoCAD Express Tool|expresstools@autodesk.com
 90
    32895
280
     0
281
     1
  0
CLASS
  1
WIPEOUTVARIABLES
  2
AcDbWipeoutVariables
  3
WipeOut|AutoCAD Express Tool|expresstools@autodesk.com
 90
        0
280
     0
281
     0
  0
CLASS
  1
RTEXT
  2
RText
  3
RText|AutoCAD Express Tool|expresstools@autodesk.com
 90
    32768
280
     0
281
     1
  0
CLASS
  1
ARCALIGNEDTEXT
  2
AcDbArcAlignedText
  3
ATEXT|AutoCAD Express Tool|expresstools@autodesk.com
 90
    32768
280
     0
281
     1
  0
ENDSEC
  0
SECTION
  2
TABLES
  0
TABLE
  2
VPORT
  5
7
100
AcDbSymbolTable
 70
     1
  0
VPORT
  5
15
100
AcDbSymbolTableRecord
100
AcDbViewportTableRecord
  2
*ACTIVE
 70
     0
 10
0.0
 20
0.0
 11
1.0
 21
1.0
 12
6.591288
 22
4.579184
 13
0.0
 23
0.0
 14
1.0
 24
1.0
 15
0.0
 25
0.0
 16
0.0
 26
0.0
 36
1.0
 17
0.0
 27
0.0
 37
0.0
 40
9.158369
 41
0.688564
 42
50.0
 43
0.0
 44
0.0
 50
0.0
 51
0.0
 71
     0
 72
   100
 73
     1
 74
     1
 75
     0
 76
     0
 77
     0
 78
     0
281
     0
 65
     0
110
0.0
120
0.0
130
0.0
111
1.0
121
0.0
131
0.0
112
0.0
122
1.0
132
0.0
345
0
346
0
 79
     0
146
0.0
  0
ENDTAB
  0
TABLE
  2
LTYPE
  5
4
100
AcDbSymbolTable
 70
     6
  0
LTYPE
  5
11
100
AcDbSymbolTableRecord
100
AcDbLinetypeTableRecord
  2
ByBlock
 70
    64
  3

 72
    65
 73
     0
 40
0.0
  0
LTYPE
  5
12
100
AcDbSymbolTableRecord
100
AcDbLinetypeTableRecord
  2
ByLayer
 70
    64
  3

 72
    65
 73
     0
 40
0.0
  0
LTYPE
  5
13
100
AcDbSymbolTableRecord
100
AcDbLinetypeTableRecord
  2
Continuous
 70
    64
  3
Solid line
 72
    65
 73
     0
 40
0.0
  0
LTYPE
  5
3C
100
AcDbSymbolTableRecord
100
AcDbLinetypeTableRecord
  2
AI9-LType1
 70
    64
  3
Illustrator Dash Style No.1
 72
    65
 73
     2
 40
2.116667
 49
1.058333
 74
     0
 49
-1.058333
 74
     0
  0
LTYPE
  5
131
100
AcDbSymbolTableRecord
100
AcDbLinetypeTableRecord
  2
AI9-LType2
 70
    64
  3
Illustrator Dash Style No.2
 72
    65
 73
     4
 40
0.705556
 49
0.352778
 74
     0
 49
-0.132292
 74
     0
 49
0.088194
 74
     0
 49
-0.132292
 74
     0
  0
LTYPE
  5
134
100
AcDbSymbolTableRecord
100
AcDbLinetypeTableRecord
  2
AI9-LType3
 70
    64
  3
Illustrator Dash Style No.3
 72
    65
 73
     6
 40
10.583333
 49
3.527778
 74
     0
 49
-2.116667
 74
     0
 49
0.705556
 74
     0
 49
-1.411111
 74
     0
 49
0.705556
 74
     0
 49
-2.116667
 74
     0
  0
ENDTAB
  0
TABLE
  2
LAYER
  5
2
100
AcDbSymbolTable
 70
    12
  0
LAYER
  5
14
100
AcDbSymbolTableRecord
100
AcDbLayerTableRecord
  2
0
 70
     0
 62
     7
  6
Continuous
290
     1
370
    -3
390
1D
  0
LAYER
  5
28
100
AcDbSymbolTableRecord
100
AcDbLayerTableRecord
  2
TEXT
 70
     0
 62
     5
  6
Continuous
290
     1
370
    -3
390
1D
  0
LAYER
  5
2C
100
AcDbSymbolTableRecord
100
AcDbLayerTableRecord
  2
RAHMEN
 70
     0
 62
     3
  6
Continuous
290
     1
370
    -3
390
1D
  0
LAYER
  5
3A
100
AcDbSymbolTableRecord
100
AcDbLayerTableRecord
  2
KOERPER
 70
     0
 62
     7
  6
Continuous
290
     1
370
    -3
390
1D
  0
LAYER
  5
5D
100
AcDbSymbolTableRecord
100
AcDbLayerTableRecord
  2
EBENE_11
 70
     0
 62
     2
  6
Continuous
290
     1
370
    -3
390
1D
  0
LAYER
  5
71
100
AcDbSymbolTableRecord
100
AcDbLayerTableRecord
  2
SCHRAFFUR
 70
     0
 62
     4
  6
Continuous
290
     1
370
    -3
390
1D
  0
LAYER
  5
B7
100
AcDbSymbolTableRecord
100
AcDbLayerTableRecord
  2
ROHRSCHRAFFUR
 70
     0
 62
     6
  6
Continuous
290
     1
370
    -3
390
1D
  0
LAYER
  5
130
100
AcDbSymbolTableRecord
100
AcDbLayerTableRecord
  2
MITTE
 70
     0
 62
     2
  6
Continuous
290
     1
370
    -3
390
1D
  0
LAYER
  5
133
100
AcDbSymbolTableRecord
100
AcDbLayerTableRecord
  2
GETRENNT
 70
     0
 62
     5
  6
Continuous
290
     1
370
    -3
390
1D
  0
LAYER
  5
138
100
AcDbSymbolTableRecord
100
AcDbLayerTableRecord
  2
BESCHREIBUNG
 70
     0
 62
     3
  6
Continuous
290
     1
370
    -3
390
1D
  0
LAYER
  5
13B
100
AcDbSymbolTableRecord
100
AcDbLayerTableRecord
  2
WASSER
 70
     0
 62
     1
  6
Continuous
290
     1
370
    -3
390
1D
  0
LAYER
  5
140
100
AcDbSymbolTableRecord
100
AcDbLayerTableRecord
  2
QUELLMTEL
 70
     0
 62
   160
  6
Continuous
290
     1
370
    -3
390
1D
  0
ENDTAB
  0
TABLE
  2
STYLE
  5
3
100
AcDbSymbolTable
 70
     5
  0
STYLE
  5
17
100
AcDbSymbolTableRecord
100
AcDbTextStyleTableRecord
  2
Standard
 70
     0
 40
0.0
 41
1.0
 50
0.0
 71
     0
 42
0.0
  3
txt
  4

  0
STYLE
  5
24
100
AcDbSymbolTableRecord
100
AcDbTextStyleTableRecord
  2
STD
 70
     0
 40
0.0
 41
1.0
 50
0.0
 71
     0
 42
0.0
  3
txt
  4

  0
STYLE
  5
25
100
AcDbSymbolTableRecord
100
AcDbTextStyleTableRecord
  2
TATESTD
 70
     4
 40
0.0
 41
1.0
 50
0.0
 71
     0
 42
0.0
  3
txt
  4

  0
STYLE
  5
26
100
AcDbSymbolTableRecord
100
AcDbTextStyleTableRecord
  2
KANJISTD
 70
     0
 40
0.0
 41
1.0
 50
0.0
 71
     0
 42
0.0
  3
txt
  4
extfont
  0
STYLE
  5
27
100
AcDbSymbolTableRecord
100
AcDbTextStyleTableRecord
  2
KANJITATE
 70
     4
 40
0.0
 41
1.0
 50
0.0
 71
     0
 42
0.0
  3
txt
  4
extfont
  0
ENDTAB
  0
TABLE
  2
VIEW
  5
5
100
AcDbSymbolTable
 70
     0
  0
ENDTAB
  0
TABLE
  2
UCS
  5
6
100
AcDbSymbolTable
 70
     0
  0
ENDTAB
  0
TABLE
  2
APPID
  5
8
100
AcDbSymbolTable
 70
     1
  0
APPID
  5
16
100
AcDbSymbolTableRecord
100
AcDbRegAppTableRecord
  2
ACAD
 70
     0
  0
ENDTAB
  0
TABLE
  2
DIMSTYLE
  5
9
100
AcDbSymbolTable
 70
     1
100
AcDbDimStyleTable
 71
     0
  0
DIMSTYLE
105
18
100
AcDbSymbolTableRecord
100
AcDbDimStyleTableRecord
  2
Standard
 70
     0
  3

  4

 40
1.0
 41
0.18
 42
0.0625
 43
0.38
 44
0.18
 45
0.0
 46
0.0
 47
0.0
 48
0.0
 71
     0
 72
     0
 73
     1
 74
     1
 75
     0
 76
     0
 77
     0
 78
     0
 79
     0
140
0.18
141
0.09
142
0.0
143
25.4
144
1.0
145
0.0
146
1.0
147
0.09
148
0.0
170
     0
171
     2
172
     0
173
     0
174
     0
175
     0
176
     0
177
     0
178
     0
179
     0
271
     4
272
     4
273
     2
274
     2
275
     0
276
     0
277
     2
278
    46
279
     0
280
     0
281
     0
282
     0
283
     1
284
     0
285
     0
286
     0
288
     0
340
17
341
0
342
0
343
0
344
0
371
    -2
372
    -2
  0
ENDTAB
  0
TABLE
  2
BLOCK_RECORD
  5
1
100
AcDbSymbolTable
 70
     0
  0
BLOCK_RECORD
  5
A
100
AcDbSymbolTableRecord
100
AcDbBlockTableRecord
  2
*MODEL_SPACE
340
20
  0
BLOCK_RECORD
  5
B
100
AcDbSymbolTableRecord
100
AcDbBlockTableRecord
  2
*PAPER_SPACE
340
21
  0
ENDTAB
  0
ENDSEC
  0
SECTION
  2
BLOCKS
  0
BLOCK
  5
D
100
AcDbEntity
  8
0
100
AcDbBlockBegin
  2
*MODEL_SPACE
 70
     0
 10
0.0
 20
0.0
 30
0.0
  3
*MODEL_SPACE
  1

  0
ENDBLK
  5
E
100
AcDbEntity
  8
0
100
AcDbBlockEnd
  0
BLOCK
  5
F
100
AcDbEntity
 67
     1
  8
0
100
AcDbBlockBegin
  2
*PAPER_SPACE
 70
     0
 10
0.0
 20
0.0
 30
0.0
  3
*PAPER_SPACE
  1

  0
ENDBLK
  5
10
100
AcDbEntity
 67
     1
  8
0
100
AcDbBlockEnd
  0
ENDSEC
  0
SECTION
  2
ENTITIES
  0
HATCH
  5
13F
100
AcDbEntity
  8
WASSER
 62
   150
100
AcDbHatch
 10
0.0
 20
0.0
 30
0.0
210
0.0
220
0.0
230
1.0
  2
SOLID
 70
     1
 71
     0
 91
        1
 92
        1
 93
        1
 72
     4
 94
        3
 73
     0
 74
     0
 95
       23
 96
       19
 40
0.0
 40
0.0
 40
0.0
 40
0.0
 40
1.0
 40
1.0
 40
1.0
 40
2.0
 40
2.0
 40
2.0
 40
3.0
 40
3.0
 40
3.0
 40
4.0
 40
4.0
 40
4.0
 40
5.0
 40
5.0
 40
5.0
 40
6.0
 40
6.0
 40
6.0
 40
6.0
 10
208.56573621961803
 20
92.84222276475694
 10
208.56573621961803
 20
92.84222276475694
 10
208.21295844184027
 20
93.059608289930551
 10
207.73374565972222
 20
93.289051649305549
 10
203.78015407986109
 20
95.180064561631937
 10
204.74443630642358
 20
91.347740342881934
 10
200.83115234374998
 20
93.75689561631944
 10
200.27924804687498
 20
94.095893012152771
 10
199.77006293402775
 20
93.268381076388877
 10
200.32162272135415
 20
92.929039171006934
 10
200.32162272135415
 20
92.929039171006934
 10
200.67440049913193
 20
92.711653645833323
 10
201.15361328124999
 20
92.482210286458326
 10
205.10238172743053
 20
90.592230902777771
 10
204.1429226345486
 20
94.416975911458323
 10
208.05689561631942
 20
92.015055338541657
 10
208.60845540364582
 20
91.675024414062491
 10
209.11729600694443
 20
92.502880859374997
 10
208.56573621961803
 20
92.84222276475694
 97
        0
 75
     0
 76
     1
 98
        1
 10
0.0
 20
0.0
  0
HATCH
  5
13E
100
AcDbEntity
  8
WASSER
 62
   150
100
AcDbHatch
 10
0.0
 20
0.0
 30
0.0
210
0.0
220
0.0
230
1.0
  2
SOLID
 70
     1
 71
     0
 91
        1
 92
        1
 93
        1
 72
     4
 94
        3
 73
     0
 74
     0
 95
       23
 96
       19
 40
0.0
 40
0.0
 40
0.0
 40
0.0
 40
1.0
 40
1.0
 40
1.0
 40
2.0
 40
2.0
 40
2.0
 40
3.0
 40
3.0
 40
3.0
 40
4.0
 40
4.0
 40
4.0
 40
5.0
 40
5.0
 40
5.0
 40
6.0
 40
6.0
 40
6.0
 40
6.0
 10
208.56573621961803
 20
90.560536024305549
 10
208.56573621961803
 20
90.560536024305549
 10
208.21295844184027
 20
90.778266059027771
 10
207.73374565972222
 20
91.007709418402769
 10
203.78015407986109
 20
92.898377821180546
 10
204.74443630642358
 20
89.066398111979154
 10
200.83115234374998
 20
91.474864366319437
 10
200.27924804687498
 20
91.814895290798603
 10
199.77006293402775
 20
90.986694335937486
 10
200.32162272135415
 20
90.647007921006931
 10
200.32162272135415
 20
90.647007921006931
 10
200.67440049913193
 20
90.429966905381931
 10
201.15361328124999
 20
90.200523546006934
 10
205.10238172743053
 20
88.311233181423603
 10
204.1429226345486
 20
92.135633680555543
 10
208.05689561631942
 20
89.732679578993043
 10
208.60845540364582
 20
89.393682183159711
 10
209.11729600694443
 20
90.221538628472217
 10
208.56573621961803
 20
90.560536024305549
 97
        0
 75
     0
 76
     1
 98
        1
 10
0.0
 20
0.0
  0
HATCH
  5
13D
100
AcDbEntity
  8
WASSER
 62
   150
100
AcDbHatch
 10
0.0
 20
0.0
 30
0.0
210
0.0
220
0.0
230
1.0
  2
SOLID
 70
     1
 71
     0
 91
        1
 92
        1
 93
        1
 72
     4
 94
        3
 73
     0
 74
     0
 95
       23
 96
       19
 40
0.0
 40
0.0
 40
0.0
 40
0.0
 40
1.0
 40
1.0
 40
1.0
 40
2.0
 40
2.0
 40
2.0
 40
3.0
 40
3.0
 40
3.0
 40
4.0
 40
4.0
 40
4.0
 40
5.0
 40
5.0
 40
5.0
 40
6.0
 40
6.0
 40
6.0
 40
6.0
 10
208.56573621961803
 20
88.275404188368043
 10
208.56573621961803
 20
88.275404188368043
 10
208.21295844184027
 20
88.492789713541654
 10
207.73374565972222
 20
88.721544053819443
 10
203.78015407986109
 20
90.612556966145831
 10
204.74443630642358
 20
86.780921766493051
 10
200.83115234374998
 20
89.18938802083332
 10
200.27924804687498
 20
89.529074435763874
 10
199.77006293402775
 20
88.701217990451383
 10
200.32162272135415
 20
88.361531575520829
 10
200.32162272135415
 20
88.361531575520829
 10
200.67440049913193
 20
88.144490559895829
 10
201.15361328124999
 20
87.915047200520831
 10
205.10238172743053
 20
86.025412326388874
 10
204.1429226345486
 20
89.85015733506944
 10
208.05689561631942
 20
87.447547743055551
 10
208.60845540364582
 20
87.107861328124997
 10
209.11729600694443
 20
87.935717773437489
 10
208.56573621961803
 20
88.275404188368043
 97
        0
 75
     0
 76
     1
 98
        1
 10
0.0
 20
0.0
  0
HATCH
  5
13C
100
AcDbEntity
  8
WASSER
 62
   150
100
AcDbHatch
 10
0.0
 20
0.0
 30
0.0
210
0.0
220
0.0
230
1.0
  2
SOLID
 70
     1
 71
     0
 91
        1
 92
        1
 93
        1
 72
     4
 94
        3
 73
     0
 74
     0
 95
       23
 96
       19
 40
0.0
 40
0.0
 40
0.0
 40
0.0
 40
1.0
 40
1.0
 40
1.0
 40
2.0
 40
2.0
 40
2.0
 40
3.0
 40
3.0
 40
3.0
 40
4.0
 40
4.0
 40
4.0
 40
5.0
 40
5.0
 40
5.0
 40
6.0
 40
6.0
 40
6.0
 40
6.0
 10
208.56573621961803
 20
85.98992784288194
 10
208.56573621961803
 20
85.98992784288194
 10
208.21295844184027
 20
86.20696885850694
 10
207.73374565972222
 20
86.436067708333326
 10
203.78015407986109
 20
88.327769639756937
 10
204.74443630642358
 20
84.495445421006934
 10
200.83115234374998
 20
86.903911675347217
 10
200.27924804687498
 20
87.24325358072916
 10
199.77006293402775
 20
86.416086154513877
 10
200.32162272135415
 20
86.076399739583323
 10
200.32162272135415
 20
86.076399739583323
 10
200.67440049913193
 20
85.8586697048611
 10
201.15361328124999
 20
85.629226345486103
 10
205.10238172743053
 20
83.739935980902771
 10
204.1429226345486
 20
87.564336480034711
 10
208.05689561631942
 20
85.162071397569434
 10
208.60845540364582
 20
84.82238498263888
 10
209.11729600694443
 20
85.650241427951386
 10
208.56573621961803
 20
85.98992784288194
 97
        0
 75
     0
 76
     1
 98
        1
 10
0.0
 20
0.0
  0
LINE
  5
13A
100
AcDbEntity
  8
BESCHREIBUNG
 62
     7
100
AcDbLine
 10
175.301961
 20
87.535398
 30
0.0
 11
140.431394
 21
68.354484
 31
0.0
  0
LINE
  5
139
100
AcDbEntity
  8
BESCHREIBUNG
 62
     7
100
AcDbLine
 10
133.663331
 20
125.858123
 30
0.0
 11
117.946634
 21
95.649631
 31
0.0
  0
LINE
  5
137
100
AcDbEntity
  8
GETRENNT
  6
AI9-LType3
 62
     7
100
AcDbLine
 10
98.436886
 20
145.706179
 30
0.0
 11
98.436886
 21
100.807284
 31
0.0
  0
LINE
  5
136
100
AcDbEntity
  8
GETRENNT
  6
AI9-LType3
 62
     7
100
AcDbLine
 10
149.567442
 20
165.390938
 30
0.0
 11
193.360807
 21
165.390938
 31
0.0
  0
LINE
  5
135
100
AcDbEntity
  8
GETRENNT
  6
AI9-LType3
 62
     7
100
AcDbLine
 10
149.567442
 20
54.960986
 30
0.0
 11
193.360807
 21
54.960986
 31
0.0
  0
LINE
  5
132
100
AcDbEntity
  8
MITTE
  6
AI9-LType2
 62
     7
100
AcDbLine
 10
120.646555
 20
152.00123
 30
0.0
 11
212.505547
 21
60.217858
 31
0.0
  0
LINE
  5
12F
100
AcDbEntity
  8
ROHRSCHRAFFUR
 62
     7
100
AcDbLine
 10
124.865591
 20
154.102222
 30
0.0
 11
124.865247
 21
154.614852
 31
0.0
  0
LINE
  5
12E
100
AcDbEntity
  8
ROHRSCHRAFFUR
 62
     7
100
AcDbLine
 10
121.654418
 20
151.253989
 30
0.0
 11
121.654073
 21
151.544411
 31
0.0
  0
LINE
  5
12D
100
AcDbEntity
  8
ROHRSCHRAFFUR
 62
     7
100
AcDbLine
 10
121.095795
 20
150.303659
 30
0.0
 11
121.095795
 21
150.322435
 31
0.0
  0
LINE
  5
12C
100
AcDbEntity
  8
ROHRSCHRAFFUR
 62
     7
100
AcDbLine
 10
122.352222
 20
152.111646
 30
0.0
 11
122.352222
 21
152.55124
 31
0.0
  0
LINE
  5
12B
100
AcDbEntity
  8
ROHRSCHRAFFUR
 62
     7
100
AcDbLine
 10
123.048475
 20
151.501175
 30
0.0
 11
123.048475
 21
151.817779
 31
0.0
  0
LINE
  5
12A
100
AcDbEntity
  8
ROHRSCHRAFFUR
 62
     7
100
AcDbLine
 10
124.307313
 20
152.465285
 30
0.0
 11
124.307313
 21
153.026663
 31
0.0
  0
LINE
  5
129
100
AcDbEntity
  8
ROHRSCHRAFFUR
 62
     7
100
AcDbLine
 10
124.447012
 20
152.590686
 30
0.0
 11
124.446667
 21
153.175491
 31
0.0
  0
LINE
  5
128
100
AcDbEntity
  8
ROHRSCHRAFFUR
 62
     7
100
AcDbLine
 10
123.469294
 20
153.287284
 30
0.0
 11
123.469122
 21
153.846423
 31
0.0
  0
LINE
  5
127
100
AcDbEntity
  8
ROHRSCHRAFFUR
 62
     7
100
AcDbLine
 10
123.608993
 20
153.419921
 30
0.0
 11
123.608648
 21
153.987328
 31
0.0
  0
LINE
  5
126
100
AcDbEntity
  8
ROHRSCHRAFFUR
 62
     7
100
AcDbLine
 10
124.586538
 20
152.720222
 30
0.0
 11
124.586366
 21
153.327592
 31
0.0
  0
LINE
  5
125
100
AcDbEntity
  8
ROHRSCHRAFFUR
 62
     7
100
AcDbLine
 10
124.726237
 20
152.854408
 30
0.0
 11
124.725892
 21
153.482966
 31
0.0
  0
LINE
  5
124
100
AcDbEntity
  8
ROHRSCHRAFFUR
 62
     7
100
AcDbLine
 10
124.865763
 20
152.993073
 30
0.0
 11
124.865591
 21
153.641096
 31
0.0
  0
LINE
  5
123
100
AcDbEntity
  8
ROHRSCHRAFFUR
 62
     7
100
AcDbLine
 10
125.005462
 20
153.137078
 30
0.0
 11
125.00529
 21
154.553701
 31
0.0
  0
LINE
  5
122
100
AcDbEntity
  8
ROHRSCHRAFFUR
 62
     7
100
AcDbLine
 10
125.145161
 20
153.285906
 30
0.0
 11
125.144816
 21
154.453794
 31
0.0
  0
LINE
  5
121
100
AcDbEntity
  8
ROHRSCHRAFFUR
 62
     7
100
AcDbLine
 10
125.284687
 20
153.45575
 30
0.0
 11
125.284342
 21
154.28774
 31
0.0
  0
LINE
  5
120
100
AcDbEntity
  8
ROHRSCHRAFFUR
 62
     7
100
AcDbLine
 10
123.748519
 20
153.549973
 30
0.0
 11
123.748174
 21
154.124615
 31
0.0
  0
LINE
  5
11F
100
AcDbEntity
  8
ROHRSCHRAFFUR
 62
     7
100
AcDbLine
 10
123.888218
 20
153.677097
 30
0.0
 11
123.887873
 21
154.257768
 31
0.0
  0
LINE
  5
11E
100
AcDbEntity
  8
ROHRSCHRAFFUR
 62
     7
100
AcDbLine
 10
124.027744
 20
153.801637
 30
0.0
 11
124.027399
 21
154.387476
 31
0.0
  0
LINE
  5
11D
100
AcDbEntity
  8
ROHRSCHRAFFUR
 62
     7
100
AcDbLine
 10
124.167442
 20
153.923421
 30
0.0
 11
124.167098
 21
154.507709
 31
0.0
  0
LINE
  5
11C
100
AcDbEntity
  8
ROHRSCHRAFFUR
 62
     7
100
AcDbLine
 10
124.307141
 20
154.042794
 30
0.0
 11
124.306797
 21
154.587119
 31
0.0
  0
LINE
  5
11B
100
AcDbEntity
  8
ROHRSCHRAFFUR
 62
     7
100
AcDbLine
 10
124.446667
 20
154.157171
 30
0.0
 11
124.446323
 21
154.633628
 31
0.0
  0
LINE
  5
11A
100
AcDbEntity
  8
ROHRSCHRAFFUR
 62
     7
100
AcDbLine
 10
124.586366
 20
154.204886
 30
0.0
 11
124.586022
 21
154.652748
 31
0.0
  0
LINE
  5
119
100
AcDbEntity
  8
ROHRSCHRAFFUR
 62
     7
100
AcDbLine
 10
124.725892
 20
154.190416
 30
0.0
 11
124.725548
 21
154.646719
 31
0.0
  0
LINE
  5
118
100
AcDbEntity
  8
ROHRSCHRAFFUR
 62
     7
100
AcDbLine
 10
123.190241
 20
151.596431
 30
0.0
 11
123.190241
 21
151.94318
 31
0.0
  0
LINE
  5
117
100
AcDbEntity
  8
ROHRSCHRAFFUR
 62
     7
100
AcDbLine
 10
123.32994
 20
151.693239
 30
0.0
 11
123.32994
 21
152.069099
 31
0.0
  0
LINE
  5
116
100
AcDbEntity
  8
ROHRSCHRAFFUR
 62
     7
100
AcDbLine
 10
123.469466
 20
151.792974
 30
0.0
 11
123.469466
 21
152.197601
 31
0.0
  0
LINE
  5
115
100
AcDbEntity
  8
ROHRSCHRAFFUR
 62
     7
100
AcDbLine
 10
123.609165
 20
151.896327
 30
0.0
 11
123.609165
 21
152.328687
 31
0.0
  0
LINE
  5
114
100
AcDbEntity
  8
ROHRSCHRAFFUR
 62
     7
100
AcDbLine
 10
123.748863
 20
152.002953
 30
0.0
 11
123.748863
 21
152.462528
 31
0.0
  0
LINE
  5
113
100
AcDbEntity
  8
ROHRSCHRAFFUR
 62
     7
100
AcDbLine
 10
123.88839
 20
152.112851
 30
0.0
 11
123.88839
 21
152.599127
 31
0.0
  0
LINE
  5
112
100
AcDbEntity
  8
ROHRSCHRAFFUR
 62
     7
100
AcDbLine
 10
124.028088
 20
152.226712
 30
0.0
 11
124.028088
 21
152.738653
 31
0.0
  0
LINE
  5
111
100
AcDbEntity
  8
ROHRSCHRAFFUR
 62
     7
100
AcDbLine
 10
124.167615
 20
152.344017
 30
0.0
 11
124.167615
 21
152.88128
 31
0.0
  0
LINE
  5
110
100
AcDbEntity
  8
ROHRSCHRAFFUR
 62
     7
100
AcDbLine
 10
122.910844
 20
152.726251
 30
0.0
 11
122.910844
 21
153.239053
 31
0.0
  0
LINE
  5
10F
100
AcDbEntity
  8
ROHRSCHRAFFUR
 62
     7
100
AcDbLine
 10
122.771145
 20
152.577939
 30
0.0
 11
122.771145
 21
153.075411
 31
0.0
  0
LINE
  5
10E
100
AcDbEntity
  8
ROHRSCHRAFFUR
 62
     7
100
AcDbLine
 10
122.631447
 20
152.426183
 30
0.0
 11
122.631447
 21
152.906257
 31
0.0
  0
LINE
  5
10D
100
AcDbEntity
  8
ROHRSCHRAFFUR
 62
     7
100
AcDbLine
 10
122.49192
 20
152.270809
 30
0.0
 11
122.49192
 21
152.731763
 31
0.0
  0
LINE
  5
10C
100
AcDbEntity
  8
ROHRSCHRAFFUR
 62
     7
100
AcDbLine
 10
123.05037
 20
152.871289
 30
0.0
 11
123.050198
 21
153.397872
 31
0.0
  0
LINE
  5
10B
100
AcDbEntity
  8
ROHRSCHRAFFUR
 62
     7
100
AcDbLine
 10
123.190069
 20
153.012882
 30
0.0
 11
123.189724
 21
153.551695
 31
0.0
  0
LINE
  5
10A
100
AcDbEntity
  8
ROHRSCHRAFFUR
 62
     7
100
AcDbLine
 10
123.329595
 20
153.15172
 30
0.0
 11
123.329423
 21
153.701213
 31
0.0
  0
LINE
  5
109
100
AcDbEntity
  8
ROHRSCHRAFFUR
 62
     7
100
AcDbLine
 10
121.514719
 20
150.543783
 30
0.0
 11
121.514719
 21
150.610101
 31
0.0
  0
LINE
  5
108
100
AcDbEntity
  8
ROHRSCHRAFFUR
 62
     7
100
AcDbLine
 10
121.235494
 20
150.682448
 30
0.0
 11
121.235494
 21
150.833515
 31
0.0
  0
LINE
  5
107
100
AcDbEntity
  8
ROHRSCHRAFFUR
 62
     7
100
AcDbLine
 10
122.911016
 20
151.410396
 30
0.0
 11
122.911016
 21
151.698751
 31
0.0
  0
LINE
  5
106
100
AcDbEntity
  8
ROHRSCHRAFFUR
 62
     7
100
AcDbLine
 10
122.771318
 20
151.318929
 30
0.0
 11
122.771318
 21
151.579895
 31
0.0
  0
LINE
  5
105
100
AcDbEntity
  8
ROHRSCHRAFFUR
 62
     7
100
AcDbLine
 10
122.631791
 20
151.228495
 30
0.0
 11
122.631791
 21
151.463623
 31
0.0
  0
LINE
  5
104
100
AcDbEntity
  8
ROHRSCHRAFFUR
 62
     7
100
AcDbLine
 10
122.492093
 20
151.13944
 30
0.0
 11
122.492093
 21
151.34959
 31
0.0
  0
LINE
  5
103
100
AcDbEntity
  8
ROHRSCHRAFFUR
 62
     7
100
AcDbLine
 10
122.352566
 20
151.051417
 30
0.0
 11
122.352566
 21
151.237797
 31
0.0
  0
LINE
  5
102
100
AcDbEntity
  8
ROHRSCHRAFFUR
 62
     7
100
AcDbLine
 10
122.212868
 20
150.964084
 30
0.0
 11
122.212868
 21
151.128071
 31
0.0
  0
LINE
  5
101
100
AcDbEntity
  8
ROHRSCHRAFFUR
 62
     7
100
AcDbLine
 10
122.073169
 20
150.878129
 30
0.0
 11
122.073169
 21
151.020412
 31
0.0
  0
LINE
  5
100
100
AcDbEntity
  8
ROHRSCHRAFFUR
 62
     7
100
AcDbLine
 10
121.933643
 20
150.793035
 30
0.0
 11
121.933643
 21
150.914819
 31
0.0
  0
LINE
  5
FF
100
AcDbEntity
  8
ROHRSCHRAFFUR
 62
     7
100
AcDbLine
 10
121.793944
 20
150.708975
 30
0.0
 11
121.793944
 21
150.811294
 31
0.0
  0
LINE
  5
FE
100
AcDbEntity
  8
ROHRSCHRAFFUR
 62
     7
100
AcDbLine
 10
121.654418
 20
150.625948
 30
0.0
 11
121.654418
 21
150.709836
 31
0.0
  0
LINE
  5
FD
100
AcDbEntity
  8
ROHRSCHRAFFUR
 62
     7
100
AcDbLine
 10
121.37502
 20
150.878301
 30
0.0
 11
121.37502
 21
151.081562
 31
0.0
  0
LINE
  5
FC
100
AcDbEntity
  8
ROHRSCHRAFFUR
 62
     7
100
AcDbLine
 10
122.212695
 20
151.94852
 30
0.0
 11
122.212695
 21
152.364516
 31
0.0
  0
LINE
  5
FB
100
AcDbEntity
  8
ROHRSCHRAFFUR
 62
     7
100
AcDbLine
 10
122.072997
 20
151.781605
 30
0.0
 11
122.072997
 21
152.171073
 31
0.0
  0
LINE
  5
FA
100
AcDbEntity
  8
ROHRSCHRAFFUR
 62
     7
100
AcDbLine
 10
121.933298
 20
151.610384
 30
0.0
 11
121.933298
 21
151.970224
 31
0.0
  0
LINE
  5
F9
100
AcDbEntity
  8
ROHRSCHRAFFUR
 62
     7
100
AcDbLine
 10
121.793772
 20
151.434512
 30
0.0
 11
121.793772
 21
151.761624
 31
0.0
  0
LINE
  5
F8
100
AcDbEntity
  8
ROHRSCHRAFFUR
 62
     7
100
AcDbLine
 10
121.514719
 20
151.068815
 30
0.0
 11
121.514547
 21
151.317896
 31
0.0
  0
LINE
  5
F7
100
AcDbEntity
  8
ROHRSCHRAFFUR
 62
     7
100
AcDbLine
 10
121.37502
 20
150.462995
 30
0.0
 11
121.37502
 21
150.51226
 31
0.0
  0
LINE
  5
F6
100
AcDbEntity
  8
ROHRSCHRAFFUR
 62
     7
100
AcDbLine
 10
121.095795
 20
150.480737
 30
0.0
 11
121.095795
 21
150.573066
 31
0.0
  0
LINE
  5
F5
100
AcDbEntity
  8
ROHRSCHRAFFUR
 62
     7
100
AcDbLine
 10
121.235494
 20
150.382897
 30
0.0
 11
121.235494
 21
150.416486
 31
0.0
  0
LINE
  5
F4
100
AcDbEntity
  8
ROHRSCHRAFFUR
 62
     7
100
AcDbLine
 10
120.956269
 20
150.27317
 30
0.0
 11
120.956269
 21
150.298836
 31
0.0
  0
LINE
  5
F3
100
AcDbEntity
  8
ROHRSCHRAFFUR
 62
     7
100
AcDbLine
 10
207.796446
 20
61.913878
 30
0.0
 11
207.796446
 21
61.400903
 31
0.0
  0
LINE
  5
F2
100
AcDbEntity
  8
ROHRSCHRAFFUR
 62
     7
100
AcDbLine
 10
207.935973
 20
62.061673
 30
0.0
 11
207.935973
 21
61.56489
 31
0.0
  0
LINE
  5
F1
100
AcDbEntity
  8
ROHRSCHRAFFUR
 62
     7
100
AcDbLine
 10
206.958255
 20
62.637348
 30
0.0
 11
206.958255
 21
62.177428
 31
0.0
  0
LINE
  5
F0
100
AcDbEntity
  8
ROHRSCHRAFFUR
 62
     7
100
AcDbLine
 10
208.773475
 20
63.846921
 30
0.0
 11
208.773475
 21
63.725309
 31
0.0
  0
LINE
  5
EF
100
AcDbEntity
  8
ROHRSCHRAFFUR
 62
     7
100
AcDbLine
 10
207.098126
 20
62.743802
 30
0.0
 11
207.098126
 21
62.311442
 31
0.0
  0
LINE
  5
EE
100
AcDbEntity
  8
ROHRSCHRAFFUR
 62
     7
100
AcDbLine
 10
209.331925
 20
64.177306
 30
0.0
 11
209.331925
 21
64.127696
 31
0.0
  0
LINE
  5
ED
100
AcDbEntity
  8
ROHRSCHRAFFUR
 62
     7
100
AcDbLine
 10
208.494423
 20
63.6757
 30
0.0
 11
208.494423
 21
63.511713
 31
0.0
  0
LINE
  5
EC
100
AcDbEntity
  8
ROHRSCHRAFFUR
 62
     7
100
AcDbLine
 10
208.633949
 20
63.761827
 30
0.0
 11
208.633949
 21
63.619545
 31
0.0
  0
LINE
  5
EB
100
AcDbEntity
  8
ROHRSCHRAFFUR
 62
     7
100
AcDbLine
 10
209.052873
 20
64.014008
 30
0.0
 11
209.052873
 21
63.930637
 31
0.0
  0
LINE
  5
EA
100
AcDbEntity
  8
ROHRSCHRAFFUR
 62
     7
100
AcDbLine
 10
208.913002
 20
63.930981
 30
0.0
 11
208.913002
 21
63.829007
 31
0.0
  0
LINE
  5
E9
100
AcDbEntity
  8
ROHRSCHRAFFUR
 62
     7
100
AcDbLine
 10
209.471796
 20
63.957164
 30
0.0
 11
209.471796
 21
63.806613
 31
0.0
  0
LINE
  5
E8
100
AcDbEntity
  8
ROHRSCHRAFFUR
 62
     7
100
AcDbLine
 10
209.192399
 20
64.096346
 30
0.0
 11
209.192399
 21
64.029856
 31
0.0
  0
LINE
  5
E7
100
AcDbEntity
  8
ROHRSCHRAFFUR
 62
     7
100
AcDbLine
 10
209.471796
 20
64.257576
 30
0.0
 11
209.471796
 21
64.22347
 31
0.0
  0
LINE
  5
E6
100
AcDbEntity
  8
ROHRSCHRAFFUR
 62
     7
100
AcDbLine
 10
209.331925
 20
63.761483
 30
0.0
 11
209.331925
 21
63.558567
 31
0.0
  0
LINE
  5
E5
100
AcDbEntity
  8
ROHRSCHRAFFUR
 62
     7
100
AcDbLine
 10
209.611323
 20
64.336469
 30
0.0
 11
209.611323
 21
64.317177
 31
0.0
  0
LINE
  5
E4
100
AcDbEntity
  8
ROHRSCHRAFFUR
 62
     7
100
AcDbLine
 10
206.819073
 20
60.962687
 30
0.0
 11
206.819073
 21
60.382533
 31
0.0
  0
LINE
  5
E3
100
AcDbEntity
  8
ROHRSCHRAFFUR
 62
     7
100
AcDbLine
 10
209.611323
 20
64.159047
 30
0.0
 11
209.611323
 21
64.066374
 31
0.0
  0
LINE
  5
E2
100
AcDbEntity
  8
ROHRSCHRAFFUR
 62
     7
100
AcDbLine
 10
209.052873
 20
63.385623
 30
0.0
 11
209.052873
 21
63.095546
 31
0.0
  0
LINE
  5
E1
100
AcDbEntity
  8
ROHRSCHRAFFUR
 62
     7
100
AcDbLine
 10
209.750849
 20
64.367131
 30
0.0
 11
209.750849
 21
64.341292
 31
0.0
  0
LINE
  5
E0
100
AcDbEntity
  8
ROHRSCHRAFFUR
 62
     7
100
AcDbLine
 10
207.796102
 20
63.229905
 30
0.0
 11
207.796102
 21
62.941206
 31
0.0
  0
LINE
  5
DF
100
AcDbEntity
  8
ROHRSCHRAFFUR
 62
     7
100
AcDbLine
 10
208.075499
 20
62.213601
 30
0.0
 11
208.075499
 21
61.7337
 31
0.0
  0
LINE
  5
DE
100
AcDbEntity
  8
ROHRSCHRAFFUR
 62
     7
100
AcDbLine
 10
209.192399
 20
63.571313
 30
0.0
 11
209.192744
 21
63.322233
 31
0.0
  0
LINE
  5
DD
100
AcDbEntity
  8
ROHRSCHRAFFUR
 62
     7
100
AcDbLine
 10
207.935628
 20
63.320855
 30
0.0
 11
207.935628
 21
63.059717
 31
0.0
  0
LINE
  5
DC
100
AcDbEntity
  8
ROHRSCHRAFFUR
 62
     7
100
AcDbLine
 10
208.215025
 20
63.500345
 30
0.0
 11
208.215025
 21
63.290194
 31
0.0
  0
LINE
  5
DB
100
AcDbEntity
  8
ROHRSCHRAFFUR
 62
     7
100
AcDbLine
 10
208.075499
 20
63.411461
 30
0.0
 11
208.075499
 21
63.176161
 31
0.0
  0
LINE
  5
DA
100
AcDbEntity
  8
ROHRSCHRAFFUR
 62
     7
100
AcDbLine
 10
206.679202
 20
62.413417
 30
0.0
 11
206.679202
 21
61.901131
 31
0.0
  0
LINE
  5
D9
100
AcDbEntity
  8
ROHRSCHRAFFUR
 62
     7
100
AcDbLine
 10
208.354552
 20
63.588539
 30
0.0
 11
208.354552
 21
63.402159
 31
0.0
  0
LINE
  5
D8
100
AcDbEntity
  8
ROHRSCHRAFFUR
 62
     7
100
AcDbLine
 10
207.516705
 20
63.043869
 30
0.0
 11
207.516705
 21
62.697293
 31
0.0
  0
LINE
  5
D7
100
AcDbEntity
  8
ROHRSCHRAFFUR
 62
     7
100
AcDbLine
 10
207.377178
 20
62.946718
 30
0.0
 11
207.377178
 21
62.570858
 31
0.0
  0
LINE
  5
D6
100
AcDbEntity
  8
ROHRSCHRAFFUR
 62
     7
100
AcDbLine
 10
207.237652
 20
62.847154
 30
0.0
 11
207.237652
 21
62.4427
 31
0.0
  0
LINE
  5
D5
100
AcDbEntity
  8
ROHRSCHRAFFUR
 62
     7
100
AcDbLine
 10
207.658643
 20
63.138954
 30
0.0
 11
207.658643
 21
62.822005
 31
0.0
  0
LINE
  5
D4
100
AcDbEntity
  8
ROHRSCHRAFFUR
 62
     7
100
AcDbLine
 10
208.21537
 20
62.368975
 30
0.0
 11
208.21537
 21
61.908021
 31
0.0
  0
LINE
  5
D3
100
AcDbEntity
  8
ROHRSCHRAFFUR
 62
     7
100
AcDbLine
 10
208.354896
 20
62.528139
 30
0.0
 11
208.354896
 21
62.088889
 31
0.0
  0
LINE
  5
D2
100
AcDbEntity
  8
ROHRSCHRAFFUR
 62
     7
100
AcDbLine
 10
208.494423
 20
62.691092
 30
0.0
 11
208.494423
 21
62.275269
 31
0.0
  0
LINE
  5
D1
100
AcDbEntity
  8
ROHRSCHRAFFUR
 62
     7
100
AcDbLine
 10
208.634294
 20
62.858179
 30
0.0
 11
208.634294
 21
62.468883
 31
0.0
  0
LINE
  5
D0
100
AcDbEntity
  8
ROHRSCHRAFFUR
 62
     7
100
AcDbLine
 10
208.77382
 20
63.0294
 30
0.0
 11
208.77382
 21
62.669732
 31
0.0
  0
LINE
  5
CF
100
AcDbEntity
  8
ROHRSCHRAFFUR
 62
     7
100
AcDbLine
 10
208.913002
 20
63.205789
 30
0.0
 11
208.913346
 21
62.878849
 31
0.0
  0
LINE
  5
CE
100
AcDbEntity
  8
ROHRSCHRAFFUR
 62
     7
100
AcDbLine
 10
205.841355
 20
61.646883
 30
0.0
 11
205.841699
 21
60.998516
 31
0.0
  0
LINE
  5
CD
100
AcDbEntity
  8
ROHRSCHRAFFUR
 62
     7
100
AcDbLine
 10
205.701828
 20
61.503223
 30
0.0
 11
205.701828
 21
60.086255
 31
0.0
  0
LINE
  5
CC
100
AcDbEntity
  8
ROHRSCHRAFFUR
 62
     7
100
AcDbLine
 10
206.539676
 20
60.716707
 30
0.0
 11
206.54002
 21
60.132419
 31
0.0
  0
LINE
  5
CB
100
AcDbEntity
  8
ROHRSCHRAFFUR
 62
     7
100
AcDbLine
 10
206.400149
 20
60.597163
 30
0.0
 11
206.400149
 21
60.052837
 31
0.0
  0
LINE
  5
CA
100
AcDbEntity
  8
ROHRSCHRAFFUR
 62
     7
100
AcDbLine
 10
207.656576
 20
61.76884
 30
0.0
 11
207.656576
 21
61.242084
 31
0.0
  0
LINE
  5
C9
100
AcDbEntity
  8
ROHRSCHRAFFUR
 62
     7
100
AcDbLine
 10
207.517049
 20
61.626902
 30
0.0
 11
207.517049
 21
61.088433
 31
0.0
  0
LINE
  5
C8
100
AcDbEntity
  8
ROHRSCHRAFFUR
 62
     7
100
AcDbLine
 10
207.377523
 20
61.488409
 30
0.0
 11
207.377867
 21
60.938572
 31
0.0
  0
LINE
  5
C7
100
AcDbEntity
  8
ROHRSCHRAFFUR
 62
     7
100
AcDbLine
 10
207.237996
 20
61.352672
 30
0.0
 11
207.237996
 21
60.793877
 31
0.0
  0
LINE
  5
C6
100
AcDbEntity
  8
ROHRSCHRAFFUR
 62
     7
100
AcDbLine
 10
207.098126
 20
61.220036
 30
0.0
 11
207.09847
 21
60.652973
 31
0.0
  0
LINE
  5
C5
100
AcDbEntity
  8
ROHRSCHRAFFUR
 62
     7
100
AcDbLine
 10
206.958599
 20
61.090156
 30
0.0
 11
206.958944
 21
60.515858
 31
0.0
  0
LINE
  5
C4
100
AcDbEntity
  8
ROHRSCHRAFFUR
 62
     7
100
AcDbLine
 10
206.539331
 20
62.296284
 30
0.0
 11
206.539331
 21
61.758849
 31
0.0
  0
LINE
  5
C3
100
AcDbEntity
  8
ROHRSCHRAFFUR
 62
     7
100
AcDbLine
 10
206.818728
 20
62.527105
 30
0.0
 11
206.818728
 21
62.041002
 31
0.0
  0
LINE
  5
C2
100
AcDbEntity
  8
ROHRSCHRAFFUR
 62
     7
100
AcDbLine
 10
206.399805
 20
62.175016
 30
0.0
 11
206.399805
 21
61.613121
 31
0.0
  0
LINE
  5
C1
100
AcDbEntity
  8
ROHRSCHRAFFUR
 62
     7
100
AcDbLine
 10
205.980881
 20
61.786065
 30
0.0
 11
205.981226
 21
61.157335
 31
0.0
  0
LINE
  5
C0
100
AcDbEntity
  8
ROHRSCHRAFFUR
 62
     7
100
AcDbLine
 10
206.260278
 20
62.04927
 30
0.0
 11
206.260278
 21
61.464293
 31
0.0
  0
LINE
  5
BF
100
AcDbEntity
  8
ROHRSCHRAFFUR
 62
     7
100
AcDbLine
 10
206.260278
 20
60.482785
 30
0.0
 11
206.260623
 21
60.006329
 31
0.0
  0
LINE
  5
BE
100
AcDbEntity
  8
ROHRSCHRAFFUR
 62
     7
100
AcDbLine
 10
206.679202
 20
60.838319
 30
0.0
 11
206.679546
 21
60.252308
 31
0.0
  0
LINE
  5
BD
100
AcDbEntity
  8
ROHRSCHRAFFUR
 62
     7
100
AcDbLine
 10
206.120407
 20
61.919735
 30
0.0
 11
206.120752
 21
61.312364
 31
0.0
  0
LINE
  5
BC
100
AcDbEntity
  8
ROHRSCHRAFFUR
 62
     7
100
AcDbLine
 10
205.841699
 20
60.537562
 30
0.0
 11
205.841699
 21
60.024588
 31
0.0
  0
LINE
  5
BB
100
AcDbEntity
  8
ROHRSCHRAFFUR
 62
     7
100
AcDbLine
 10
205.561957
 20
61.35405
 30
0.0
 11
205.562302
 21
60.186507
 31
0.0
  0
LINE
  5
BA
100
AcDbEntity
  8
ROHRSCHRAFFUR
 62
     7
100
AcDbLine
 10
205.422431
 20
61.183862
 30
0.0
 11
205.422776
 21
60.352216
 31
0.0
  0
LINE
  5
B9
100
AcDbEntity
  8
ROHRSCHRAFFUR
 62
     7
100
AcDbLine
 10
205.981226
 20
60.449368
 30
0.0
 11
205.98157
 21
59.992893
 31
0.0
  0
LINE
  5
B8
100
AcDbEntity
  8
ROHRSCHRAFFUR
 62
     7
100
AcDbLine
 10
206.120752
 20
60.435243
 30
0.0
 11
206.121096
 21
59.987036
 31
0.0
  0
LINE
  5
B6
100
AcDbEntity
  8
SCHRAFFUR
 62
     7
100
AcDbLine
 10
98.436886
 20
135.605849
 30
0.0
 11
107.432202
 21
144.600993
 31
0.0
  0
LINE
  5
B5
100
AcDbEntity
  8
SCHRAFFUR
 62
     7
100
AcDbLine
 10
98.436886
 20
117.729593
 30
0.0
 11
119.49262
 21
138.785155
 31
0.0
  0
LINE
  5
B4
100
AcDbEntity
  8
SCHRAFFUR
 62
     7
100
AcDbLine
 10
99.390833
 20
100.807284
 30
0.0
 11
128.432987
 21
129.849094
 31
0.0
  0
LINE
  5
B3
100
AcDbEntity
  8
SCHRAFFUR
 62
     7
100
AcDbLine
 10
117.267261
 20
100.807284
 30
0.0
 11
127.476801
 21
111.016652
 31
0.0
  0
LINE
  5
B2
100
AcDbEntity
  8
SCHRAFFUR
 62
     7
100
AcDbLine
 10
151.755423
 20
135.295618
 30
0.0
 11
161.061315
 21
144.600993
 31
0.0
  0
LINE
  5
B1
100
AcDbEntity
  8
SCHRAFFUR
 62
     7
100
AcDbLine
 10
127.476801
 20
111.016652
 30
0.0
 11
137.373183
 21
120.913033
 31
0.0
  0
LINE
  5
B0
100
AcDbEntity
  8
SCHRAFFUR
 62
     7
100
AcDbLine
 10
135.143517
 20
100.807284
 30
0.0
 11
146.31355
 21
111.9768
 31
0.0
  0
LINE
  5
AF
100
AcDbEntity
  8
SCHRAFFUR
 62
     7
100
AcDbLine
 10
160.69579
 20
126.359384
 30
0.0
 11
178.937571
 21
144.600993
 31
0.0
  0
LINE
  5
AE
100
AcDbEntity
  8
SCHRAFFUR
 62
     7
100
AcDbLine
 10
149.567442
 20
97.354953
 30
0.0
 11
155.253573
 21
103.041083
 31
0.0
  0
LINE
  5
AD
100
AcDbEntity
  8
SCHRAFFUR
 62
     7
100
AcDbLine
 10
169.636157
 20
117.423324
 30
0.0
 11
193.360807
 21
141.148318
 31
0.0
  0
LINE
  5
AC
100
AcDbEntity
  8
SCHRAFFUR
 62
     7
100
AcDbLine
 10
149.567442
 20
79.478008
 30
0.0
 11
164.19394
 21
94.10485
 31
0.0
  0
LINE
  5
AB
100
AcDbEntity
  8
SCHRAFFUR
 62
     7
100
AcDbLine
 10
178.576525
 20
108.487263
 30
0.0
 11
193.360807
 21
123.27189
 31
0.0
  0
LINE
  5
AA
100
AcDbEntity
  8
SCHRAFFUR
 62
     7
100
AcDbLine
 10
149.567442
 20
61.602097
 30
0.0
 11
173.024064
 21
85.058719
 31
0.0
  0
LINE
  5
A9
100
AcDbEntity
  8
SCHRAFFUR
 62
     7
100
AcDbLine
 10
187.516547
 20
99.551202
 30
0.0
 11
193.360807
 21
105.395978
 31
0.0
  0
LINE
  5
A8
100
AcDbEntity
  8
SCHRAFFUR
 62
     7
100
AcDbLine
 10
160.802243
 20
54.960986
 30
0.0
 11
171.531993
 21
65.690047
 31
0.0
  0
LINE
  5
A7
100
AcDbEntity
  8
SCHRAFFUR
 62
     7
100
AcDbLine
 10
171.531993
 20
65.690047
 30
0.0
 11
182.07433
 21
76.232728
 31
0.0
  0
LINE
  5
A6
100
AcDbEntity
  8
SCHRAFFUR
 62
     7
100
AcDbLine
 10
178.678499
 20
54.960986
 30
0.0
 11
191.014697
 21
67.296495
 31
0.0
  0
LINE
  5
A5
100
AcDbEntity
  8
SCHRAFFUR
 62
     7
100
AcDbLine
 10
98.436886
 20
126.667721
 30
0.0
 11
99.747572
 21
127.978235
 31
0.0
  0
LINE
  5
A4
100
AcDbEntity
  8
SCHRAFFUR
 62
     7
100
AcDbLine
 10
101.982061
 20
130.212724
 30
0.0
 11
106.451039
 21
134.681702
 31
0.0
  0
LINE
  5
A3
100
AcDbEntity
  8
SCHRAFFUR
 62
     7
100
AcDbLine
 10
108.685528
 20
136.916363
 30
0.0
 11
113.15485
 21
141.385513
 31
0.0
  0
LINE
  5
A2
100
AcDbEntity
  8
SCHRAFFUR
 62
     7
100
AcDbLine
 10
98.436886
 20
108.791465
 30
0.0
 11
101.982061
 21
112.336468
 31
0.0
  0
LINE
  5
A1
100
AcDbEntity
  8
SCHRAFFUR
 62
     7
100
AcDbLine
 10
104.216722
 20
114.570957
 30
0.0
 11
108.685528
 21
119.040107
 31
0.0
  0
LINE
  5
A0
100
AcDbEntity
  8
SCHRAFFUR
 62
     7
100
AcDbLine
 10
110.920189
 20
121.274596
 30
0.0
 11
115.389339
 21
125.743574
 31
0.0
  0
LINE
  5
9F
100
AcDbEntity
  8
SCHRAFFUR
 62
     7
100
AcDbLine
 10
117.623828
 20
127.978235
 30
0.0
 11
122.092978
 21
132.447213
 31
0.0
  0
LINE
  5
9E
100
AcDbEntity
  8
SCHRAFFUR
 62
     7
100
AcDbLine
 10
108.329305
 20
100.807284
 30
0.0
 11
110.920189
 21
103.39834
 31
0.0
  0
LINE
  5
9D
100
AcDbEntity
  8
SCHRAFFUR
 62
     7
100
AcDbLine
 10
113.15485
 20
105.633001
 30
0.0
 11
117.623828
 21
110.102151
 31
0.0
  0
LINE
  5
9C
100
AcDbEntity
  8
SCHRAFFUR
 62
     7
100
AcDbLine
 10
119.858489
 20
112.336468
 30
0.0
 11
124.327295
 21
116.805446
 31
0.0
  0
LINE
  5
9B
100
AcDbEntity
  8
SCHRAFFUR
 62
     7
100
AcDbLine
 10
126.561956
 20
119.040107
 30
0.0
 11
131.030934
 21
123.509257
 31
0.0
  0
LINE
  5
9A
100
AcDbEntity
  8
SCHRAFFUR
 62
     7
100
AcDbLine
 10
147.285411
 20
139.763562
 30
0.0
 11
151.141851
 21
143.620002
 31
0.0
  0
LINE
  5
99
100
AcDbEntity
  8
SCHRAFFUR
 62
     7
100
AcDbLine
 10
126.205561
 20
100.807284
 30
0.0
 11
126.561956
 21
101.163851
 31
0.0
  0
LINE
  5
98
100
AcDbEntity
  8
SCHRAFFUR
 62
     7
100
AcDbLine
 10
128.796445
 20
103.39834
 30
0.0
 11
133.265767
 21
107.86749
 31
0.0
  0
LINE
  5
97
100
AcDbEntity
  8
SCHRAFFUR
 62
     7
100
AcDbLine
 10
135.500256
 20
110.102151
 30
0.0
 11
139.969062
 21
114.570957
 31
0.0
  0
LINE
  5
96
100
AcDbEntity
  8
SCHRAFFUR
 62
     7
100
AcDbLine
 10
156.225779
 20
130.827329
 30
0.0
 11
160.079807
 21
134.681702
 31
0.0
  0
LINE
  5
95
100
AcDbEntity
  8
SCHRAFFUR
 62
     7
100
AcDbLine
 10
162.314296
 20
136.916363
 30
0.0
 11
166.783963
 21
141.385513
 31
0.0
  0
LINE
  5
94
100
AcDbEntity
  8
SCHRAFFUR
 62
     7
100
AcDbLine
 10
169.018452
 20
143.620002
 30
0.0
 11
169.99927
 21
144.600993
 31
0.0
  0
LINE
  5
93
100
AcDbEntity
  8
SCHRAFFUR
 62
     7
100
AcDbLine
 10
144.438212
 20
101.163851
 30
0.0
 11
148.907362
 21
105.633001
 31
0.0
  0
LINE
  5
92
100
AcDbEntity
  8
SCHRAFFUR
 62
     7
100
AcDbLine
 10
165.165801
 20
121.89144
 30
0.0
 11
169.018452
 21
125.743574
 31
0.0
  0
LINE
  5
91
100
AcDbEntity
  8
SCHRAFFUR
 62
     7
100
AcDbLine
 10
171.252941
 20
127.978235
 30
0.0
 11
175.721918
 21
132.447213
 31
0.0
  0
LINE
  5
90
100
AcDbEntity
  8
SCHRAFFUR
 62
     7
100
AcDbLine
 10
177.956407
 20
134.681702
 30
0.0
 11
182.425385
 21
139.151024
 31
0.0
  0
LINE
  5
8F
100
AcDbEntity
  8
SCHRAFFUR
 62
     7
100
AcDbLine
 10
184.659874
 20
141.385513
 30
0.0
 11
187.875526
 21
144.600993
 31
0.0
  0
LINE
  5
8E
100
AcDbEntity
  8
SCHRAFFUR
 62
     7
100
AcDbLine
 10
149.567442
 20
88.416309
 30
0.0
 11
151.141851
 21
89.991062
 31
0.0
  0
LINE
  5
8D
100
AcDbEntity
  8
SCHRAFFUR
 62
     7
100
AcDbLine
 10
153.37634
 20
92.225551
 30
0.0
 11
157.845318
 21
96.694873
 31
0.0
  0
LINE
  5
8C
100
AcDbEntity
  8
SCHRAFFUR
 62
     7
100
AcDbLine
 10
174.106169
 20
112.955379
 30
0.0
 11
177.956407
 21
116.805446
 31
0.0
  0
LINE
  5
8B
100
AcDbEntity
  8
SCHRAFFUR
 62
     7
100
AcDbLine
 10
180.190896
 20
119.040107
 30
0.0
 11
184.659874
 21
123.509257
 31
0.0
  0
LINE
  5
8A
100
AcDbEntity
  8
SCHRAFFUR
 62
     7
100
AcDbLine
 10
186.894708
 20
125.743574
 30
0.0
 11
191.363341
 21
130.212724
 31
0.0
  0
LINE
  5
89
100
AcDbEntity
  8
SCHRAFFUR
 62
     7
100
AcDbLine
 10
149.567442
 20
70.540397
 30
0.0
 11
153.37634
 21
74.349295
 31
0.0
  0
LINE
  5
88
100
AcDbEntity
  8
SCHRAFFUR
 62
     7
100
AcDbLine
 10
155.611174
 20
76.584128
 30
0.0
 11
160.079807
 21
81.053451
 31
0.0
  0
LINE
  5
87
100
AcDbEntity
  8
SCHRAFFUR
 62
     7
100
AcDbLine
 10
162.314296
 20
83.28725
 30
0.0
 11
166.783963
 21
87.756573
 31
0.0
  0
LINE
  5
86
100
AcDbEntity
  8
SCHRAFFUR
 62
     7
100
AcDbLine
 10
183.046536
 20
104.019491
 30
0.0
 11
186.894708
 21
107.86749
 31
0.0
  0
LINE
  5
85
100
AcDbEntity
  8
SCHRAFFUR
 62
     7
100
AcDbLine
 10
189.129197
 20
110.102151
 30
0.0
 11
193.360807
 21
114.334106
 31
0.0
  0
LINE
  5
84
100
AcDbEntity
  8
SCHRAFFUR
 62
     7
100
AcDbLine
 10
151.864288
 20
54.960986
 30
0.0
 11
155.611174
 21
58.707528
 31
0.0
  0
LINE
  5
83
100
AcDbEntity
  8
SCHRAFFUR
 62
     7
100
AcDbLine
 10
157.845318
 20
60.942017
 30
0.0
 11
162.314296
 21
65.411339
 31
0.0
  0
LINE
  5
82
100
AcDbEntity
  8
SCHRAFFUR
 62
     7
100
AcDbLine
 10
164.549129
 20
67.645828
 30
0.0
 11
169.018452
 21
72.114806
 31
0.0
  0
LINE
  5
81
100
AcDbEntity
  8
SCHRAFFUR
 62
     7
100
AcDbLine
 10
171.252941
 20
74.349295
 30
0.0
 11
172.278201
 21
75.374211
 31
0.0
  0
LINE
  5
80
100
AcDbEntity
  8
SCHRAFFUR
 62
     7
100
AcDbLine
 10
191.986903
 20
95.083257
 30
0.0
 11
193.360807
 21
96.45785
 31
0.0
  0
LINE
  5
7F
100
AcDbEntity
  8
SCHRAFFUR
 62
     7
100
AcDbLine
 10
172.278201
 20
75.374211
 30
0.0
 11
175.721918
 21
78.818617
 31
0.0
  0
LINE
  5
7E
100
AcDbEntity
  8
SCHRAFFUR
 62
     7
100
AcDbLine
 10
169.740544
 20
54.960986
 30
0.0
 11
170.785441
 21
56.006228
 31
0.0
  0
LINE
  5
7D
100
AcDbEntity
  8
SCHRAFFUR
 62
     7
100
AcDbLine
 10
170.785441
 20
56.006228
 30
0.0
 11
171.252941
 21
56.473039
 31
0.0
  0
LINE
  5
7C
100
AcDbEntity
  8
SCHRAFFUR
 62
     7
100
AcDbLine
 10
173.487429
 20
58.707528
 30
0.0
 11
177.956407
 21
63.176506
 31
0.0
  0
LINE
  5
7B
100
AcDbEntity
  8
SCHRAFFUR
 62
     7
100
AcDbLine
 10
180.190896
 20
65.411339
 30
0.0
 11
184.659874
 21
69.880317
 31
0.0
  0
LINE
  5
7A
100
AcDbEntity
  8
SCHRAFFUR
 62
     7
100
AcDbLine
 10
189.129197
 20
56.473039
 30
0.0
 11
193.360807
 21
60.704994
 31
0.0
  0
LINE
  5
79
100
AcDbEntity
  8
SCHRAFFUR
 62
     7
100
AcDbLine
 10
150.160688
 20
144.600993
 30
0.0
 11
149.567442
 21
145.194583
 31
0.0
  0
LINE
  5
78
100
AcDbEntity
  8
SCHRAFFUR
 62
     7
100
AcDbLine
 10
159.098988
 20
144.600993
 30
0.0
 11
149.567442
 21
154.132711
 31
0.0
  0
LINE
  5
77
100
AcDbEntity
  8
SCHRAFFUR
 62
     7
100
AcDbLine
 10
168.036944
 20
144.600993
 30
0.0
 11
149.567442
 21
163.071011
 31
0.0
  0
LINE
  5
76
100
AcDbEntity
  8
SCHRAFFUR
 62
     7
100
AcDbLine
 10
176.975244
 20
144.600993
 30
0.0
 11
156.185126
 21
165.390938
 31
0.0
  0
LINE
  5
75
100
AcDbEntity
  8
SCHRAFFUR
 62
     7
100
AcDbLine
 10
185.9132
 20
144.600993
 30
0.0
 11
165.123427
 21
165.390938
 31
0.0
  0
LINE
  5
74
100
AcDbEntity
  8
SCHRAFFUR
 62
     7
100
AcDbLine
 10
193.360807
 20
146.091686
 30
0.0
 11
174.061727
 21
165.390938
 31
0.0
  0
LINE
  5
73
100
AcDbEntity
  8
SCHRAFFUR
 62
     7
100
AcDbLine
 10
193.360807
 20
155.029641
 30
0.0
 11
183.000027
 21
165.390938
 31
0.0
  0
LINE
  5
72
100
AcDbEntity
  8
SCHRAFFUR
 62
     7
100
AcDbLine
 10
193.360807
 20
163.968114
 30
0.0
 11
191.937983
 21
165.390938
 31
0.0
  0
LINE
  5
70
100
AcDbEntity
  8
EBENE_11
 62
     7
100
AcDbLine
 10
120.806407
 20
144.588246
 30
0.0
 11
193.7315
 21
71.742735
 31
0.0
  0
LINE
  5
6F
100
AcDbEntity
  8
EBENE_11
 62
     7
100
AcDbLine
 10
134.709435
 20
144.588246
 30
0.0
 11
193.7315
 21
85.596842
 31
0.0
  0
HATCH
  5
6E
100
AcDbEntity
  8
EBENE_11
 62
   254
100
AcDbHatch
 10
0.0
 20
0.0
 30
0.0
210
0.0
220
0.0
230
1.0
  2
SOLID
 70
     1
 71
     0
 91
        1
 92
        3
 72
     0
 73
     1
 93
        4
 10
142.23093939887153
 20
144.58824598524305
 10
134.7209757486979
 20
144.58824598524305
 10
193.7314995659722
 20
85.599598524305549
 10
193.7314995659722
 20
93.111973741319431
 97
        0
 75
     0
 76
     1
 98
        1
 10
0.0
 20
0.0
  0
HATCH
  5
6D
100
AcDbEntity
  8
EBENE_11
 62
   254
100
AcDbHatch
 10
0.0
 20
0.0
 30
0.0
210
0.0
220
0.0
230
1.0
  2
SOLID
 70
     1
 71
     0
 91
        1
 92
        3
 72
     0
 73
     1
 93
        4
 10
120.43571506076388
 20
145.26382921006942
 10
112.75763075086805
 20
145.26382921006942
 10
193.36080729166665
 20
64.698548719618046
 10
193.36080729166665
 20
72.418318684895823
 97
        0
 75
     0
 76
     1
 98
        1
 10
0.0
 20
0.0
  0
POLYLINE
  5
67
100
AcDbEntity
  8
EBENE_11
 62
     7
100
AcDb2dPolyline
 66
     1
 10
0.0
 20
0.0
 30
0.0
 70
     1
  0
VERTEX
  5
68
100
AcDbEntity
  8
EBENE_11
 62
     7
100
AcDbVertex
100
AcDb2dVertex
 10
142.230939
 20
144.588246
 30
0.0
  0
VERTEX
  5
69
100
AcDbEntity
  8
EBENE_11
 62
     7
100
AcDbVertex
100
AcDb2dVertex
 10
134.720976
 20
144.588246
 30
0.0
  0
VERTEX
  5
6A
100
AcDbEntity
  8
EBENE_11
 62
     7
100
AcDbVertex
100
AcDb2dVertex
 10
193.7315
 20
85.599599
 30
0.0
  0
VERTEX
  5
6B
100
AcDbEntity
  8
EBENE_11
 62
     7
100
AcDbVertex
100
AcDb2dVertex
 10
193.7315
 20
93.111974
 30
0.0
  0
SEQEND
  5
6C
100
AcDbEntity
  8
EBENE_11
 62
     7
  0
HATCH
  5
66
100
AcDbEntity
  8
EBENE_11
 62
     7
100
AcDbHatch
 10
0.0
 20
0.0
 30
0.0
210
0.0
220
0.0
230
1.0
  2
_U
 70
     0
 71
     0
 91
        1
 92
        3
 72
     0
 73
     1
 93
        4
 10
142.23093939887153
 20
144.58824598524305
 10
134.7209757486979
 20
144.58824598524305
 10
193.7314995659722
 20
85.599598524305549
 10
193.7314995659722
 20
93.111973741319431
 97
        0
 75
     0
 76
     0
 52
45.0
 41
2.0
 77
     0
 78
     1
 53
45.0
 43
0.0
 44
0.0
 45
-1.4142135623730949
 46
1.4142135623730951
 79
     0
 98
        1
 10
0.0
 20
0.0
  0
LINE
  5
65
100
AcDbEntity
  8
EBENE_11
 62
     7
100
AcDbLine
 10
142.230939
 20
144.588246
 30
0.0
 11
193.7315
 21
93.111974
 31
0.0
  0
POLYLINE
  5
5F
100
AcDbEntity
  8
EBENE_11
 62
     7
100
AcDb2dPolyline
 66
     1
 10
0.0
 20
0.0
 30
0.0
 70
     1
  0
VERTEX
  5
60
100
AcDbEntity
  8
EBENE_11
 62
     7
100
AcDbVertex
100
AcDb2dVertex
 10
120.77678
 20
145.188898
 30
0.0
  0
VERTEX
  5
61
100
AcDbEntity
  8
EBENE_11
 62
     7
100
AcDbVertex
100
AcDb2dVertex
 10
113.098695
 20
145.188898
 30
0.0
  0
VERTEX
  5
62
100
AcDbEntity
  8
EBENE_11
 62
     7
100
AcDbVertex
100
AcDb2dVertex
 10
193.702216
 20
64.62379
 30
0.0
  0
VERTEX
  5
63
100
AcDbEntity
  8
EBENE_11
 62
     7
100
AcDbVertex
100
AcDb2dVertex
 10
193.702216
 20
72.34356
 30
0.0
  0
SEQEND
  5
64
100
AcDbEntity
  8
EBENE_11
 62
     7
  0
HATCH
  5
5E
100
AcDbEntity
  8
EBENE_11
 62
     7
100
AcDbHatch
 10
0.0
 20
0.0
 30
0.0
210
0.0
220
0.0
230
1.0
  2
_U
 70
     0
 71
     0
 91
        1
 92
        3
 72
     0
 73
     1
 93
        4
 10
120.77677951388888
 20
145.18889838324651
 10
113.09869520399305
 20
145.18889838324651
 10
193.70221625434027
 20
64.623790147569437
 10
193.70221625434027
 20
72.343560112847214
 97
        0
 75
     0
 76
     0
 52
45.0
 41
2.0
 77
     0
 78
     1
 53
45.0
 43
0.0
 44
0.0
 45
-1.4142135623730949
 46
1.4142135623730951
 79
     0
 98
        1
 10
0.0
 20
0.0
  0
LINE
  5
5C
100
AcDbEntity
  8
KOERPER
 62
     7
100
AcDbLine
 10
193.360807
 20
144.600993
 30
0.0
 11
135.009675
 21
144.600993
 31
0.0
  0
LINE
  5
5B
100
AcDbEntity
  8
KOERPER
 62
     7
100
AcDbLine
 10
98.436886
 20
100.807284
 30
0.0
 11
117.017147
 21
100.807284
 31
0.0
  0
LINE
  5
5A
100
AcDbEntity
  8
KOERPER
 62
     7
100
AcDbLine
 10
117.017147
 20
100.807284
 30
0.0
 11
149.567442
 21
100.807284
 31
0.0
  0
LINE
  5
59
100
AcDbEntity
  8
KOERPER
 62
     7
100
AcDbLine
 10
125.302257
 20
154.316507
 30
0.0
 11
212.483843
 21
67.167304
 31
0.0
  0
SPLINE
  5
58
100
AcDbEntity
  8
KOERPER
 62
     7
100
AcDbSpline
210
0.0
220
0.0
230
1.0
 70
     8
 71
     3
 72
     8
 73
     4
 74
     0
 42
0.00000001
 43
0.00000001
 40
0.0
 40
0.0
 40
0.0
 40
0.0
 40
1.0
 40
1.0
 40
1.0
 40
1.0
 10
124.11559380425346
 20
154.46722954644096
 30
0.0
 10
122.7802747938368
 20
153.26489122178819
 30
0.0
 10
121.69059109157985
 20
151.81502278645831
 30
0.0
 10
120.90683186848958
 20
150.19806722005208
 30
0.0
  0
SPLINE
  5
57
100
AcDbEntity
  8
KOERPER
 62
     7
100
AcDbSpline
210
0.0
220
0.0
230
1.0
 70
     8
 71
     3
 72
     8
 73
     4
 74
     0
 42
0.00000001
 43
0.00000001
 40
0.0
 40
0.0
 40
0.0
 40
0.0
 40
1.0
 40
1.0
 40
1.0
 40
1.0
 10
120.90683186848958
 20
150.19806722005208
 30
0.0
 10
121.68215060763887
 20
150.62749837239582
 30
0.0
 10
122.43834906684026
 20
151.09034695095485
 30
0.0
 10
123.17353244357638
 20
151.58506266276041
 30
0.0
  0
SPLINE
  5
56
100
AcDbEntity
  8
KOERPER
 62
     7
100
AcDbSpline
210
0.0
220
0.0
230
1.0
 70
     8
 71
     3
 72
     8
 73
     4
 74
     0
 42
0.00000001
 43
0.00000001
 40
0.0
 40
0.0
 40
0.0
 40
0.0
 40
1.0
 40
1.0
 40
1.0
 40
1.0
 10
123.03056098090276
 20
151.48946126302081
 30
0.0
 10
123.84067518446179
 20
152.0222452799479
 30
0.0
 10
124.57878689236109
 20
152.65648735894095
 30
0.0
 10
125.22767062717013
 20
153.37668457031248
 30
0.0
  0
SPLINE
  5
55
100
AcDbEntity
  8
KOERPER
 62
     7
100
AcDbSpline
210
0.0
220
0.0
230
1.0
 70
     8
 71
     3
 72
     8
 73
     4
 74
     0
 42
0.00000001
 43
0.00000001
 40
0.0
 40
0.0
 40
0.0
 40
0.0
 40
1.0
 40
1.0
 40
1.0
 40
1.0
 10
124.38517252604166
 20
154.10859510633679
 30
0.0
 10
123.03969048394096
 20
152.98359917534719
 30
0.0
 10
121.86749674479165
 20
151.66585015190969
 30
0.0
 10
120.90683186848958
 20
150.19806722005208
 30
0.0
  0
SPLINE
  5
54
100
AcDbEntity
  8
KOERPER
 62
     7
100
AcDbSpline
210
0.0
220
0.0
230
1.0
 70
     8
 71
     3
 72
     8
 73
     4
 74
     0
 42
0.00000001
 43
0.00000001
 40
0.0
 40
0.0
 40
0.0
 40
0.0
 40
1.0
 40
1.0
 40
1.0
 40
1.0
 10
120.90683186848958
 20
150.19806722005208
 30
0.0
 10
122.37805989583332
 20
151.1539089626736
 30
0.0
 10
123.70855577256944
 20
152.31059977213539
 30
0.0
 10
124.85921766493054
 20
153.63489447699652
 30
0.0
  0
SPLINE
  5
53
100
AcDbEntity
  8
KOERPER
 62
     7
100
AcDbSpline
210
0.0
220
0.0
230
1.0
 70
     8
 71
     3
 72
    11
 73
     7
 74
     0
 42
0.00000001
 43
0.00000001
 40
0.0
 40
0.0
 40
0.0
 40
0.0
 40
1.0
 40
1.0
 40
1.0
 40
2.0
 40
2.0
 40
2.0
 40
2.0
 10
124.85921766493054
 20
153.63489447699652
 30
0.0
 10
124.99047580295138
 20
153.76563585069442
 30
0.0
 10
124.98995903862846
 20
153.97785373263886
 30
0.0
 10
124.85921766493054
 20
154.10893961588539
 30
0.0
 10
124.72830403645833
 20
154.23968098958332
 30
0.0
 10
124.51608615451387
 20
154.23950873480902
 30
0.0
 10
124.38517252604166
 20
154.10859510633679
 30
0.0
  0
SPLINE
  5
52
100
AcDbEntity
  8
KOERPER
 62
     7
100
AcDbSpline
210
0.0
220
0.0
230
1.0
 70
     8
 71
     3
 72
    11
 73
     7
 74
     0
 42
0.00000001
 43
0.00000001
 40
0.0
 40
0.0
 40
0.0
 40
0.0
 40
1.0
 40
1.0
 40
1.0
 40
2.0
 40
2.0
 40
2.0
 40
2.0
 10
125.17358262803819
 20
153.31708441840277
 30
0.0
 10
125.48002387152776
 20
153.62163085937499
 30
0.0
 10
125.48140190972221
 20
154.11686333550347
 30
0.0
 10
125.22853190104165
 20
154.42313232421873
 30
0.0
 10
124.8762708875868
 20
154.72543945312498
 30
0.0
 10
124.38878987630207
 20
154.73129611545139
 30
0.0
 10
124.08097059461804
 20
154.43605143229166
 30
0.0
  0
SPLINE
  5
51
100
AcDbEntity
  8
KOERPER
 62
     7
100
AcDbSpline
210
0.0
220
0.0
230
1.0
 70
     8
 71
     3
 72
     8
 73
     4
 74
     0
 42
0.00000001
 43
0.00000001
 40
0.0
 40
0.0
 40
0.0
 40
0.0
 40
1.0
 40
1.0
 40
1.0
 40
1.0
 10
118.42343478732637
 20
148.72167154947914
 30
0.0
 10
119.26610514322915
 20
149.18848198784721
 30
0.0
 10
120.09430609809027
 20
149.6807861328125
 30
0.0
 10
120.90683186848958
 20
150.19806722005208
 30
0.0
  0
SPLINE
  5
50
100
AcDbEntity
  8
KOERPER
 62
     7
100
AcDbSpline
210
0.0
220
0.0
230
1.0
 70
     8
 71
     3
 72
     8
 73
     4
 74
     0
 42
0.00000001
 43
0.00000001
 40
0.0
 40
0.0
 40
0.0
 40
0.0
 40
1.0
 40
1.0
 40
1.0
 40
1.0
 10
206.59169650607637
 20
60.17272677951388
 30
0.0
 10
207.92701551649304
 20
61.375065104166659
 30
0.0
 10
209.01669921874998
 20
62.825105794270826
 30
0.0
 10
209.80045844184025
 20
64.441889105902774
 30
0.0
  0
SPLINE
  5
4F
100
AcDbEntity
  8
KOERPER
 62
     7
100
AcDbSpline
210
0.0
220
0.0
230
1.0
 70
     8
 71
     3
 72
     8
 73
     4
 74
     0
 42
0.00000001
 43
0.00000001
 40
0.0
 40
0.0
 40
0.0
 40
0.0
 40
1.0
 40
1.0
 40
1.0
 40
1.0
 10
212.28368326822914
 20
65.918112521701389
 30
0.0
 10
211.44101291232636
 20
65.451302083333331
 30
0.0
 10
210.61281195746525
 20
64.958997938368043
 30
0.0
 10
209.80045844184025
 20
64.441889105902774
 30
0.0
  0
SPLINE
  5
4E
100
AcDbEntity
  8
KOERPER
 62
     7
100
AcDbSpline
210
0.0
220
0.0
230
1.0
 70
     8
 71
     3
 72
     8
 73
     4
 74
     0
 42
0.00000001
 43
0.00000001
 40
0.0
 40
0.0
 40
0.0
 40
0.0
 40
1.0
 40
1.0
 40
1.0
 40
1.0
 10
118.4580579969618
 20
148.74079182942708
 30
0.0
 10
118.17986653645832
 20
148.54597167968748
 30
0.0
 10
118.01226264105901
 20
148.22971191406248
 30
0.0
 10
118.00726725260415
 20
147.89019775390625
 30
0.0
  0
SPLINE
  5
4D
100
AcDbEntity
  8
KOERPER
 62
     7
100
AcDbSpline
210
0.0
220
0.0
230
1.0
 70
     8
 71
     3
 72
     8
 73
     4
 74
     0
 42
0.00000001
 43
0.00000001
 40
0.0
 40
0.0
 40
0.0
 40
0.0
 40
1.0
 40
1.0
 40
1.0
 40
1.0
 10
212.69950629340275
 20
66.749758572048606
 30
0.0
 10
212.64300672743053
 20
66.908577473958331
 30
0.0
 10
212.56032443576387
 20
67.054994032118046
 30
0.0
 10
212.48212076822915
 20
67.168682183159717
 30
0.0
  0
SPLINE
  5
4C
100
AcDbEntity
  8
KOERPER
 62
     7
100
AcDbSpline
210
0.0
220
0.0
230
1.0
 70
     8
 71
     3
 72
     8
 73
     4
 74
     0
 42
0.00000001
 43
0.00000001
 40
0.0
 40
0.0
 40
0.0
 40
0.0
 40
1.0
 40
1.0
 40
1.0
 40
1.0
 10
212.24923231336803
 20
65.899164496527774
 30
0.0
 10
212.52725151909721
 20
66.094156901041657
 30
0.0
 10
212.69433865017359
 20
66.410416666666663
 30
0.0
 10
212.69950629340275
 20
66.749758572048606
 30
0.0
  0
SPLINE
  5
4B
100
AcDbEntity
  8
KOERPER
 62
     7
100
AcDbSpline
210
0.0
220
0.0
230
1.0
 70
     8
 71
     3
 72
     8
 73
     4
 74
     0
 42
0.00000001
 43
0.00000001
 40
0.0
 40
0.0
 40
0.0
 40
0.0
 40
1.0
 40
1.0
 40
1.0
 40
1.0
 10
209.80045844184025
 20
64.441889105902774
 30
0.0
 10
208.32905815972219
 20
63.48621961805555
 30
0.0
 10
206.99856228298609
 20
62.329356553819437
 30
0.0
 10
205.84755588107637
 20
61.005406358506939
 30
0.0
  0
SPLINE
  5
4A
100
AcDbEntity
  8
KOERPER
 62
     7
100
AcDbSpline
210
0.0
220
0.0
230
1.0
 70
     8
 71
     3
 72
     8
 73
     4
 74
     0
 42
0.00000001
 43
0.00000001
 40
0.0
 40
0.0
 40
0.0
 40
0.0
 40
1.0
 40
1.0
 40
1.0
 40
1.0
 10
207.67621256510415
 20
63.150322808159714
 30
0.0
 10
206.86661512586804
 20
62.617711046006939
 30
0.0
 10
206.12833116319442
 20
61.983468967013884
 30
0.0
 10
205.47961968315971
 20
61.263444010416663
 30
0.0
  0
SPLINE
  5
49
100
AcDbEntity
  8
KOERPER
 62
     7
100
AcDbSpline
210
0.0
220
0.0
230
1.0
 70
     8
 71
     3
 72
     8
 73
     4
 74
     0
 42
0.00000001
 43
0.00000001
 40
0.0
 40
0.0
 40
0.0
 40
0.0
 40
1.0
 40
1.0
 40
1.0
 40
1.0
 10
206.32194552951387
 20
60.531016710069437
 30
0.0
 10
207.66725531684025
 20
61.656529405381939
 30
0.0
 10
208.83962131076387
 20
62.973933919270827
 30
0.0
 10
209.80045844184025
 20
64.441889105902774
 30
0.0
  0
SPLINE
  5
48
100
AcDbEntity
  8
KOERPER
 62
     7
100
AcDbSpline
210
0.0
220
0.0
230
1.0
 70
     8
 71
     3
 72
     8
 73
     4
 74
     0
 42
0.00000001
 43
0.00000001
 40
0.0
 40
0.0
 40
0.0
 40
0.0
 40
1.0
 40
1.0
 40
1.0
 40
1.0
 10
209.80045844184025
 20
64.441889105902774
 30
0.0
 10
209.02496744791665
 20
64.012285698784723
 30
0.0
 10
208.26876898871527
 20
63.549609374999996
 30
0.0
 10
207.53324110243054
 20
63.054893663194441
 30
0.0
  0
SPLINE
  5
47
100
AcDbEntity
  8
KOERPER
 62
     7
100
AcDbSpline
210
0.0
220
0.0
230
1.0
 70
     8
 71
     3
 72
    11
 73
     7
 74
     0
 42
0.00000001
 43
0.00000001
 40
0.0
 40
0.0
 40
0.0
 40
0.0
 40
1.0
 40
1.0
 40
1.0
 40
2.0
 40
2.0
 40
2.0
 40
2.0
 10
205.84755588107637
 20
61.005406358506939
 30
0.0
 10
205.71698676215277
 20
60.874492730034717
 30
0.0
 10
205.71698676215277
 20
60.66227484809027
 30
0.0
 10
205.84790039062497
 20
60.531016710069437
 30
0.0
 10
205.9788140190972
 20
60.400447591145827
 30
0.0
 10
206.19103190104164
 20
60.400447591145827
 30
0.0
 10
206.32194552951387
 20
60.531016710069437
 30
0.0
  0
SPLINE
  5
46
100
AcDbEntity
  8
KOERPER
 62
     7
100
AcDbSpline
210
0.0
220
0.0
230
1.0
 70
     8
 71
     3
 72
    11
 73
     7
 74
     0
 42
0.00000001
 43
0.00000001
 40
0.0
 40
0.0
 40
0.0
 40
0.0
 40
1.0
 40
1.0
 40
1.0
 40
2.0
 40
2.0
 40
2.0
 40
2.0
 10
205.53336317274304
 20
61.323044162326383
 30
0.0
 10
205.22709418402775
 20
61.018153211805547
 30
0.0
 10
205.2257161458333
 20
60.523092990451381
 30
0.0
 10
205.53026258680555
 20
60.216824001736107
 30
0.0
 10
205.83101942274303
 20
59.914689127604163
 30
0.0
 10
206.31815592447916
 20
59.908832465277776
 30
0.0
 10
206.62614746093749
 20
60.20373263888888
 30
0.0
  0
LINE
  5
45
100
AcDbEntity
  8
KOERPER
 62
     7
100
AcDbLine
 10
193.360807
 20
165.390938
 30
0.0
 11
193.360807
 21
86.280694
 31
0.0
  0
LINE
  5
44
100
AcDbEntity
  8
KOERPER
 62
     7
100
AcDbLine
 10
149.567442
 20
54.960986
 30
0.0
 11
149.567442
 21
100.807284
 31
0.0
  0
LINE
  5
43
100
AcDbEntity
  8
KOERPER
 62
     7
100
AcDbLine
 10
149.567442
 20
165.390938
 30
0.0
 11
149.567442
 21
144.600993
 31
0.0
  0
LINE
  5
42
100
AcDbEntity
  8
KOERPER
 62
     7
100
AcDbLine
 10
193.360807
 20
72.380423
 30
0.0
 11
193.360807
 21
54.960986
 31
0.0
  0
LINE
  5
41
100
AcDbEntity
  8
KOERPER
 62
     7
100
AcDbLine
 10
120.473611
 20
145.188898
 30
0.0
 11
98.436886
 21
145.188898
 31
0.0
  0
LINE
  5
40
100
AcDbEntity
  8
KOERPER
 62
     7
100
AcDbLine
 10
118.016225
 20
147.845928
 30
0.0
 11
205.312533
 21
60.645738
 31
0.0
  0
LINE
  5
3F
100
AcDbEntity
  8
KOERPER
  6
AI9-LType1
 62
     7
100
AcDbLine
 10
120.739056
 20
144.853174
 30
0.0
 11
193.7315
 21
71.742735
 31
0.0
  0
LINE
  5
3E
100
AcDbEntity
  8
KOERPER
 62
     7
100
AcDbLine
 10
142.445741
 20
144.600993
 30
0.0
 11
193.360807
 21
93.709353
 31
0.0
  0
LINE
  5
3D
100
AcDbEntity
  8
KOERPER
  6
AI9-LType1
 62
     7
100
AcDbLine
 10
135.643228
 20
144.324524
 30
0.0
 11
193.553044
 21
86.473275
 31
0.0
  0
LINE
  5
3B
100
AcDbEntity
  8
KOERPER
 62
     7
100
AcDbLine
 10
113.01119
 20
145.263829
 30
0.0
 11
193.360807
 21
64.951419
 31
0.0
  0
POLYLINE
  5
34
100
AcDbEntity
  8
RAHMEN
 62
     7
100
AcDb2dPolyline
 66
     1
 10
0.0
 20
0.0
 30
0.0
 70
     1
  0
VERTEX
  5
35
100
AcDbEntity
  8
RAHMEN
 62
     7
100
AcDbVertex
100
AcDb2dVertex
 10
73.203973
 20
180.755031
 30
0.0
  0
VERTEX
  5
36
100
AcDbEntity
  8
RAHMEN
 62
     7
100
AcDbVertex
100
AcDb2dVertex
 10
73.203973
 20
36.495275
 30
0.0
  0
VERTEX
  5
37
100
AcDbEntity
  8
RAHMEN
 62
     7
100
AcDbVertex
100
AcDb2dVertex
 10
234.871796
 20
36.495275
 30
0.0
  0
VERTEX
  5
38
100
AcDbEntity
  8
RAHMEN
 62
     7
100
AcDbVertex
100
AcDb2dVertex
 10
234.871796
 20
180.755031
 30
0.0
  0
SEQEND
  5
39
100
AcDbEntity
  8
RAHMEN
 62
     7
  0
POLYLINE
  5
2E
100
AcDbEntity
  8
RAHMEN
 62
     7
100
AcDb2dPolyline
 66
     1
 10
0.0
 20
0.0
 30
0.0
 70
     1
  0
VERTEX
  5
2F
100
AcDbEntity
  8
RAHMEN
 62
     7
100
AcDbVertex
100
AcDb2dVertex
 10
209.361209
 20
53.100979
 30
0.0
  0
VERTEX
  5
30
100
AcDbEntity
  8
RAHMEN
 62
     7
100
AcDbVertex
100
AcDb2dVertex
 10
234.761209
 20
53.100979
 30
0.0
  0
VERTEX
  5
31
100
AcDbEntity
  8
RAHMEN
 62
     7
100
AcDbVertex
100
AcDb2dVertex
 10
234.761209
 20
36.722306
 30
0.0
  0
VERTEX
  5
32
100
AcDbEntity
  8
RAHMEN
 62
     7
100
AcDbVertex
100
AcDb2dVertex
 10
209.361209
 20
36.722306
 30
0.0
  0
SEQEND
  5
33
100
AcDbEntity
  8
RAHMEN
 62
     7
  0
MTEXT
  5
2D
100
AcDbEntity
  8
RAHMEN
 62
     7
100
AcDbMText
 10
214.551934
 20
50.819489
 30
0.0
 40
9.449404
 41
0.0
 71
     1
 72
     2
  1
\fMyriad Roman|b0|i0;\H9.4494;\C7;\U+0036\U+002E\U+0037
  7
STD
210
0.0
220
0.0
230
1.0
 73
     1
 44
1.0
  0
MTEXT
  5
2B
100
AcDbEntity
  8
TEXT
 62
     7
100
AcDbMText
 10
80.960433
 20
94.248855
 30
0.0
 40
5.512152
 41
0.0
 71
     1
 72
     2
  1
\fArial|b0|i0;\H5.5122;\C7;\U+004B\U+0065\U+0072\U+006E\U+0062\U+006F\U+0068\U+0072\U+0075\U+006E\U+0067
  7
STD
210
0.0
220
0.0
230
1.0
 73
     1
 44
1.0
  0
MTEXT
  5
2A
100
AcDbEntity
  8
TEXT
 62
     7
100
AcDbMText
 10
88.783384
 20
64.859434
 30
0.0
 40
5.512152
 41
0.0
 71
     1
 72
     2
  1
\fArial|b0|i0;\H5.5122;\C7;\U+0045\U+0078\U+0070\U+0061\U+006E\U+0073\U+0069\U+006F\U+006E\U+0073\U+0068\U+0061\U+0072\U+007A
  7
STD
210
0.0
220
0.0
230
1.0
 73
     1
 44
1.0
  0
MTEXT
  5
29
100
AcDbEntity
  8
TEXT
 62
     7
100
AcDbMText
 10
88.783384
 20
72.267768
 30
0.0
 40
5.512152
 41
0.0
 71
     1
 72
     2
  1
\fArial|b0|i0;\H5.5122;\C7;\U+0056\U+0065\U+0072\U+0067\U+0075\U+0073\U+0073\U+006D\U+00F6\U+0072\U+0074\U+0065\U+006C\U+002F
  7
STD
210
0.0
220
0.0
230
1.0
 73
     1
 44
1.0
  0
ENDSEC
  0
SECTION
  2
OBJECTS
  0
DICTIONARY
  5
19
100
AcDbDictionary
280
     0
281
     1
  3
ACAD_GROUP
350
1A
  3
ACAD_MLINESTYLE
350
1B
  3
ACAD_LAYOUT
350
1E
  3
ACAD_PLOTSETTINGS
350
22
  3
ACAD_PLOTSTYLENAME
350
1F
  3
ACAD_WIPEOUT_VARS
350
23
  0
DICTIONARY
  5
1A
102
{ACAD_REACTORS
330
19
102
}
100
AcDbDictionary
280
     0
281
     1
  0
DICTIONARY
  5
1B
102
{ACAD_REACTORS
330
19
102
}
100
AcDbDictionary
280
     0
281
     1
  3
Standard
350
1C
  0
MLINESTYLE
  5
1C
102
{ACAD_REACTORS
330
1B
102
}
100
AcDbMlineStyle
  2
Standard
 70
     0
  3

 62
     0
 51
90.0
 52
90.0
 71
     2
 49
0.5
 62
   256
  6
ByLayer
 49
-0.5
 62
   256
  6
ByLayer
  0
ACDBDICTIONARYWDFLT
  5
1F
102
{ACAD_REACTORS
330
19
102
}
100
AcDbDictionary
281
     1
  3
Normal
350
1D
100
AcDbDictionaryWithDefault
340
1D
  0
ACDBPLACEHOLDER
  5
1D
102
{ACAD_REACTORS
330
1F
102
}
  0
LAYOUT
  5
20
102
{ACAD_REACTORS
330
1E
102
}
100
AcDbPlotSettings
  1

  2

  4

  6

 40
0.0
 41
0.0
 42
0.0
 43
0.0
 44
0.0
 45
0.0
 46
0.0
 47
0.0
 48
0.0
 49
0.0
140
0.0
141
0.0
142
1.0
143
1.0
 70
  1024
 72
     0
 73
     0
 74
     0
  7

 75
     0
147
1.0
148
0.0
149
0.0
100
AcDbLayout
  1
Model
 70
     0
 71
     0
 10
0.0
 20
0.0
 11
0.0
 21
0.0
 12
0.0
 22
0.0
 32
0.0
 14
0.0
 24
0.0
 34
0.0
 15
0.0
 25
0.0
 35
0.0
146
0.0
 13
0.0
 23
0.0
 33
0.0
 16
0.0
 26
0.0
 36
0.0
 17
0.0
 27
0.0
 37
0.0
 76
     0
330
A
331
0
345
0
346
0
  0
LAYOUT
  5
21
102
{ACAD_REACTORS
330
1E
102
}
100
AcDbPlotSettings
  1

  2

  4

  6

 40
0.0
 41
0.0
 42
0.0
 43
0.0
 44
0.0
 45
0.0
 46
0.0
 47
0.0
 48
0.0
 49
0.0
140
0.0
141
0.0
142
1.0
143
1.0
 70
     0
 72
     0
 73
     0
 74
     0
  7

 75
     0
147
1.0
148
0.0
149
0.0
100
AcDbLayout
  1
Layout1
 70
     0
 71
     0
 10
0.0
 20
0.0
 11
0.0
 21
0.0
 12
0.0
 22
0.0
 32
0.0
 14
0.0
 24
0.0
 34
0.0
 15
0.0
 25
0.0
 35
0.0
146
0.0
 13
0.0
 23
0.0
 33
0.0
 16
0.0
 26
0.0
 36
0.0
 17
0.0
 27
0.0
 37
0.0
 76
     0
330
B
331
0
345
0
346
0
  0
DICTIONARY
  5
1E
102
{ACAD_REACTORS
330
19
102
}
100
AcDbDictionary
280
     0
281
     1
  3
Layout1
350
21
  3
Model
350
20
  0
DICTIONARY
  5
22
102
{ACAD_REACTORS
330
19
102
}
100
AcDbDictionary
280
     0
281
     1
  0
WIPEOUTVARIABLES
  5
23
100
AcDbWipeoutVariables
 70
     1
  0
ENDSEC
  0
EOF
